  0
SECTION
  2
HEADER
  9
$ACADVER
  1
AC1015
  9
$ACADMAINTVER
 70
     6
  9
$DWGCODEPAGE
  3
ANSI_1252
  9
$INSBASE
 10
0.0
 20
0.0
 30
0.0
  9
$EXTMIN
 10
0.0
 20
0.0
 30
0.0
  9
$EXTMAX
 10
8.5
 20
11.0
 30
0.0
  9
$LIMMIN
 10
0.0
 20
0.0
  9
$LIMMAX
 10
8.5
 20
11.0
  9
$ORTHOMODE
 70
     0
  9
$REGENMODE
 70
     1
  9
$FILLMODE
 70
     1
  9
$QTEXTMODE
 70
     0
  9
$MIRRTEXT
 70
     1
  9
$LTSCALE
 40
1.0
  9
$ATTMODE
 70
     1
  9
$TEXTSIZE
 40
0.125
  9
$TRACEWID
 40
0.05
  9
$TEXTSTYLE
  7
Standard
  9
$CLAYER
  8
0
  9
$CELTYPE
  6
ByLayer
  9
$CECOLOR
 62
   256
  9
$CELTSCALE
 40
1.0
  9
$DISPSILH
 70
     0
  9
$DIMSCALE
 40
1.0
  9
$DIMASZ
 40
0.13
  9
$DIMEXO
 40
0.05
  9
$DIMDLI
 40
0.38
  9
$DIMRND
 40
0.0
  9
$DIMDLE
 40
0.0
  9
$DIMEXE
 40
0.125
  9
$DIMTP
 40
0.0
  9
$DIMTM
 40
0.0
  9
$DIMTXT
 40
0.1527777778
  9
$DIMCEN
 40
0.09
  9
$DIMTSZ
 40
0.0
  9
$DIMTOL
 70
     0
  9
$DIMLIM
 70
     0
  9
$DIMTIH
 70
     1
  9
$DIMTOH
 70
     1
  9
$DIMSE1
 70
     0
  9
$DIMSE2
 70
     0
  9
$DIMTAD
 70
     1
  9
$DIMZIN
 70
     0
  9
$DIMBLK
  1

  9
$DIMASO
 70
     1
  9
$DIMSHO
 70
     1
  9
$DIMPOST
  1

  9
$DIMAPOST
  1

  9
$DIMALT
 70
     0
  9
$DIMALTD
 70
     2
  9
$DIMALTF
 40
25.4
  9
$DIMLFAC
 40
8.0
  9
$DIMTOFL
 70
     0
  9
$DIMTVP
 40
0.0
  9
$DIMTIX
 70
     0
  9
$DIMSOXD
 70
     0
  9
$DIMSAH
 70
     0
  9
$DIMBLK1
  1

  9
$DIMBLK2
  1

  9
$DIMSTYLE
  2
Standard
  9
$DIMCLRD
 70
     0
  9
$DIMCLRE
 70
     0
  9
$DIMCLRT
 70
     0
  9
$DIMTFAC
 40
1.0
  9
$DIMGAP
 40
0.06
  9
$DIMJUST
 70
     0
  9
$DIMSD1
 70
     0
  9
$DIMSD2
 70
     0
  9
$DIMTOLJ
 70
     1
  9
$DIMTZIN
 70
     0
  9
$DIMALTZ
 70
     0
  9
$DIMALTTZ
 70
     0
  9
$DIMUPT
 70
     0
  9
$DIMDEC
 70
     2
  9
$DIMTDEC
 70
     2
  9
$DIMALTU
 70
     2
  9
$DIMALTTD
 70
     2
  9
$DIMTXSTY
  7
Standard
  9
$DIMAUNIT
 70
     0
  9
$DIMADEC
 70
     2
  9
$DIMALTRND
 40
0.0
  9
$DIMAZIN
 70
     0
  9
$DIMDSEP
 70
    46
  9
$DIMATFIT
 70
     3
  9
$DIMFRAC
 70
     0
  9
$DIMLDRBLK
  1

  9
$DIMLUNIT
 70
     2
  9
$DIMLWD
 70
    -2
  9
$DIMLWE
 70
    -2
  9
$DIMTMOVE
 70
     0
  9
$LUNITS
 70
     2
  9
$LUPREC
 70
     3
  9
$SKETCHINC
 40
0.1
  9
$FILLETRAD
 40
0.5
  9
$AUNITS
 70
     0
  9
$AUPREC
 70
     2
  9
$MENU
  1
.
  9
$ELEVATION
 40
0.0
  9
$PELEVATION
 40
0.0
  9
$THICKNESS
 40
0.0
  9
$LIMCHECK
 70
     0
  9
$CHAMFERA
 40
0.5
  9
$CHAMFERB
 40
0.5
  9
$CHAMFERC
 40
1.0
  9
$CHAMFERD
 40
0.0
  9
$SKPOLY
 70
     0
  9
$TDCREATE
 40
2456051.577772095
  9
$TDUCREATE
 40
2456051.827772095
  9
$TDUPDATE
 40
2456051.577772326
  9
$TDUUPDATE
 40
2456051.827772326
  9
$TDINDWG
 40
0.0000000116
  9
$TDUSRTIMER
 40
0.0000000116
  9
$USRTIMER
 70
     1
  9
$ANGBASE
 50
0.0
  9
$ANGDIR
 70
     0
  9
$PDMODE
 70
     0
  9
$PDSIZE
 40
-1.0
  9
$PLINEWID
 40
0.0
  9
$SPLFRAME
 70
     0
  9
$SPLINETYPE
 70
     6
  9
$SPLINESEGS
 70
     8
  9
$HANDSEED
  5
1A2
  9
$SURFTAB1
 70
     6
  9
$SURFTAB2
 70
     6
  9
$SURFTYPE
 70
     6
  9
$SURFU
 70
     6
  9
$SURFV
 70
     6
  9
$UCSBASE
  2

  9
$UCSNAME
  2

  9
$UCSORG
 10
0.0
 20
0.0
 30
0.0
  9
$UCSXDIR
 10
1.0
 20
0.0
 30
0.0
  9
$UCSYDIR
 10
0.0
 20
1.0
 30
0.0
  9
$UCSORTHOREF
  2

  9
$UCSORTHOVIEW
 70
     0
  9
$UCSORGTOP
 10
0.0
 20
0.0
 30
0.0
  9
$UCSORGBOTTOM
 10
0.0
 20
0.0
 30
0.0
  9
$UCSORGLEFT
 10
0.0
 20
0.0
 30
0.0
  9
$UCSORGRIGHT
 10
0.0
 20
0.0
 30
0.0
  9
$UCSORGFRONT
 10
0.0
 20
0.0
 30
0.0
  9
$UCSORGBACK
 10
0.0
 20
0.0
 30
0.0
  9
$PUCSBASE
  2

  9
$PUCSNAME
  2

  9
$PUCSORG
 10
0.0
 20
0.0
 30
0.0
  9
$PUCSXDIR
 10
1.0
 20
0.0
 30
0.0
  9
$PUCSYDIR
 10
0.0
 20
1.0
 30
0.0
  9
$PUCSORTHOREF
  2

  9
$PUCSORTHOVIEW
 70
     0
  9
$PUCSORGTOP
 10
0.0
 20
0.0
 30
0.0
  9
$PUCSORGBOTTOM
 10
0.0
 20
0.0
 30
0.0
  9
$PUCSORGLEFT
 10
0.0
 20
0.0
 30
0.0
  9
$PUCSORGRIGHT
 10
0.0
 20
0.0
 30
0.0
  9
$PUCSORGFRONT
 10
0.0
 20
0.0
 30
0.0
  9
$PUCSORGBACK
 10
0.0
 20
0.0
 30
0.0
  9
$USERI1
 70
     0
  9
$USERI2
 70
     0
  9
$USERI3
 70
     0
  9
$USERI4
 70
     0
  9
$USERI5
 70
     0
  9
$USERR1
 40
0.0
  9
$USERR2
 40
0.0
  9
$USERR3
 40
0.0
  9
$USERR4
 40
0.0
  9
$USERR5
 40
0.0
  9
$WORLDVIEW
 70
     1
  9
$SHADEDGE
 70
     3
  9
$SHADEDIF
 70
    70
  9
$TILEMODE
 70
     1
  9
$MAXACTVP
 70
    64
  9
$PINSBASE
 10
0.0
 20
0.0
 30
0.0
  9
$PLIMCHECK
 70
     0
  9
$PEXTMIN
 10
1.0000000000E+20
 20
1.0000000000E+20
 30
1.0000000000E+20
  9
$PEXTMAX
 10
-1.0000000000E+20
 20
-1.0000000000E+20
 30
-1.0000000000E+20
  9
$PLIMMIN
 10
0.0
 20
0.0
  9
$PLIMMAX
 10
12.0
 20
9.0
  9
$UNITMODE
 70
     0
  9
$VISRETAIN
 70
     1
  9
$PLINEGEN
 70
     0
  9
$PSLTSCALE
 70
     1
  9
$TREEDEPTH
 70
  3020
  9
$CMLSTYLE
  2
Standard
  9
$CMLJUST
 70
     0
  9
$CMLSCALE
 40
1.0
  9
$PROXYGRAPHICS
 70
     1
  9
$MEASUREMENT
 70
     0
  9
$CELWEIGHT
370
    -1
  9
$ENDCAPS
280
     0
  9
$JOINSTYLE
280
     0
  9
$LWDISPLAY
290
     1
  9
$INSUNITS
 70
     1
  9
$HYPERLINKBASE
  1

  9
$STYLESHEET
  1

  9
$XEDIT
290
     1
  9
$CEPSNTYPE
380
     0
  9
$PSTYLEMODE
290
     1
  9
$FINGERPRINTGUID
  2
{45F8E632-2B19-41C2-90FD-F3C1A58F64E7}
  9
$VERSIONGUID
  2
{FAEB1C32-E019-11D5-929B-00C0DF256EC4}
  9
$EXTNAMES
290
     1
  9
$PSVPSCALE
 40
0.0
  9
$OLESTARTUP
290
     0
  0
ENDSEC
  0
SECTION
  2
CLASSES
  0
CLASS
  1
ACDBDICTIONARYWDFLT
  2
AcDbDictionaryWithDefault
  3
ObjectDBX Classes
 90
        0
280
     0
281
     0
  0
CLASS
  1
VISUALSTYLE
  2
AcDbVisualStyle
  3
ObjectDBX Classes
 90
     4095
280
     0
281
     0
  0
CLASS
  1
MATERIAL
  2
AcDbMaterial
  3
ObjectDBX Classes
 90
     1153
280
     0
281
     0
  0
CLASS
  1
ACDBPLACEHOLDER
  2
AcDbPlaceHolder
  3
ObjectDBX Classes
 90
        0
280
     0
281
     0
  0
CLASS
  1
LAYOUT
  2
AcDbLayout
  3
ObjectDBX Classes
 90
        0
280
     0
281
     0
  0
ENDSEC
  0
SECTION
  2
TABLES
  0
TABLE
  2
VPORT
  5
8
330
0
100
AcDbSymbolTable
 70
     1
  0
VPORT
  5
29
330
8
100
AcDbSymbolTableRecord
100
AcDbViewportTableRecord
  2
*Active
 70
     0
 10
0.0
 20
0.0
 11
1.0
 21
1.0
 12
4.25
 22
5.5
 13
0.0
 23
0.0
 14
0.5
 24
0.5
 15
0.5
 25
0.5
 16
0.0
 26
0.0
 36
1.0
 17
0.0
 27
0.0
 37
0.0
 40
11.0
 41
0.7727272727
 42
50.0
 43
0.0
 44
0.0
 50
0.0
 51
0.0
 71
     0
 72
  2000
 73
     1
 74
     3
 75
     0
 76
     0
 77
     0
 78
     0
281
     0
 65
     1
110
0.0
120
0.0
130
0.0
111
1.0
121
0.0
131
0.0
112
0.0
122
1.0
132
0.0
 79
     0
146
0.0
  0
ENDTAB
  0
TABLE
  2
LTYPE
  5
5
330
0
100
AcDbSymbolTable
 70
     6
  0
LTYPE
  5
14
330
5
100
AcDbSymbolTableRecord
100
AcDbLinetypeTableRecord
  2
ByBlock
 70
     0
  3

 72
    65
 73
     0
 40
0.0
  0
LTYPE
  5
15
330
5
100
AcDbSymbolTableRecord
100
AcDbLinetypeTableRecord
  2
ByLayer
 70
     0
  3

 72
    65
 73
     0
 40
0.0
  0
LTYPE
  5
16
330
5
100
AcDbSymbolTableRecord
100
AcDbLinetypeTableRecord
  2
Continuous
 70
     0
  3
Solid line
 72
    65
 73
     0
 40
0.0
  0
LTYPE
  5
3F
330
5
100
AcDbSymbolTableRecord
100
AcDbLinetypeTableRecord
  2
HIDDEN
 70
     0
  3
Hidden __ __ __ __ __ __ __ __ __ __ __ __ __ __
 72
    65
 73
     2
 40
0.075
 49
0.05
 74
     0
 49
-0.025
 74
     0
  0
LTYPE
  5
40
330
5
100
AcDbSymbolTableRecord
100
AcDbLinetypeTableRecord
  2
PHANTOM
 70
     0
  3
Phantom ______  __  __  ______  __  __  ______
 72
    65
 73
     6
 40
0.5
 49
0.25
 74
     0
 49
-0.05
 74
     0
 49
0.05
 74
     0
 49
-0.05
 74
     0
 49
0.05
 74
     0
 49
-0.05
 74
     0
  0
LTYPE
  5
41
330
5
100
AcDbSymbolTableRecord
100
AcDbLinetypeTableRecord
  2
CENTER
 70
     0
  3
Center ____ _ ____ _ ____ _ ____ _ ____ _ ____
 72
    65
 73
     4
 40
0.4
 49
0.25
 74
     0
 49
-0.05
 74
     0
 49
0.05
 74
     0
 49
-0.05
 74
     0
  0
LTYPE
  5
42
330
5
100
AcDbSymbolTableRecord
100
AcDbLinetypeTableRecord
  2
CENTERX2
 70
     0
  3
Center (2x) ________  __  ________  __  _____
 72
    65
 73
     4
 40
0.8
 49
0.5
 74
     0
 49
-0.1
 74
     0
 49
0.1
 74
     0
 49
-0.1
 74
     0
  0
LTYPE
  5
43
330
5
100
AcDbSymbolTableRecord
100
AcDbLinetypeTableRecord
  2
DOT2
 70
     0
  3
Dot (.5x) ........................................
 72
    65
 73
     2
 40
0.025
 49
0.0
 74
     0
 49
-0.025
 74
     0
  0
ENDTAB
  0
TABLE
  2
LAYER
  5
2
330
0
100
AcDbSymbolTable
 70
     1
  0
LAYER
  5
10
330
2
100
AcDbSymbolTableRecord
100
AcDbLayerTableRecord
  2
0
 70
     0
 62
     7
  6
Continuous
370
    -3
390
F
  0
ENDTAB
  0
TABLE
  2
STYLE
  5
3
330
0
100
AcDbSymbolTable
 70
     1
  0
STYLE
  5
11
330
3
100
AcDbSymbolTableRecord
100
AcDbTextStyleTableRecord
  2
Standard
 70
     0
 40
0.0
 41
1.0
 50
0.0
 71
     0
 42
0.125
  3
txt
  4

  0
ENDTAB
  0
TABLE
  2
VIEW
  5
6
330
0
100
AcDbSymbolTable
 70
     0
  0
ENDTAB
  0
TABLE
  2
UCS
  5
7
330
0
100
AcDbSymbolTable
 70
     0
  0
ENDTAB
  0
TABLE
  2
APPID
  5
9
330
0
100
AcDbSymbolTable
 70
     1
  0
APPID
  5
12
330
9
100
AcDbSymbolTableRecord
100
AcDbRegAppTableRecord
  2
ACAD
 70
     0
  0
ENDTAB
  0
TABLE
  2
DIMSTYLE
  5
A
330
0
100
AcDbSymbolTable
 70
     1
100
AcDbDimStyleTable
  0
DIMSTYLE
105
27
330
A
100
AcDbSymbolTableRecord
100
AcDbDimStyleTableRecord
  2
Standard
 70
     0
178
     0
340
11
  0
ENDTAB
  0
TABLE
  2
BLOCK_RECORD
  5
1
330
0
100
AcDbSymbolTable
 70
     1
  0
BLOCK_RECORD
  5
1F
330
1
100
AcDbSymbolTableRecord
100
AcDbBlockTableRecord
  2
*Model_Space
340
22
  0
BLOCK_RECORD
  5
1B
330
1
100
AcDbSymbolTableRecord
100
AcDbBlockTableRecord
  2
*Paper_Space
340
1E
  0
BLOCK_RECORD
  5
23
330
1
100
AcDbSymbolTableRecord
100
AcDbBlockTableRecord
  2
*Paper_Space0
340
26
  0
ENDTAB
  0
ENDSEC
  0
SECTION
  2
BLOCKS
  0
BLOCK
  5
20
330
1F
100
AcDbEntity
  8
0
100
AcDbBlockBegin
  2
*Model_Space
 70
     0
 10
0.0
 20
0.0
 30
0.0
  3
*Model_Space
  1

  0
ENDBLK
  5
21
330
1F
100
AcDbEntity
  8
0
100
AcDbBlockEnd
  0
BLOCK
  5
1C
330
1B
100
AcDbEntity
 67
     1
  8
0
100
AcDbBlockBegin
  2
*Paper_Space
 70
     0
 10
0.0
 20
0.0
 30
0.0
  3
*Paper_Space
  1

  0
ENDBLK
  5
1D
330
1B
100
AcDbEntity
 67
     1
  8
0
100
AcDbBlockEnd
  0
BLOCK
  5
24
330
23
100
AcDbEntity
  8
0
100
AcDbBlockBegin
  2
*Paper_Space0
 70
     0
 10
0.0
 20
0.0
 30
0.0
  3
*Paper_Space0
  1

  0
ENDBLK
  5
25
330
23
100
AcDbEntity
  8
0
100
AcDbBlockEnd
  0
ENDSEC
  0
SECTION
  2
ENTITIES
  0
LINE
  5
44
330
1F
100
AcDbEntity
  8
0
  6
Continuous
 62
     7
370
    15
100
AcDbLine
 10
3.7041625002
 20
8.1693937417
 30
0.0
 11
3.6041624904
 21
8.1693937417
 31
0.0
  0
LINE
  5
45
330
1F
100
AcDbEntity
  8
0
  6
Continuous
 62
     7
370
    15
100
AcDbLine
 10
3.7006624873
 20
8.0781437275
 30
0.0
 11
3.7041625002
 21
8.0781437275
 31
0.0
  0
LINE
  5
46
330
1F
100
AcDbEntity
  8
0
  6
Continuous
 62
     7
370
    15
100
AcDbLine
 10
3.7204125025
 20
8.1577523562
 30
0.0
 11
3.7174802113
 21
8.1628312175
 31
0.0
  0
LINE
  5
47
330
1F
100
AcDbEntity
  8
0
  6
Continuous
 62
     7
370
    15
100
AcDbLine
 10
3.7041625002
 20
8.0847062334
 30
0.0
 11
3.7116624886
 21
8.0847062334
 31
0.0
  0
LINE
  5
48
330
1F
100
AcDbEntity
  8
0
  6
Continuous
 62
     7
370
    15
100
AcDbLine
 10
3.7174802113
 20
8.1628312175
 30
0.0
 11
3.7041625002
 21
8.1628312175
 31
0.0
  0
SPLINE
  5
49
330
1F
100
AcDbEntity
  8
0
  6
Continuous
 62
     7
370
    15
100
AcDbSpline
210
0.0
220
0.0
230
1.0
 70
     8
 71
     3
 72
    11
 73
     7
 74
     0
 42
0.00000001
 43
0.00000001
 12
1.0
 22
0.0
 32
0.0
 13
1.0
 23
0.0
 33
0.0
 40
0.0
 40
0.0
 40
0.0
 40
0.0
 40
0.0752924913446966
 40
0.4693095866890765
 40
0.8720453197110525
 40
0.9999999999999999
 40
0.9999999999999999
 40
0.9999999999999999
 40
0.9999999999999999
 10
3.436308499465766
 20
7.746449234887696
 30
0.0
 10
3.436734617062903
 20
7.746611588672857
 30
0.0
 10
3.439390673062934
 20
7.747623564587726
 30
0.0
 10
3.445351556314818
 20
7.749458082858441
 30
0.0
 10
3.451939112658246
 20
7.751363132110956
 30
0.0
 10
3.456248466233211
 20
7.752366276069189
 30
0.0
 10
3.4572874937813
 20
7.752608143947787
 30
0.0
  0
LINE
  5
4A
330
1F
100
AcDbEntity
  8
0
  6
Continuous
 62
     7
370
    15
100
AcDbLine
 10
4.4534124831
 20
7.654211219
 30
0.0
 11
4.4534124831
 21
7.6298726251
 31
0.0
  0
LINE
  5
4B
330
1F
100
AcDbEntity
  8
0
  6
Continuous
 62
     7
370
    15
100
AcDbLine
 10
4.4846624988
 20
7.6298726251
 30
0.0
 11
4.4846624988
 21
7.6488389269
 31
0.0
  0
SPLINE
  5
4C
330
1F
100
AcDbEntity
  8
0
  6
Continuous
 62
     7
370
    15
100
AcDbSpline
210
0.0
220
0.0
230
1.0
 70
     8
 71
     3
 72
    17
 73
    13
 74
     0
 42
0.00000001
 43
0.00000001
 12
1.0
 22
0.0
 32
0.0
 13
1.0
 23
0.0
 33
0.0
 40
0.0
 40
0.0
 40
0.0
 40
0.0
 40
0.0587564522112226
 40
0.1841153174569056
 40
0.2953413987931305
 40
0.4007056750184365
 40
0.5125208149644788
 40
0.6216990904791766
 40
0.730449389037507
 40
0.839528361571984
 40
0.9494344515272588
 40
1.0
 40
1.0
 40
1.0
 40
1.0
 10
4.453412483127087
 20
7.629872625132307
 30
0.0
 10
4.453398043713471
 20
7.629444904699632
 30
0.0
 10
4.453352797325685
 20
7.62810462835072
 30
0.0
 10
4.452825371400028
 20
7.625808541249676
 30
0.0
 10
4.451408273850676
 20
7.622641077425913
 30
0.0
 10
4.44907531987185
 20
7.619144691570378
 30
0.0
 10
4.445668328830863
 20
7.615322485738829
 30
0.0
 10
4.441053459312428
 20
7.611254196433677
 30
0.0
 10
4.435366907297489
 20
7.607143478451992
 30
0.0
 10
4.428539982151499
 20
7.603065453426324
 30
0.0
 10
4.422248561548786
 20
7.599768393537719
 30
0.0
 10
4.417905897773895
 20
7.597924794024739
 30
0.0
 10
4.416537499110049
 20
7.597343865073985
 30
0.0
  0
SPLINE
  5
4D
330
1F
100
AcDbEntity
  8
0
  6
Continuous
 62
     7
370
    15
100
AcDbSpline
210
0.0
220
0.0
230
1.0
 70
     8
 71
     3
 72
    19
 73
    15
 74
     0
 42
0.00000001
 43
0.00000001
 12
1.0
 22
0.0
 32
0.0
 13
1.0
 23
0.0
 33
0.0
 40
0.0
 40
0.0
 40
0.0
 40
0.0
 40
0.0053285682733678
 40
0.1037430080282921
 40
0.2028030389524735
 40
0.3025891004369441
 40
0.4030905243394636
 40
0.5040447372123352
 40
0.6043275299347396
 40
0.7023044527110698
 40
0.786181398071909
 40
0.8756840714704625
 40
0.961225242791765
 40
1.0
 40
1.0
 40
1.0
 40
1.0
 10
4.416537499110049
 20
7.563663207489149
 30
0.0
 10
4.416757246044182
 20
7.563737403324255
 30
0.0
 10
4.421035544975969
 20
7.565181937525974
 30
0.0
 10
4.4286518008796
 20
7.568382408059103
 30
0.0
 10
4.439270140047904
 20
7.57330162415598
 30
0.0
 10
4.448932367224241
 20
7.578707151275778
 30
0.0
 10
4.457687301496336
 20
7.584557283181186
 30
0.0
 10
4.465409088937517
 20
7.590876552237245
 30
0.0
 10
4.4719838973006
 20
7.597642767762948
 30
0.0
 10
4.477092192699892
 20
7.604544067681147
 30
0.0
 10
4.48092805046442
 20
7.61166744030266
 30
0.0
 10
4.483457761888634
 20
7.618881337699708
 30
0.0
 10
4.484546397633454
 20
7.625091033359728
 30
0.0
 10
4.484634895778684
 20
7.628735803251817
 30
0.0
 10
4.484662498790906
 20
7.629872625132307
 30
0.0
  0
LINE
  5
4E
330
1F
100
AcDbEntity
  8
0
  6
Continuous
 62
     7
370
    15
100
AcDbLine
 10
3.4204125098
 20
7.9279380427
 30
0.0
 11
3.4204125098
 21
8.0174773567
 31
0.0
  0
LINE
  5
4F
330
1F
100
AcDbEntity
  8
0
  6
Continuous
 62
     7
370
    15
100
AcDbLine
 10
3.3891624941
 20
8.0174773567
 30
0.0
 11
3.3891624941
 21
7.9279380427
 31
0.0
  0
SPLINE
  5
50
330
1F
100
AcDbEntity
  8
0
  6
Continuous
 62
     7
370
    15
100
AcDbSpline
210
0.0
220
0.0
230
1.0
 70
     8
 71
     3
 72
    16
 73
    12
 74
     0
 42
0.00000001
 43
0.00000001
 12
1.0
 22
0.0
 32
0.0
 13
1.0
 23
0.0
 33
0.0
 40
0.0
 40
0.0
 40
0.0
 40
0.0
 40
0.0604975057003508
 40
0.193997908641792
 40
0.3254222851977531
 40
0.4527090374235421
 40
0.5761742379513354
 40
0.696963799531914
 40
0.816140388087619
 40
0.9344674907748217
 40
1.0
 40
1.0
 40
1.0
 40
1.0
 10
3.420412509764262
 20
8.01747735665604
 30
0.0
 10
3.420437832487318
 20
8.018589300653597
 30
0.0
 10
3.420519035096534
 20
8.022154981710294
 30
0.0
 10
3.421497132149584
 20
8.028158197100582
 30
0.0
 10
3.423850390389748
 20
8.035475377890712
 30
0.0
 10
3.427390706735392
 20
8.042679417384205
 30
0.0
 10
3.432040793366896
 20
8.04969911496336
 30
0.0
 10
3.437744962849842
 20
8.056510583402515
 30
0.0
 10
3.444533720806415
 20
8.063069463984691
 30
0.0
 10
3.45103490700652
 20
8.068480141558053
 30
0.0
 10
3.455644508034074
 20
8.071557836140471
 30
0.0
 10
3.4572874937813
 20
8.072654809241397
 30
0.0
  0
SPLINE
  5
51
330
1F
100
AcDbEntity
  8
0
  6
Continuous
 62
     7
370
    15
100
AcDbSpline
210
0.0
220
0.0
230
1.0
 70
     8
 71
     3
 72
    28
 73
    24
 74
     0
 42
0.00000001
 43
0.00000001
 12
1.0
 22
0.0
 32
0.0
 13
1.0
 23
0.0
 33
0.0
 40
0.0
 40
0.0
 40
0.0
 40
0.0
 40
0.0265692614463223
 40
0.0767107740925727
 40
0.1268774859424506
 40
0.1770752619330121
 40
0.2273194546330134
 40
0.277625056610726
 40
0.3280065752018989
 40
0.3784767432514302
 40
0.4290447661523626
 40
0.4797137853611006
 40
0.5304759264339014
 40
0.5813056383168476
 40
0.6321333710939009
 40
0.6828514394715484
 40
0.7333182281852829
 40
0.7833630529082094
 40
0.832818998211335
 40
0.8815718316035585
 40
0.9296053618140164
 40
0.9770211198093008
 40
1.0
 40
1.0
 40
1.0
 40
1.0
 10
3.592287504249659
 20
8.139393714934531
 30
0.0
 10
3.589514202722406
 20
8.139373619499338
 30
0.0
 10
3.58150712629774
 20
8.139315599957003
 30
0.0
 10
3.568292009980909
 20
8.13867325403804
 30
0.0
 10
3.552761704568564
 20
8.137239028382
 30
0.0
 10
3.537457850253325
 20
8.13509267248555
 30
0.0
 10
3.522469232762104
 20
8.13225570647408
 30
0.0
 10
3.507881180882964
 20
8.128736534015834
 30
0.0
 10
3.493777171933178
 20
8.12455021244986
 30
0.0
 10
3.480238511589984
 20
8.119712828393673
 30
0.0
 10
3.467344301789864
 20
8.114242590410635
 30
0.0
 10
3.455171970420772
 20
8.108159762952091
 30
0.0
 10
3.443797731397406
 20
8.101486869074625
 30
0.0
 10
3.433298532884495
 20
8.094250504366022
 30
0.0
 10
3.423752618270879
 20
8.086483861755767
 30
0.0
 10
3.415237753226059
 20
8.078229224683644
 30
0.0
 10
3.407828595453058
 20
8.069540265703875
 30
0.0
 10
3.401590913542217
 20
8.060483582988907
 30
0.0
 10
3.396578672741277
 20
8.051138170871598
 30
0.0
 10
3.392818725021558
 20
8.041590231805548
 30
0.0
 10
3.390342951216921
 20
8.031926459260418
 30
0.0
 10
3.38928272936065
 20
8.023860172169897
 30
0.0
 10
3.389192083556715
 20
8.019048144128998
 30
0.0
 10
3.389162494100443
 20
8.01747735665604
 30
0.0
  0
LINE
  5
52
330
1F
100
AcDbEntity
  8
0
  6
Continuous
 62
     7
370
    15
100
AcDbLine
 10
3.6041624904
 20
8.1393937149
 30
0.0
 11
3.5922875042
 21
8.1393937149
 31
0.0
  0
LINE
  5
53
330
1F
100
AcDbEntity
  8
0
  6
Continuous
 62
     7
370
    15
100
AcDbLine
 10
4.5177874795
 20
7.6915425785
 30
0.0
 11
4.5177874795
 21
7.739111843
 31
0.0
  0
LINE
  5
54
330
1F
100
AcDbEntity
  8
0
  6
Continuous
 62
     7
370
    15
100
AcDbLine
 10
4.4202875025
 20
7.7058585236
 30
0.0
 11
4.4202875025
 21
7.6915425785
 31
0.0
  0
LINE
  5
55
330
1F
100
AcDbEntity
  8
0
  6
Continuous
 62
     7
370
    15
100
AcDbLine
 10
3.3560375134
 20
7.8898966963
 30
0.0
 11
3.3560375134
 21
7.8190357807
 31
0.0
  0
LINE
  5
56
330
1F
100
AcDbEntity
  8
0
  6
Continuous
 62
     7
370
    15
100
AcDbLine
 10
3.4535374904
 20
7.8458670191
 30
0.0
 11
3.4535374904
 21
7.8898966963
 31
0.0
  0
LINE
  5
57
330
1F
100
AcDbEntity
  8
0
  6
Continuous
 62
     7
370
    15
100
AcDbLine
 10
4.5390375106
 20
7.8885231147
 30
0.0
 11
4.5390375106
 21
7.8900349647
 31
0.0
  0
LINE
  5
58
330
1F
100
AcDbEntity
  8
0
  6
Continuous
 62
     7
370
    15
100
AcDbLine
 10
3.3347874822
 20
7.7081678598
 30
0.0
 11
3.3347874822
 21
7.6762013766
 31
0.0
  0
ARC
  5
59
330
1F
100
AcDbEntity
  8
0
  6
Continuous
 62
     7
370
    15
100
AcDbCircle
 10
3.3682874964
 20
7.6355073205
 30
0.0
 40
0.0234999999999999
100
AcDbArc
 50
180.0
 51
270.0
  0
LINE
  5
5A
330
1F
100
AcDbEntity
  8
0
  6
Continuous
 62
     7
370
    15
100
AcDbLine
 10
3.3682874853
 20
7.612007319
 30
0.0
 11
3.4572874938
 21
7.612007319
 31
0.0
  0
ARC
  5
5B
330
1F
100
AcDbEntity
  8
0
  6
Continuous
 62
     7
370
    15
100
AcDbCircle
 10
4.4924124964
 20
7.7732763007
 30
0.0
 40
0.0235000000000003
100
AcDbArc
 50
0.0
 51
90.0
  0
LINE
  5
5C
330
1F
100
AcDbEntity
  8
0
  6
Continuous
 62
     7
370
    15
100
AcDbLine
 10
4.4924124959
 20
7.7967763004
 30
0.0
 11
4.4165374991
 21
7.7967763004
 31
0.0
  0
LINE
  5
5D
330
1F
100
AcDbEntity
  8
0
  6
Continuous
 62
     7
370
    15
100
AcDbLine
 10
3.381412497
 20
7.7543339346
 30
0.0
 11
3.4572874938
 21
7.7543339346
 31
0.0
  0
ARC
  5
5E
330
1F
100
AcDbEntity
  8
0
  6
Continuous
 62
     7
370
    15
100
AcDbCircle
 10
3.3814124964
 20
7.7778339346
 30
0.0
 40
0.0235000000000012
100
AcDbArc
 50
180.0
 51
270.0
  0
ARC
  5
5F
330
1F
100
AcDbEntity
  8
0
  6
Continuous
 62
     7
370
    15
100
AcDbCircle
 10
3.9369124964
 20
7.9065561315
 30
0.0
 40
0.046875
100
AcDbArc
 50
90.0763943953
 51
126.5629804993
  0
ARC
  5
60
330
1F
100
AcDbEntity
  8
0
  6
Continuous
 62
     7
370
    15
100
AcDbCircle
 10
3.9369124964
 20
7.9065561315
 30
0.0
 40
0.046875
100
AcDbArc
 50
53.3300304843
 51
90.0763943953
  0
LINE
  5
61
330
1F
100
AcDbEntity
  8
0
  6
Continuous
 62
     7
370
    15
100
AcDbLine
 10
3.8979124974
 20
7.9728525588
 30
0.0
 11
3.8979124974
 21
7.9684348999
 31
0.0
  0
LINE
  5
62
330
1F
100
AcDbEntity
  8
0
  6
Continuous
 62
     7
370
    15
100
AcDbLine
 10
3.9759124955
 20
7.9684348999
 30
0.0
 11
3.9759124955
 21
7.9728525588
 31
0.0
  0
LINE
  5
63
330
1F
100
AcDbEntity
  8
0
  6
Continuous
 62
     7
370
    15
100
AcDbLine
 10
3.4885375094
 20
8.1191437189
 30
0.0
 11
3.4572874938
 21
8.0878937399
 31
0.0
  0
LINE
  5
64
330
1F
100
AcDbEntity
  8
0
  6
Continuous
 62
     7
370
    15
100
AcDbLine
 10
3.4572874938
 20
7.4628937199
 30
0.0
 11
3.4885375094
 21
7.4316437409
 31
0.0
  0
ARC
  5
65
330
1F
100
AcDbEntity
  8
0
  6
Continuous
 62
     7
370
    15
100
AcDbCircle
 10
3.6850374964
 20
8.1035187299
 30
0.0
 40
0.0156250000000004
100
AcDbArc
 50
0.0
 51
90.0
  0
ARC
  5
66
330
1F
100
AcDbEntity
  8
0
  6
Continuous
 62
     7
370
    15
100
AcDbCircle
 10
3.6850374964
 20
7.4472687299
 30
0.0
 40
0.0156250000000004
100
AcDbArc
 50
270.0
 51
0.0
  0
LINE
  5
67
330
1F
100
AcDbEntity
  8
0
  6
Continuous
 62
     7
370
    15
100
AcDbLine
 10
3.6850374978
 20
8.1191437189
 30
0.0
 11
3.4885375094
 21
8.1191437189
 31
0.0
  0
LINE
  5
68
330
1F
100
AcDbEntity
  8
0
  6
Continuous
 62
     7
370
    15
100
AcDbLine
 10
3.4885375094
 20
7.4316437409
 30
0.0
 11
3.6850374978
 21
7.4316437409
 31
0.0
  0
ARC
  5
69
330
1F
100
AcDbEntity
  8
0
  6
Continuous
 62
     7
370
    15
100
AcDbCircle
 10
4.1887874964
 20
8.1035187299
 30
0.0
 40
0.015625
100
AcDbArc
 50
90.0
 51
180.0
  0
LINE
  5
6A
330
1F
100
AcDbEntity
  8
0
  6
Continuous
 62
     7
370
    15
100
AcDbLine
 10
4.1910322025
 20
7.4316437409
 30
0.0
 11
4.3852874834
 21
7.4316437409
 31
0.0
  0
LINE
  5
6B
330
1F
100
AcDbEntity
  8
0
  6
Continuous
 62
     7
370
    15
100
AcDbLine
 10
4.3852874834
 20
8.1191437189
 30
0.0
 11
4.1887874951
 21
8.1191437189
 31
0.0
  0
LINE
  5
6C
330
1F
100
AcDbEntity
  8
0
  6
Continuous
 62
     7
370
    15
100
AcDbLine
 10
4.3852874834
 20
7.4316437409
 30
0.0
 11
4.4165374991
 21
7.4628937199
 31
0.0
  0
LINE
  5
6D
330
1F
100
AcDbEntity
  8
0
  6
Continuous
 62
     7
370
    15
100
AcDbLine
 10
4.4165374991
 20
8.0878937399
 30
0.0
 11
4.3852874834
 21
8.1191437189
 31
0.0
  0
LINE
  5
6E
330
1F
100
AcDbEntity
  8
0
  6
Continuous
 62
     7
370
    15
100
AcDbLine
 10
3.7116624886
 20
8.0745832886
 30
0.0
 11
3.7045887636
 21
8.0623312268
 31
0.0
  0
LINE
  5
6F
330
1F
100
AcDbEntity
  8
0
  6
Continuous
 62
     7
370
    15
100
AcDbLine
 10
3.7045887636
 20
7.488456233
 30
0.0
 11
3.7116624886
 21
7.4762041712
 31
0.0
  0
LINE
  5
70
330
1F
100
AcDbEntity
  8
0
  6
Continuous
 62
     7
370
    15
100
AcDbLine
 10
4.1621625043
 20
7.4762041712
 30
0.0
 11
4.1692362293
 21
7.488456233
 31
0.0
  0
LINE
  5
71
330
1F
100
AcDbEntity
  8
0
  6
Continuous
 62
     7
370
    15
100
AcDbLine
 10
4.1692362293
 20
8.0623312268
 30
0.0
 11
4.1621625043
 21
8.0745832886
 31
0.0
  0
LINE
  5
72
330
1F
100
AcDbEntity
  8
0
  6
Continuous
 62
     7
370
    15
100
AcDbLine
 10
4.1731625056
 20
8.0623312268
 30
0.0
 11
4.1692362293
 21
8.0623312268
 31
0.0
  0
LINE
  5
73
330
1F
100
AcDbEntity
  8
0
  6
Continuous
 62
     7
370
    15
100
AcDbLine
 10
4.1692362293
 20
7.488456233
 30
0.0
 11
4.1731625056
 21
7.488456233
 31
0.0
  0
LINE
  5
74
330
1F
100
AcDbEntity
  8
0
  6
Continuous
 62
     7
370
    15
100
AcDbLine
 10
3.7045887636
 20
8.0623312268
 30
0.0
 11
3.7006624873
 21
8.0623312268
 31
0.0
  0
LINE
  5
75
330
1F
100
AcDbEntity
  8
0
  6
Continuous
 62
     7
370
    15
100
AcDbLine
 10
3.7006624873
 20
7.488456233
 30
0.0
 11
3.7045887636
 21
7.488456233
 31
0.0
  0
CIRCLE
  5
76
330
1F
100
AcDbEntity
  8
0
  6
Continuous
 62
     7
370
    15
100
AcDbCircle
 10
3.9369124964
 20
7.9706437299
 30
0.0
 40
0.0390624999999997
  0
CIRCLE
  5
77
330
1F
100
AcDbEntity
  8
0
  6
Continuous
 62
     7
370
    15
100
AcDbCircle
 10
3.9369124964
 20
7.9706437299
 30
0.0
 40
0.040560129149256
  0
CIRCLE
  5
78
330
1F
100
AcDbEntity
  8
0
  6
Continuous
 62
     7
370
    15
100
AcDbCircle
 10
3.9369124964
 20
7.9706437299
 30
0.0
 40
0.048245333323392
  0
CIRCLE
  5
79
330
1F
100
AcDbEntity
  8
0
  6
Continuous
 62
     7
370
    15
100
AcDbCircle
 10
3.9369124964
 20
7.9706437299
 30
0.0
 40
0.0500000000000002
  0
CIRCLE
  5
7A
330
1F
100
AcDbEntity
  8
0
  6
Continuous
 62
     7
370
    15
100
AcDbCircle
 10
3.9369124964
 20
7.9706437299
 30
0.0
 40
0.05375
  0
CIRCLE
  5
7B
330
1F
100
AcDbEntity
  8
0
  6
Continuous
 62
     7
370
    15
100
AcDbCircle
 10
3.9369124964
 20
7.9706437299
 30
0.0
 40
0.0570874999999997
  0
CIRCLE
  5
7C
330
1F
100
AcDbEntity
  8
0
  6
Continuous
 62
     7
370
    15
100
AcDbCircle
 10
3.9369124964
 20
7.9706437299
 30
0.0
 40
0.0624999999999998
  0
LINE
  5
7D
330
1F
100
AcDbEntity
  8
0
  6
Continuous
 62
     7
370
    15
100
AcDbLine
 10
4.0149844979
 20
7.9254465715
 30
0.0
 11
3.9368066064
 21
7.880432809
 31
0.0
  0
LINE
  5
7E
330
1F
100
AcDbEntity
  8
0
  6
Continuous
 62
     7
370
    15
100
AcDbLine
 10
3.9368066064
 20
7.880432809
 30
0.0
 11
3.8587346029
 21
7.925629976
 31
0.0
  0
LINE
  5
7F
330
1F
100
AcDbEntity
  8
0
  6
Continuous
 62
     7
370
    15
100
AcDbLine
 10
3.8587346029
 20
7.925629976
 30
0.0
 11
3.858840495
 21
8.0158408872
 31
0.0
  0
LINE
  5
80
330
1F
100
AcDbEntity
  8
0
  6
Continuous
 62
     7
370
    15
100
AcDbLine
 10
3.858840495
 20
8.0158408872
 30
0.0
 11
3.9370183865
 21
8.0608546406
 31
0.0
  0
LINE
  5
81
330
1F
100
AcDbEntity
  8
0
  6
Continuous
 62
     7
370
    15
100
AcDbLine
 10
3.9370183865
 20
8.0608546406
 30
0.0
 11
4.01509039
 21
8.0156574827
 31
0.0
  0
LINE
  5
82
330
1F
100
AcDbEntity
  8
0
  6
Continuous
 62
     7
370
    15
100
AcDbLine
 10
4.01509039
 20
8.0156574827
 30
0.0
 11
4.0149844979
 21
7.9254465715
 31
0.0
  0
LINE
  5
83
330
1F
100
AcDbEntity
  8
0
  6
Continuous
 62
     7
370
    15
100
AcDbLine
 10
4.0155749436
 20
7.9705514037
 30
0.0
 11
4.0150482146
 21
7.9797320627
 31
0.0
  0
ARC
  5
84
330
1F
100
AcDbEntity
  8
0
  6
Continuous
 62
     7
370
    15
100
AcDbCircle
 10
3.9369124964
 20
7.9706437299
 30
0.0
 40
0.0786625000000005
100
AcDbArc
 50
53.2309593407
 51
66.9595576393
  0
ARC
  5
85
330
1F
100
AcDbEntity
  8
0
  6
Continuous
 62
     7
370
    15
100
AcDbCircle
 10
3.9369124964
 20
7.9706437299
 30
0.0
 40
0.0786625000000007
100
AcDbArc
 50
113.0404423607
 51
126.6345325977
  0
ARC
  5
86
330
1F
100
AcDbEntity
  8
0
  6
Continuous
 62
     7
370
    15
100
AcDbCircle
 10
3.9369124964
 20
7.9706437299
 30
0.0
 40
0.0786624999999995
100
AcDbArc
 50
173.2309593407
 51
186.6345325977
  0
ARC
  5
87
330
1F
100
AcDbEntity
  8
0
  6
Continuous
 62
     7
370
    15
100
AcDbCircle
 10
3.9369124964
 20
7.9706437299
 30
0.0
 40
0.0786625000000001
100
AcDbArc
 50
233.5969826965
 51
246.6345325977
  0
ARC
  5
88
330
1F
100
AcDbEntity
  8
0
  6
Continuous
 62
     7
370
    15
100
AcDbCircle
 10
3.9369124964
 20
7.9706437299
 30
0.0
 40
0.0786624999999996
100
AcDbArc
 50
293.2309593407
 51
306.4030173035
  0
LINE
  5
89
330
1F
100
AcDbEntity
  8
0
  6
Continuous
 62
     7
370
    15
100
AcDbLine
 10
4.0150266641
 20
7.9613719915
 30
0.0
 11
4.0155749436
 21
7.9705514037
 31
0.0
  0
CIRCLE
  5
8A
330
1F
100
AcDbEntity
  8
0
  6
Continuous
 62
     7
370
    15
100
AcDbCircle
 10
3.9369124964
 20
7.5801437299
 30
0.0
 40
0.0405601291492554
  0
CIRCLE
  5
8B
330
1F
100
AcDbEntity
  8
0
  6
Continuous
 62
     7
370
    15
100
AcDbCircle
 10
3.9369124964
 20
7.5801437299
 30
0.0
 40
0.0482453333233925
  0
CIRCLE
  5
8C
330
1F
100
AcDbEntity
  8
0
  6
Continuous
 62
     7
370
    15
100
AcDbCircle
 10
3.9369124964
 20
7.5801437299
 30
0.0
 40
0.0390625
  0
CIRCLE
  5
8D
330
1F
100
AcDbEntity
  8
0
  6
Continuous
 62
     7
370
    15
100
AcDbCircle
 10
3.9369124964
 20
7.5801437299
 30
0.0
 40
0.0499999999999998
  0
CIRCLE
  5
8E
330
1F
100
AcDbEntity
  8
0
  6
Continuous
 62
     7
370
    15
100
AcDbCircle
 10
3.9369124964
 20
7.5801437299
 30
0.0
 40
0.05375
  0
CIRCLE
  5
8F
330
1F
100
AcDbEntity
  8
0
  6
Continuous
 62
     7
370
    15
100
AcDbCircle
 10
3.9369124964
 20
7.5801437299
 30
0.0
 40
0.0570874999999997
  0
CIRCLE
  5
90
330
1F
100
AcDbEntity
  8
0
  6
Continuous
 62
     7
370
    15
100
AcDbCircle
 10
3.9369124964
 20
7.5801437299
 30
0.0
 40
0.0625
  0
LINE
  5
91
330
1F
100
AcDbEntity
  8
0
  6
Continuous
 62
     7
370
    15
100
AcDbLine
 10
3.858787494
 20
7.5350382382
 30
0.0
 11
3.858787494
 21
7.6252492227
 31
0.0
  0
LINE
  5
92
330
1F
100
AcDbEntity
  8
0
  6
Continuous
 62
     7
370
    15
100
AcDbLine
 10
3.9369124964
 20
7.4899327459
 30
0.0
 11
3.858787494
 21
7.5350382382
 31
0.0
  0
LINE
  5
93
330
1F
100
AcDbEntity
  8
0
  6
Continuous
 62
     7
370
    15
100
AcDbLine
 10
3.858787494
 20
7.6252492227
 30
0.0
 11
3.9369124964
 21
7.6703547058
 31
0.0
  0
LINE
  5
94
330
1F
100
AcDbEntity
  8
0
  6
Continuous
 62
     7
370
    15
100
AcDbLine
 10
4.0150374989
 20
7.6252492227
 30
0.0
 11
4.0150374989
 21
7.5350382382
 31
0.0
  0
LINE
  5
95
330
1F
100
AcDbEntity
  8
0
  6
Continuous
 62
     7
370
    15
100
AcDbLine
 10
4.0150374989
 20
7.5350382382
 30
0.0
 11
3.9369124964
 21
7.4899327459
 31
0.0
  0
LINE
  5
96
330
1F
100
AcDbEntity
  8
0
  6
Continuous
 62
     7
370
    15
100
AcDbLine
 10
3.9369124964
 20
7.6703547058
 30
0.0
 11
4.0150374989
 21
7.6252492227
 31
0.0
  0
LINE
  5
97
330
1F
100
AcDbEntity
  8
0
  6
Continuous
 62
     7
370
    15
100
AcDbLine
 10
4.0155749986
 20
7.5801437304
 30
0.0
 11
4.0150374989
 21
7.5893237844
 31
0.0
  0
ARC
  5
98
330
1F
100
AcDbEntity
  8
0
  6
Continuous
 62
     7
370
    15
100
AcDbCircle
 10
3.9369124964
 20
7.5801437299
 30
0.0
 40
0.0786625
100
AcDbArc
 50
53.2982133715
 51
66.7017866285
  0
ARC
  5
99
330
1F
100
AcDbEntity
  8
0
  6
Continuous
 62
     7
370
    15
100
AcDbCircle
 10
3.9369124964
 20
7.5801437299
 30
0.0
 40
0.0786624999999998
100
AcDbArc
 50
113.2982133715
 51
126.7017866285
  0
ARC
  5
9A
330
1F
100
AcDbEntity
  8
0
  6
Continuous
 62
     7
370
    15
100
AcDbCircle
 10
3.9369124964
 20
7.5801437299
 30
0.0
 40
0.0786624999999998
100
AcDbArc
 50
173.2982133715
 51
186.7017866285
  0
ARC
  5
9B
330
1F
100
AcDbEntity
  8
0
  6
Continuous
 62
     7
370
    15
100
AcDbCircle
 10
3.9369124964
 20
7.5801437299
 30
0.0
 40
0.0786625000000008
100
AcDbArc
 50
233.2982133715
 51
246.7017866285
  0
ARC
  5
9C
330
1F
100
AcDbEntity
  8
0
  6
Continuous
 62
     7
370
    15
100
AcDbCircle
 10
3.9369124964
 20
7.5801437299
 30
0.0
 40
0.0786625000000008
100
AcDbArc
 50
293.2982133715
 51
306.7017866285
  0
LINE
  5
9D
330
1F
100
AcDbEntity
  8
0
  6
Continuous
 62
     7
370
    15
100
AcDbLine
 10
4.0150374989
 20
7.5709636765
 30
0.0
 11
4.0155749986
 21
7.5801437304
 31
0.0
  0
LINE
  5
9E
330
1F
100
AcDbEntity
  8
0
  6
Continuous
 62
     7
370
    15
100
AcDbLine
 10
4.0306624976
 20
7.4506437481
 30
0.0
 11
4.0306624976
 21
7.4756437276
 31
0.0
  0
LINE
  5
9F
330
1F
100
AcDbEntity
  8
0
  6
Continuous
 62
     7
370
    15
100
AcDbLine
 10
3.7125374918
 20
7.3975187251
 30
0.0
 11
4.1612875011
 21
7.3975187251
 31
0.0
  0
LINE
  5
A0
330
1F
100
AcDbEntity
  8
0
  6
Continuous
 62
     7
370
    15
100
AcDbLine
 10
3.7125374918
 20
7.4756437276
 30
0.0
 11
3.7125374918
 21
7.3975187251
 31
0.0
  0
LINE
  5
A1
330
1F
100
AcDbEntity
  8
0
  6
Continuous
 62
     7
370
    15
100
AcDbLine
 10
3.8431624953
 20
7.4506437481
 30
0.0
 11
3.8431624953
 21
7.4756437276
 31
0.0
  0
LINE
  5
A2
330
1F
100
AcDbEntity
  8
0
  6
Continuous
 62
     7
370
    15
100
AcDbLine
 10
3.8431624953
 20
7.4506437481
 30
0.0
 11
4.0306624976
 21
7.4506437481
 31
0.0
  0
CIRCLE
  5
A3
330
1F
100
AcDbEntity
  8
0
  6
Continuous
 62
     7
370
    15
100
AcDbCircle
 10
4.1377874964
 20
7.4366437299
 30
0.0
 40
0.0120624999999999
  0
LINE
  5
A4
330
1F
100
AcDbEntity
  8
0
  6
Continuous
 62
     7
370
    15
100
AcDbLine
 10
4.1612875011
 20
7.4756437276
 30
0.0
 11
4.1612875011
 21
7.3975187251
 31
0.0
  0
LINE
  5
A5
330
1F
100
AcDbEntity
  8
0
  6
Continuous
 62
     7
370
    15
100
AcDbLine
 10
4.0306624976
 20
7.4756437276
 30
0.0
 11
4.1612875011
 21
7.4756437276
 31
0.0
  0
LINE
  5
A6
330
1F
100
AcDbEntity
  8
0
  6
Continuous
 62
     7
370
    15
100
AcDbLine
 10
3.7125374918
 20
7.4756437276
 30
0.0
 11
3.8431624953
 21
7.4756437276
 31
0.0
  0
LINE
  5
A7
330
1F
100
AcDbEntity
  8
0
  6
Continuous
 62
     7
370
    15
100
AcDbLine
 10
3.9994124957
 20
7.4506437481
 30
0.0
 11
3.9994124957
 21
7.4756437276
 31
0.0
  0
LINE
  5
A8
330
1F
100
AcDbEntity
  8
0
  6
Continuous
 62
     7
370
    15
100
AcDbLine
 10
4.0306624976
 20
7.4756437276
 30
0.0
 11
4.0272243682
 21
7.4756437276
 31
0.0
  0
LINE
  5
A9
330
1F
100
AcDbEntity
  8
0
  6
Continuous
 62
     7
370
    15
100
AcDbLine
 10
3.8744124972
 20
7.4506437481
 30
0.0
 11
3.8744124972
 21
7.4756437276
 31
0.0
  0
LINE
  5
AA
330
1F
100
AcDbEntity
  8
0
  6
Continuous
 62
     7
370
    15
100
AcDbLine
 10
3.8466006247
 20
7.4756437276
 30
0.0
 11
3.8431624953
 21
7.4756437276
 31
0.0
  0
LINE
  5
AB
330
1F
100
AcDbEntity
  8
0
  6
Continuous
 62
     7
370
    15
100
AcDbLine
 10
3.7041625002
 20
8.0781437275
 30
0.0
 11
3.7041625002
 21
8.1693937417
 31
0.0
  0
LINE
  5
AC
330
1F
100
AcDbEntity
  8
0
  6
Continuous
 62
     7
370
    15
100
AcDbLine
 10
3.6979125007
 20
8.1123716838
 30
0.0
 11
3.6979125007
 21
8.1212494612
 31
0.0
  0
LINE
  5
AD
330
1F
100
AcDbEntity
  8
0
  6
Continuous
 62
     7
370
    15
100
AcDbLine
 10
3.6041624904
 20
8.1212494612
 30
0.0
 11
3.6979125007
 21
8.1212494612
 31
0.0
  0
LINE
  5
AE
330
1F
100
AcDbEntity
  8
0
  6
Continuous
 62
     7
370
    15
100
AcDbLine
 10
3.6041624904
 20
8.1212494612
 30
0.0
 11
3.6041624904
 21
8.1516718098
 31
0.0
  0
LINE
  5
AF
330
1F
100
AcDbEntity
  8
0
  6
Continuous
 62
     7
370
    15
100
AcDbLine
 10
3.6979125007
 20
8.1516718098
 30
0.0
 11
3.6041624904
 21
8.1516718098
 31
0.0
  0
LINE
  5
B0
330
1F
100
AcDbEntity
  8
0
  6
Continuous
 62
     7
370
    15
100
AcDbLine
 10
3.6979125007
 20
8.1516718098
 30
0.0
 11
3.6979125007
 21
8.1619612376
 31
0.0
  0
LINE
  5
B1
330
1F
100
AcDbEntity
  8
0
  6
Continuous
 62
     7
370
    15
100
AcDbLine
 10
3.6041624904
 20
8.1619612376
 30
0.0
 11
3.6979125007
 21
8.1619612376
 31
0.0
  0
LINE
  5
B2
330
1F
100
AcDbEntity
  8
0
  6
Continuous
 62
     7
370
    15
100
AcDbLine
 10
3.6041624904
 20
8.1619612376
 30
0.0
 11
3.6041624904
 21
8.1693937417
 31
0.0
  0
LINE
  5
B3
330
1F
100
AcDbEntity
  8
0
  6
Continuous
 62
     7
370
    15
100
AcDbLine
 10
3.6041624904
 20
8.1212494612
 30
0.0
 11
3.6041624904
 21
8.1191437189
 31
0.0
  0
LINE
  5
B4
330
1F
100
AcDbEntity
  8
0
  6
Continuous
 62
     7
370
    15
100
AcDbLine
 10
3.7174802113
 20
8.1001437117
 30
0.0
 11
3.7174802113
 21
8.1628312175
 31
0.0
  0
LINE
  5
B5
330
1F
100
AcDbEntity
  8
0
  6
Continuous
 62
     7
370
    15
100
AcDbLine
 10
3.6041624904
 20
8.1619612376
 30
0.0
 11
3.6041624904
 21
8.1516718098
 31
0.0
  0
LINE
  5
B6
330
1F
100
AcDbEntity
  8
0
  6
Continuous
 62
     7
370
    15
100
AcDbLine
 10
4.0704125001
 20
8.1627687382
 30
0.0
 11
4.0704125001
 21
8.1001437117
 31
0.0
  0
ARC
  5
B7
330
1F
100
AcDbEntity
  8
0
  6
Continuous
 62
     7
370
    15
100
AcDbCircle
 10
3.9688499964
 20
8.1237062299
 30
0.0
 40
0.0234375
100
AcDbArc
 50
0.0
 51
180.0
  0
LINE
  5
B8
330
1F
100
AcDbEntity
  8
0
  6
Continuous
 62
     7
370
    15
100
AcDbLine
 10
3.9297874966
 20
8.1001437117
 30
0.0
 11
3.9297874966
 21
8.1237062462
 31
0.0
  0
ARC
  5
B9
330
1F
100
AcDbEntity
  8
0
  6
Continuous
 62
     7
370
    15
100
AcDbCircle
 10
3.9063499964
 20
8.1237062299
 30
0.0
 40
0.0234375
100
AcDbArc
 50
0.0
 51
180.0
  0
LINE
  5
BA
330
1F
100
AcDbEntity
  8
0
  6
Continuous
 62
     7
370
    15
100
AcDbLine
 10
3.8047874953
 20
8.1001437117
 30
0.0
 11
3.8047874953
 21
8.1627687382
 31
0.0
  0
LINE
  5
BB
330
1F
100
AcDbEntity
  8
0
  6
Continuous
 62
     7
370
    15
100
AcDbLine
 10
4.0704125001
 20
8.1627687382
 30
0.0
 11
3.8047874953
 21
8.1627687382
 31
0.0
  0
LINE
  5
BC
330
1F
100
AcDbEntity
  8
0
  6
Continuous
 62
     7
370
    15
100
AcDbLine
 10
3.9922874976
 20
8.1001437117
 30
0.0
 11
3.9922874976
 21
8.1237062462
 31
0.0
  0
LINE
  5
BD
330
1F
100
AcDbEntity
  8
0
  6
Continuous
 62
     7
370
    15
100
AcDbLine
 10
3.8829124978
 20
8.1237062462
 30
0.0
 11
3.8829124978
 21
8.1001437117
 31
0.0
  0
LINE
  5
BE
330
1F
100
AcDbEntity
  8
0
  6
Continuous
 62
     7
370
    15
100
AcDbLine
 10
3.9454124964
 20
8.1237062462
 30
0.0
 11
3.9454124964
 21
8.1001437117
 31
0.0
  0
LINE
  5
BF
330
1F
100
AcDbEntity
  8
0
  6
Continuous
 62
     7
370
    15
100
AcDbLine
 10
3.8204124939
 20
8.1783836079
 30
0.0
 11
3.8204124939
 21
8.1783937277
 31
0.0
  0
LINE
  5
C0
330
1F
100
AcDbEntity
  8
0
  6
Continuous
 62
     7
370
    15
100
AcDbLine
 10
3.8204124939
 20
8.1783937277
 30
0.0
 11
4.0547874922
 21
8.1783937277
 31
0.0
  0
LINE
  5
C1
330
1F
100
AcDbEntity
  8
0
  6
Continuous
 62
     7
370
    15
100
AcDbLine
 10
4.0547874922
 20
8.1783937277
 30
0.0
 11
4.0547874922
 21
8.1783836079
 31
0.0
  0
LINE
  5
C2
330
1F
100
AcDbEntity
  8
0
  6
Continuous
 62
     7
370
    15
100
AcDbLine
 10
4.0547874922
 20
8.1783836079
 30
0.0
 11
4.0704125001
 21
8.1783836079
 31
0.0
  0
LINE
  5
C3
330
1F
100
AcDbEntity
  8
0
  6
Continuous
 62
     7
370
    15
100
AcDbLine
 10
3.8047874953
 20
8.1783836079
 30
0.0
 11
3.8204124939
 21
8.1783836079
 31
0.0
  0
LINE
  5
C4
330
1F
100
AcDbEntity
  8
0
  6
Continuous
 62
     7
370
    15
100
AcDbLine
 10
4.0704125001
 20
8.1783836079
 30
0.0
 11
4.0704125001
 21
8.1627687382
 31
0.0
  0
LINE
  5
C5
330
1F
100
AcDbEntity
  8
0
  6
Continuous
 62
     7
370
    15
100
AcDbLine
 10
3.8047874953
 20
8.1627687382
 30
0.0
 11
3.8047874953
 21
8.1783836079
 31
0.0
  0
LINE
  5
C6
330
1F
100
AcDbEntity
  8
0
  6
Continuous
 62
     7
370
    15
100
AcDbLine
 10
3.7204125025
 20
8.1001437117
 30
0.0
 11
3.7204125025
 21
8.1627687382
 31
0.0
  0
ARC
  5
C7
330
1F
100
AcDbEntity
  8
0
  6
Continuous
 62
     7
370
    15
100
AcDbCircle
 10
3.7360374964
 20
8.1627687299
 30
0.0
 40
0.015625
100
AcDbArc
 50
90.0
 51
180.0
  0
LINE
  5
C8
330
1F
100
AcDbEntity
  8
0
  6
Continuous
 62
     7
370
    15
100
AcDbLine
 10
3.8204124939
 20
8.1783937277
 30
0.0
 11
3.736037492
 21
8.1783937277
 31
0.0
  0
ARC
  5
C9
330
1F
100
AcDbEntity
  8
0
  6
Continuous
 62
     7
370
    15
100
AcDbCircle
 10
4.1391624964
 20
8.1627687299
 30
0.0
 40
0.015625
100
AcDbArc
 50
0.0
 51
90.0
  0
LINE
  5
CA
330
1F
100
AcDbEntity
  8
0
  6
Continuous
 62
     7
370
    15
100
AcDbLine
 10
4.1547874929
 20
8.1627687382
 30
0.0
 11
4.1547874929
 21
8.1001437117
 31
0.0
  0
LINE
  5
CB
330
1F
100
AcDbEntity
  8
0
  6
Continuous
 62
     7
370
    15
100
AcDbLine
 10
4.1391625034
 20
8.1783937277
 30
0.0
 11
4.0547874922
 21
8.1783937277
 31
0.0
  0
ARC
  5
CC
330
1F
100
AcDbEntity
  8
0
  6
Continuous
 62
     7
370
    15
100
AcDbCircle
 10
4.4759209834
 20
7.7391118093
 30
0.0
 40
0.0418647134224532
100
AcDbArc
 50
342.6960764959
 51
17.2042750358
  0
ARC
  5
CD
330
1F
100
AcDbEntity
  8
0
  6
Continuous
 62
     7
370
    15
100
AcDbCircle
 10
4.4689865992
 20
7.7452308214
 30
0.0
 40
0.0512869252303637
100
AcDbArc
 50
230.146621572
 51
316.7423620098
  0
ARC
  5
CE
330
1F
100
AcDbEntity
  8
0
  6
Continuous
 62
     7
370
    15
100
AcDbCircle
 10
4.4690375093
 20
7.7449002812
 30
0.0
 40
0.041917709905803
100
AcDbArc
 50
248.6526194064
 51
291.3473805936
  0
ARC
  5
CF
330
1F
100
AcDbEntity
  8
0
  6
Continuous
 62
     7
370
    15
100
AcDbCircle
 10
4.4690849199
 20
7.698254054
 30
0.0
 40
0.0518053937324624
100
AcDbArc
 50
263.1016008198
 51
302.4261927507
  0
LINE
  5
D0
330
1F
100
AcDbEntity
  8
0
  6
Continuous
 62
     7
370
    15
100
AcDbLine
 10
4.4628626206
 20
7.6468236951
 30
0.0
 11
4.4628626206
 21
7.6825006463
 31
0.0
  0
ARC
  5
D1
330
1F
100
AcDbEntity
  8
0
  6
Continuous
 62
     7
370
    15
100
AcDbCircle
 10
4.4688937053
 20
7.7339262038
 30
0.0
 40
0.0517780064059973
100
AcDbArc
 50
246.5454733673
 51
263.3110230162
  0
LINE
  5
D2
330
1F
100
AcDbEntity
  8
0
  6
Continuous
 62
     7
370
    15
100
AcDbLine
 10
4.4482849657
 20
7.6864262902
 30
0.0
 11
4.4482849657
 21
7.650749339
 31
0.0
  0
ARC
  5
D3
330
1F
100
AcDbEntity
  8
0
  6
Continuous
 62
     7
370
    15
100
AcDbCircle
 10
4.4665495277
 20
7.6938943665
 30
0.0
 40
0.0468517622749018
100
AcDbArc
 50
204.9535878834
 51
247.0556272424
  0
LINE
  5
D4
330
1F
100
AcDbEntity
  8
0
  6
Continuous
 62
     7
370
    15
100
AcDbLine
 10
4.4240713854
 20
7.6741283589
 30
0.0
 11
4.4240713854
 21
7.7058585236
 31
0.0
  0
LINE
  5
D5
330
1F
100
AcDbEntity
  8
0
  6
Continuous
 62
     7
370
    15
100
AcDbLine
 10
4.4204588438
 20
7.7058585236
 30
0.0
 11
4.4204588438
 21
7.6877659097
 31
0.0
  0
LINE
  5
D6
330
1F
100
AcDbEntity
  8
0
  6
Continuous
 62
     7
370
    15
100
AcDbLine
 10
4.4204588438
 20
7.6877659097
 30
0.0
 11
4.4202875025
 21
7.6915425785
 31
0.0
  0
ARC
  5
D7
330
1F
100
AcDbEntity
  8
0
  6
Continuous
 62
     7
370
    15
100
AcDbCircle
 10
4.4749205439
 20
7.6917088033
 30
0.0
 40
0.0428672578635636
100
AcDbArc
 50
320.1458025866
 51
359.7778257425
  0
LINE
  5
D8
330
1F
100
AcDbEntity
  8
0
  6
Continuous
 62
     7
370
    15
100
AcDbLine
 10
4.5078287812
 20
7.6642379148
 30
0.0
 11
4.5078287812
 21
7.6999148614
 31
0.0
  0
ARC
  5
D9
330
1F
100
AcDbEntity
  8
0
  6
Continuous
 62
     7
370
    15
100
AcDbCircle
 10
4.4713438872
 20
7.7300618442
 30
0.0
 40
0.0473285121037823
100
AcDbArc
 50
302.6294982115
 51
320.4335302201
  0
LINE
  5
DA
330
1F
100
AcDbEntity
  8
0
  6
Continuous
 62
     7
370
    15
100
AcDbLine
 10
4.4968636312
 20
7.690202959
 30
0.0
 11
4.4968636312
 21
7.6545260078
 31
0.0
  0
ARC
  5
DB
330
1F
100
AcDbEntity
  8
0
  6
Continuous
 62
     7
370
    15
100
AcDbCircle
 10
4.454996081
 20
7.646540556
 30
0.0
 40
0.0079216742326431
100
AcDbArc
 50
6.7638411013
 51
147.9066887774
  0
ARC
  5
DC
330
1F
100
AcDbEntity
  8
0
  6
Continuous
 62
     7
370
    15
100
AcDbCircle
 10
4.5036403288
 20
7.6572469002
 30
0.0
 40
0.0081496882454544
100
AcDbArc
 50
59.0733578836
 51
146.2560688117
  0
LWPOLYLINE
  5
DD
330
1F
100
AcDbEntity
  8
0
  6
Continuous
 62
     7
370
    15
100
AcDbPolyline
 90
        3
 70
   128
 43
0.0
 10
4.4204588438
 20
7.6877659097
 10
4.4230141876
 20
7.6873731684
 10
4.4240713854
 20
7.6869541374
  0
LWPOLYLINE
  5
DE
330
1F
100
AcDbEntity
  8
0
  6
Continuous
 62
     7
370
    15
100
AcDbPolyline
 90
       18
 70
   128
 43
0.0
 10
3.3579124784
 20
7.8080050119
 10
3.3565896337
 20
7.8130086135
 10
3.35604646
 20
7.8198055152
 10
3.3569054401
 20
7.8265802727
 10
3.3591419342
 20
7.8331379891
 10
3.3626915566
 20
7.8392900118
 10
3.3674522282
 20
7.8448593574
 10
3.3732869275
 20
7.8496858037
 10
3.3800278696
 20
7.8536305094
 10
3.3874810902
 20
7.8565799787
 10
3.395432165
 20
7.8584493796
 10
3.4036524067
 20
7.8591849136
 10
3.4119052814
 20
7.8587654334
 10
3.4199534117
 20
7.8572030023
 10
3.4275652138
 20
7.8545425731
 10
3.4345217901
 20
7.8508606773
 10
3.4406229063
 20
7.8462632391
 10
3.4410606279
 20
7.8458670191
  0
ARC
  5
DF
330
1F
100
AcDbEntity
  8
0
  6
Continuous
 62
     7
370
    15
100
AcDbCircle
 10
3.3896829878
 20
7.8898583156
 30
0.0
 40
0.0336454962338278
100
AcDbArc
 50
159.1705400813
 51
179.9346404151
  0
LINE
  5
E0
330
1F
100
AcDbEntity
  8
0
  6
Continuous
 62
     7
370
    15
100
AcDbLine
 10
3.3582364614
 20
7.901822236
 30
0.0
 11
3.3582364614
 21
7.8486765517
 31
0.0
  0
ARC
  5
E1
330
1F
100
AcDbEntity
  8
0
  6
Continuous
 62
     7
370
    15
100
AcDbCircle
 10
3.393575896
 20
7.8351540272
 30
0.0
 40
0.0378382651199845
100
AcDbArc
 50
139.1644776763
 51
159.0608062737
  0
LINE
  5
E2
330
1F
100
AcDbEntity
  8
0
  6
Continuous
 62
     7
370
    15
100
AcDbLine
 10
3.3649478505
 20
7.8598960829
 30
0.0
 11
3.3649478505
 21
7.9130417673
 31
0.0
  0
ARC
  5
E3
330
1F
100
AcDbEntity
  8
0
  6
Continuous
 62
     7
370
    15
100
AcDbCircle
 10
3.4023691989
 20
7.8795321692
 30
0.0
 40
0.050231966762163
100
AcDbArc
 50
99.5343208926
 51
138.1565908863
  0
LINE
  5
E4
330
1F
100
AcDbEntity
  8
0
  6
Continuous
 62
     7
370
    15
100
AcDbLine
 10
3.3940488577
 20
7.9290702596
 30
0.0
 11
3.3940488577
 21
7.8759245661
 31
0.0
  0
ARC
  5
E5
330
1F
100
AcDbEntity
  8
0
  6
Continuous
 62
     7
370
    15
100
AcDbCircle
 10
3.4047882803
 20
7.8179917945
 30
0.0
 40
0.0589197863462193
100
AcDbArc
 50
85.7066034313
 51
100.5021207864
  0
LINE
  5
E6
330
1F
100
AcDbEntity
  8
0
  6
Continuous
 62
     7
370
    15
100
AcDbLine
 10
3.4091992393
 20
7.8767462382
 30
0.0
 11
3.4091992393
 21
7.9298919318
 31
0.0
  0
ARC
  5
E7
330
1F
100
AcDbEntity
  8
0
  6
Continuous
 62
     7
370
    15
100
AcDbCircle
 10
3.4059333343
 20
7.8767982071
 30
0.0
 40
0.0531940761678341
100
AcDbArc
 50
49.3301505088
 51
86.4800529408
  0
LINE
  5
E8
330
1F
100
AcDbEntity
  8
0
  6
Continuous
 62
     7
370
    15
100
AcDbLine
 10
3.4405998799
 20
7.9171447107
 30
0.0
 11
3.4405998799
 21
7.8639990263
 31
0.0
  0
ARC
  5
E9
330
1F
100
AcDbEntity
  8
0
  6
Continuous
 62
     7
370
    15
100
AcDbCircle
 10
3.4137032899
 20
7.8335460115
 30
0.0
 40
0.0406301939677168
100
AcDbArc
 50
29.5776241986
 51
48.5485427864
  0
LINE
  5
EA
330
1F
100
AcDbEntity
  8
0
  6
Continuous
 62
     7
370
    15
100
AcDbLine
 10
3.4490388724
 20
7.8536011673
 30
0.0
 11
3.4490388724
 21
7.9067468517
 31
0.0
  0
ARC
  5
EB
330
1F
100
AcDbEntity
  8
0
  6
Continuous
 62
     7
370
    15
100
AcDbCircle
 10
3.4192458467
 20
7.8897671808
 30
0.0
 40
0.0342918883461874
100
AcDbArc
 50
0.2163984812
 51
29.6797235138
  0
ARC
  5
EC
330
1F
100
AcDbEntity
  8
0
  6
Continuous
 62
     7
370
    15
100
AcDbCircle
 10
3.4047875019
 20
7.8055349951
 30
0.0
 40
0.0457354157810398
100
AcDbArc
 50
61.8669973989
 51
118.1330026011
  0
ARC
  5
ED
330
1F
100
AcDbEntity
  8
0
  6
Continuous
 62
     7
370
    15
100
AcDbCircle
 10
3.4014522364
 20
7.9326490479
 30
0.0
 40
0.0082230008471057
100
AcDbArc
 50
205.7990914501
 51
340.4096327675
  0
ARC
  5
EE
330
1F
100
AcDbEntity
  8
0
  6
Continuous
 62
     7
370
    15
100
AcDbCircle
 10
3.4463494095
 20
7.9152348465
 30
0.0
 40
0.0089038905962246
100
AcDbArc
 50
229.7793984155
 51
287.5810613074
  0
ARC
  5
EF
330
1F
100
AcDbEntity
  8
0
  6
Continuous
 62
     7
370
    15
100
AcDbCircle
 10
3.3599494464
 20
7.9107001815
 30
0.0
 40
0.0090416941660099
100
AcDbArc
 50
259.0790784112
 51
303.5605003048
  0
ARC
  5
F0
330
1F
100
AcDbEntity
  8
0
  6
Continuous
 62
     7
370
    15
100
AcDbCircle
 10
4.4802880444
 20
7.8885228063
 30
0.0
 40
0.0587477037100715
100
AcDbArc
 50
321.2994710945
 51
125.3004076025
  0
ARC
  5
F1
330
1F
100
AcDbEntity
  8
0
  6
Continuous
 62
     7
370
    15
100
AcDbCircle
 10
4.4802874742
 20
7.8885305819
 30
0.0
 40
0.0587532298058929
100
AcDbArc
 50
236.3838745402
 51
308.3070682647
  0
ARC
  5
F2
330
1F
100
AcDbEntity
  8
0
  6
Continuous
 62
     7
370
    15
100
AcDbCircle
 10
4.4802939909
 20
7.8900345881
 30
0.0
 40
0.0587435170272539
100
AcDbArc
 50
359.7526837618
 51
44.4727640431
  0
LWPOLYLINE
  5
F3
330
1F
100
AcDbEntity
  8
0
  6
Continuous
 62
     7
370
    15
100
AcDbPolyline
 90
        3
 70
   128
 43
0.0
 10
4.4442993084
 20
7.9364687741
 10
4.4463031919
 20
7.9379546186
 10
4.4511327228
 20
7.941036728
  0
LINE
  5
F4
330
1F
100
AcDbEntity
  8
0
  6
Continuous
 62
     7
370
    15
100
AcDbLine
 10
4.4511327228
 20
7.941036728
 30
0.0
 11
4.4511327228
 21
7.9399028428
 31
0.0
  0
ARC
  5
F5
330
1F
100
AcDbEntity
  8
0
  6
Continuous
 62
     7
370
    15
100
AcDbCircle
 10
4.4802867745
 20
7.8888950465
 30
0.0
 40
0.0587516299110975
100
AcDbArc
 50
104.4690096254
 51
119.7505878133
  0
LINE
  5
F6
330
1F
100
AcDbEntity
  8
0
  6
Continuous
 62
     7
370
    15
100
AcDbLine
 10
4.4656073089
 20
7.9457832465
 30
0.0
 11
4.4656073089
 21
7.9469171318
 31
0.0
  0
ARC
  5
F7
330
1F
100
AcDbEntity
  8
0
  6
Continuous
 62
     7
370
    15
100
AcDbCircle
 10
4.480287491
 20
7.8900269458
 30
0.0
 40
0.0587537318695754
100
AcDbArc
 50
59.7544342482
 51
104.4692022882
  0
LINE
  5
F8
330
1F
100
AcDbEntity
  8
0
  6
Continuous
 62
     7
370
    15
100
AcDbLine
 10
4.5098821641
 20
7.940782796
 30
0.0
 11
4.5098821641
 21
7.9396489107
 31
0.0
  0
ARC
  5
F9
330
1F
100
AcDbEntity
  8
0
  6
Continuous
 62
     7
370
    15
100
AcDbCircle
 10
4.4802887842
 20
7.888896086
 30
0.0
 40
0.0587504667981723
100
AcDbArc
 50
44.4724196516
 51
59.7540375867
  0
LINE
  5
FA
330
1F
100
AcDbEntity
  8
0
  6
Continuous
 62
     7
370
    15
100
AcDbLine
 10
4.5222123983
 20
7.9300546566
 30
0.0
 11
4.5222123983
 21
7.9311885418
 31
0.0
  0
LINE
  5
FB
330
1F
100
AcDbEntity
  8
0
  6
Continuous
 62
     7
370
    15
100
AcDbLine
 10
4.451550828
 20
7.9401395601
 30
0.0
 11
4.4511327228
 21
7.941036728
 31
0.0
  0
LINE
  5
FC
330
1F
100
AcDbEntity
  8
0
  6
Continuous
 62
     7
370
    15
100
AcDbLine
 10
4.5222123983
 20
7.9311885418
 30
0.0
 11
4.5216956976
 21
7.9305744372
 31
0.0
  0
LWPOLYLINE
  5
FD
330
1F
100
AcDbEntity
  8
0
  6
Continuous
 62
     7
370
    15
100
AcDbPolyline
 90
       21
 70
   128
 43
0.0
 10
3.3447875034
 20
7.6445044269
 10
3.3431261926
 20
7.6470340585
 10
3.339111459
 20
7.6548152587
 10
3.3363724539
 20
7.663097723
 10
3.3349733434
 20
7.6716873313
 10
3.3349469071
 20
7.68038274
 10
3.3362938048
 20
7.6889801398
 10
3.3389824671
 20
7.6972780223
 10
3.342949828
 20
7.7050818821
 10
3.3481029018
 20
7.7122088098
 10
3.3543209466
 20
7.7184917539
 10
3.3614581775
 20
7.7237834444
 10
3.3693473597
 20
7.7279598533
 10
3.377803512
 20
7.7309230907
 10
3.3866284534
 20
7.7326036925
 10
3.3956153129
 20
7.7329622746
 10
3.4045535163
 20
7.7319904267
 10
3.4132334794
 20
7.7297109322
 10
3.4214518144
 20
7.7261772184
 10
3.4290158404
 20
7.7214721145
 10
3.4321495942
 20
7.7190084088
  0
ARC
  5
FE
330
1F
100
AcDbEntity
  8
0
  6
Continuous
 62
     7
370
    15
100
AcDbCircle
 10
3.3935375102
 20
7.673162516
 30
0.0
 40
0.0483574604286677
100
AcDbArc
 50
71.4528931739
 51
108.5471068261
  0
ARC
  5
FF
330
1F
100
AcDbEntity
  8
0
  6
Continuous
 62
     7
370
    15
100
AcDbCircle
 10
3.3901654848
 20
7.7081115814
 30
0.0
 40
0.0553780311527951
100
AcDbArc
 50
148.075414791
 51
179.9417725991
  0
LINE
  5
100
330
1F
100
AcDbEntity
  8
0
  6
Continuous
 62
     7
370
    15
100
AcDbLine
 10
3.3431636655
 20
7.7373956268
 30
0.0
 11
3.3431636655
 21
7.7134207666
 31
0.0
  0
ARC
  5
101
330
1F
100
AcDbEntity
  8
0
  6
Continuous
 62
     7
370
    15
100
AcDbCircle
 10
3.3917182615
 20
7.6832377871
 30
0.0
 40
0.0571713306176
100
AcDbArc
 50
132.7456421292
 51
148.1336879233
  0
LINE
  5
102
330
1F
100
AcDbEntity
  8
0
  6
Continuous
 62
     7
370
    15
100
AcDbLine
 10
3.3529135129
 20
7.7252229336
 30
0.0
 11
3.3529135129
 21
7.7491977938
 31
0.0
  0
ARC
  5
103
330
1F
100
AcDbEntity
  8
0
  6
Continuous
 62
     7
370
    15
100
AcDbCircle
 10
3.3928642837
 20
7.7059439758
 30
0.0
 40
0.058880870079821
100
AcDbArc
 50
115.6819094132
 51
132.7266718511
  0
LINE
  5
104
330
1F
100
AcDbEntity
  8
0
  6
Continuous
 62
     7
370
    15
100
AcDbLine
 10
3.3945332187
 20
7.7543339346
 30
0.0
 11
3.3945332187
 21
7.7409812691
 31
0.0
  0
ARC
  5
105
330
1F
100
AcDbEntity
  8
0
  6
Continuous
 62
     7
370
    15
100
AcDbCircle
 10
3.3935482444
 20
7.68037179
 30
0.0
 40
0.0606174820133313
100
AcDbArc
 50
74.271222212
 51
89.0689590939
  0
LINE
  5
106
330
1F
100
AcDbEntity
  8
0
  6
Continuous
 62
     7
370
    15
100
AcDbLine
 10
3.4099806703
 20
7.7387194936
 30
0.0
 11
3.4099806703
 21
7.7543339346
 31
0.0
  0
ARC
  5
107
330
1F
100
AcDbEntity
  8
0
  6
Continuous
 62
     7
370
    15
100
AcDbCircle
 10
3.3950915974
 20
7.707020736
 30
0.0
 40
0.0574952590493333
100
AcDbArc
 50
29.9539791945
 51
55.3767713188
  0
LINE
  5
108
330
1F
100
AcDbEntity
  8
0
  6
Continuous
 62
     7
370
    15
100
AcDbLine
 10
3.4449070268
 20
7.7357283623
 30
0.0
 11
3.4449070268
 21
7.7190084088
 31
0.0
  0
LINE
  5
109
330
1F
100
AcDbEntity
  8
0
  6
Continuous
 62
     7
370
    15
100
AcDbLine
 10
3.450604631
 20
7.7190084088
 30
0.0
 11
3.450604631
 21
7.7216644197
 31
0.0
  0
LINE
  5
10A
330
1F
100
AcDbEntity
  8
0
  6
Continuous
 62
     7
370
    15
100
AcDbLine
 10
3.450604631
 20
7.7216644197
 30
0.0
 11
3.451207424
 21
7.7190084088
 31
0.0
  0
ARC
  5
10B
330
1F
100
AcDbEntity
  8
0
  6
Continuous
 62
     7
370
    15
100
AcDbCircle
 10
3.3481198774
 20
7.7436903509
 30
0.0
 40
0.008011715740035
100
AcDbArc
 50
231.784530994
 51
306.7502571566
  0
LWPOLYLINE
  5
10C
330
1F
100
AcDbEntity
  8
0
  6
Continuous
 62
     7
370
    15
100
AcDbPolyline
 90
        3
 70
   128
 43
0.0
 10
3.450604631
 20
7.7216644197
 10
3.4475854592
 20
7.7211075878
 10
3.4449070268
 20
7.7215915639
  0
LWPOLYLINE
  5
10D
330
1F
100
AcDbEntity
  8
0
  6
Continuous
 62
     7
370
    15
100
AcDbPolyline
 90
        9
 70
   128
 43
0.0
 10
3.3682874853
 20
7.6771099478
 10
3.3637028849
 20
7.6772254189
 10
3.3592944291
 20
7.6775674142
 10
3.3552315894
 20
7.6781227611
 10
3.3516704905
 20
7.6788701474
 10
3.348747971
 20
7.6797808361
 10
3.3465763394
 20
7.6808198383
 10
3.3452390482
 20
7.6819472152
 10
3.3447875034
 20
7.6831196459
  0
ARC
  5
10E
330
1F
100
AcDbEntity
  8
0
  6
Continuous
 62
     7
370
    15
100
AcDbCircle
 10
3.3679032834
 20
7.682722216
 30
0.0
 40
0.0231191962655989
100
AcDbArc
 50
89.0477974433
 51
179.015010103
  0
LINE
  5
10F
330
1F
100
AcDbEntity
  8
0
  6
Continuous
 62
     7
370
    15
100
AcDbLine
 10
3.3682874853
 20
7.7058382197
 30
0.0
 11
3.3682874853
 21
7.6771099478
 31
0.0
  0
LINE
  5
110
330
1F
100
AcDbEntity
  8
0
  6
Continuous
 62
     7
370
    15
100
AcDbLine
 10
3.4572874938
 20
7.6771099478
 30
0.0
 11
3.3682874853
 21
7.6771099478
 31
0.0
  0
LINE
  5
111
330
1F
100
AcDbEntity
  8
0
  6
Continuous
 62
     7
370
    15
100
AcDbLine
 10
3.4572874938
 20
7.7058382197
 30
0.0
 11
3.3682874853
 21
7.7058382197
 31
0.0
  0
LINE
  5
112
330
1F
100
AcDbEntity
  8
0
  6
Continuous
 62
     7
370
    15
100
AcDbLine
 10
3.3447875034
 20
7.6355073192
 30
0.0
 11
3.3447875034
 21
7.6831196459
 31
0.0
  0
LINE
  5
113
330
1F
100
AcDbEntity
  8
0
  6
Continuous
 62
     7
370
    15
100
AcDbLine
 10
3.3682874853
 20
7.6771099478
 30
0.0
 11
3.3682874853
 21
7.6294976211
 31
0.0
  0
LWPOLYLINE
  5
114
330
1F
100
AcDbEntity
  8
0
  6
Continuous
 62
     7
370
    15
100
AcDbPolyline
 90
        9
 70
   128
 43
0.0
 10
3.3682874853
 20
7.6294976211
 10
3.3637028849
 20
7.6296130923
 10
3.3592944291
 20
7.6299550875
 10
3.3552315894
 20
7.6305104344
 10
3.3516704905
 20
7.6312578208
 10
3.348747971
 20
7.6321685094
 10
3.3465763394
 20
7.6332075116
 10
3.3452390482
 20
7.6343348886
 10
3.3447875034
 20
7.6355073192
  0
LINE
  5
115
330
1F
100
AcDbEntity
  8
0
  6
Continuous
 62
     7
370
    15
100
AcDbLine
 10
3.4572874938
 20
7.6294976211
 30
0.0
 11
3.3682874853
 21
7.6294976211
 31
0.0
  0
LINE
  5
116
330
1F
100
AcDbEntity
  8
0
  6
Continuous
 62
     7
370
    15
100
AcDbLine
 10
3.3447875034
 20
7.6831196459
 30
0.0
 11
3.3447875034
 21
7.6962898395
 31
0.0
  0
ARC
  5
117
330
1F
100
AcDbEntity
  8
0
  6
Continuous
 62
     7
370
    15
100
AcDbCircle
 10
3.3679032789
 20
7.6958924097
 30
0.0
 40
0.0231191917369753
100
AcDbArc
 50
89.0477860312
 51
179.0150099627
  0
LINE
  5
118
330
1F
100
AcDbEntity
  8
0
  6
Continuous
 62
     7
370
    15
100
AcDbLine
 10
3.3682874853
 20
7.7190084088
 30
0.0
 11
3.3682874853
 21
7.7058382197
 31
0.0
  0
LINE
  5
119
330
1F
100
AcDbEntity
  8
0
  6
Continuous
 62
     7
370
    15
100
AcDbLine
 10
3.4572874938
 20
7.7190084088
 30
0.0
 11
3.3682874853
 21
7.7190084088
 31
0.0
  0
LWPOLYLINE
  5
11A
330
1F
100
AcDbEntity
  8
0
  6
Continuous
 62
     7
370
    15
100
AcDbPolyline
 90
        3
 70
   128
 43
0.0
 10
3.399417309
 20
7.7190084088
 10
3.3935375102
 20
7.7193663309
 10
3.3876576748
 20
7.7190084088
  0
LWPOLYLINE
  5
11B
330
1F
100
AcDbEntity
  8
0
  6
Continuous
 62
     7
370
    15
100
AcDbPolyline
 90
        3
 70
   128
 43
0.0
 10
3.3935375102
 20
7.7200408248
 10
3.4016772695
 20
7.7193523702
 10
3.4034862353
 20
7.7190084088
  0
LWPOLYLINE
  5
11C
330
1F
100
AcDbEntity
  8
0
  6
Continuous
 62
     7
370
    15
100
AcDbPolyline
 90
        3
 70
   128
 43
0.0
 10
3.3835887485
 20
7.7190084088
 10
3.3853977509
 20
7.7193523702
 10
3.3935375102
 20
7.7200408248
  0
ARC
  5
11D
330
1F
100
AcDbEntity
  8
0
  6
Continuous
 62
     7
370
    15
100
AcDbCircle
 10
4.5055383401
 20
7.9123467386
 30
0.0
 40
0.0234991494363235
100
AcDbArc
 50
0.0021050885
 51
90.0020296584
  0
ARC
  5
11E
330
1F
100
AcDbEntity
  8
0
  6
Continuous
 62
     7
370
    15
100
AcDbCircle
 10
4.511411698
 20
8.3980176755
 30
0.0
 40
0.4859898032449677
100
AcDbArc
 50
269.3074453271
 51
272.0784489359
  0
LINE
  5
11F
330
1F
100
AcDbEntity
  8
0
  6
Continuous
 62
     7
370
    15
100
AcDbLine
 10
4.5055375076
 20
7.9120633744
 30
0.0
 11
4.5055375076
 21
7.935845888
 31
0.0
  0
LINE
  5
120
330
1F
100
AcDbEntity
  8
0
  6
Continuous
 62
     7
370
    15
100
AcDbLine
 10
4.4165374991
 20
7.935845888
 30
0.0
 11
4.5055375076
 21
7.935845888
 31
0.0
  0
LINE
  5
121
330
1F
100
AcDbEntity
  8
0
  6
Continuous
 62
     7
370
    15
100
AcDbLine
 10
4.4165374991
 20
7.9120633744
 30
0.0
 11
4.5055375076
 21
7.9120633744
 31
0.0
  0
LINE
  5
122
330
1F
100
AcDbEntity
  8
0
  6
Continuous
 62
     7
370
    15
100
AcDbLine
 10
4.5290374895
 20
7.912347602
 30
0.0
 11
4.5290374895
 21
7.8631012075
 31
0.0
  0
ARC
  5
123
330
1F
100
AcDbEntity
  8
0
  6
Continuous
 62
     7
370
    15
100
AcDbCircle
 10
4.511411413
 20
8.3487791705
 30
0.0
 40
0.485997697838545
100
AcDbArc
 50
269.3074901771
 51
272.0784487777
  0
LINE
  5
124
330
1F
100
AcDbEntity
  8
0
  6
Continuous
 62
     7
370
    15
100
AcDbLine
 10
4.5055375076
 20
7.8628169708
 30
0.0
 11
4.5055375076
 21
7.9120633744
 31
0.0
  0
LINE
  5
125
330
1F
100
AcDbEntity
  8
0
  6
Continuous
 62
     7
370
    15
100
AcDbLine
 10
4.4165374991
 20
7.8628169708
 30
0.0
 11
4.5055375076
 21
7.8628169708
 31
0.0
  0
ARC
  5
126
330
1F
100
AcDbEntity
  8
0
  6
Continuous
 62
     7
370
    15
100
AcDbCircle
 10
4.5055383473
 20
7.8631020637
 30
0.0
 40
0.0234991422239523
100
AcDbArc
 50
269.9979527564
 51
359.9979124968
  0
LINE
  5
127
330
1F
100
AcDbEntity
  8
0
  6
Continuous
 62
     7
370
    15
100
AcDbLine
 10
4.5055375076
 20
7.8396029215
 30
0.0
 11
4.5055375076
 21
7.8628169708
 31
0.0
  0
LINE
  5
128
330
1F
100
AcDbEntity
  8
0
  6
Continuous
 62
     7
370
    15
100
AcDbLine
 10
4.4165374991
 20
7.8396029215
 30
0.0
 11
4.5055375076
 21
7.8396029215
 31
0.0
  0
LINE
  5
129
330
1F
100
AcDbEntity
  8
0
  6
Continuous
 62
     7
370
    15
100
AcDbLine
 10
4.5055375076
 20
7.935845888
 30
0.0
 11
4.5055375076
 21
7.9364687741
 31
0.0
  0
ARC
  5
12A
330
1F
100
AcDbEntity
  8
0
  6
Continuous
 62
     7
370
    15
100
AcDbCircle
 10
4.5055383363
 20
7.9129696209
 30
0.0
 40
0.0234991532505837
100
AcDbArc
 50
0.0021143884
 51
90.0020203584
  0
LINE
  5
12B
330
1F
100
AcDbEntity
  8
0
  6
Continuous
 62
     7
370
    15
100
AcDbLine
 10
4.5290374895
 20
7.9129704881
 30
0.0
 11
4.5290374895
 21
7.912347602
 31
0.0
  0
LINE
  5
12C
330
1F
100
AcDbEntity
  8
0
  6
Continuous
 62
     7
370
    15
100
AcDbLine
 10
4.4165374991
 20
7.9364687741
 30
0.0
 11
4.5055375076
 21
7.9364687741
 31
0.0
  0
LWPOLYLINE
  5
12D
330
1F
100
AcDbEntity
  8
0
  6
Continuous
 62
     7
370
    15
100
AcDbPolyline
 90
        9
 70
   128
 43
0.0
 10
4.4924124959
 20
7.7498527697
 10
4.496997133
 20
7.7496809311
 10
4.501405552
 20
7.749172022
 10
4.5054683918
 20
7.7483455992
 10
4.5090294906
 20
7.7472334181
 10
4.5119520469
 20
7.7458782246
 10
4.5141236785
 20
7.7443320939
 10
4.515460933
 20
7.7426544437
 10
4.5159125145
 20
7.740909747
  0
ARC
  5
12E
330
1F
100
AcDbEntity
  8
0
  6
Continuous
 62
     7
370
    15
100
AcDbCircle
 10
4.4932633108
 20
7.741829833
 30
0.0
 40
0.022667884454573
100
AcDbArc
 50
267.8489588164
 51
357.6737339264
  0
LINE
  5
12F
330
1F
100
AcDbEntity
  8
0
  6
Continuous
 62
     7
370
    15
100
AcDbLine
 10
4.4924124959
 20
7.7191779214
 30
0.0
 11
4.4924124959
 21
7.7498527697
 31
0.0
  0
LINE
  5
130
330
1F
100
AcDbEntity
  8
0
  6
Continuous
 62
     7
370
    15
100
AcDbLine
 10
4.4165374991
 20
7.7498527697
 30
0.0
 11
4.4924124959
 21
7.7498527697
 31
0.0
  0
LINE
  5
131
330
1F
100
AcDbEntity
  8
0
  6
Continuous
 62
     7
370
    15
100
AcDbLine
 10
4.4165374991
 20
7.7191779214
 30
0.0
 11
4.4924124959
 21
7.7191779214
 31
0.0
  0
LINE
  5
132
330
1F
100
AcDbEntity
  8
0
  6
Continuous
 62
     7
370
    15
100
AcDbLine
 10
4.5159125145
 20
7.7732763008
 30
0.0
 11
4.5159125145
 21
7.740909747
 31
0.0
  0
LINE
  5
133
330
1F
100
AcDbEntity
  8
0
  6
Continuous
 62
     7
370
    15
100
AcDbLine
 10
4.4924124959
 20
7.7498527697
 30
0.0
 11
4.4924124959
 21
7.7822193223
 31
0.0
  0
LWPOLYLINE
  5
134
330
1F
100
AcDbEntity
  8
0
  6
Continuous
 62
     7
370
    15
100
AcDbPolyline
 90
        9
 70
   128
 43
0.0
 10
4.4924124959
 20
7.7822193223
 10
4.496997133
 20
7.7820474849
 10
4.501405552
 20
7.7815385752
 10
4.5054683918
 20
7.7807121513
 10
4.5090294906
 20
7.7795999719
 10
4.5119520469
 20
7.7782447772
 10
4.5141236785
 20
7.776698647
 10
4.515460933
 20
7.7750209977
 10
4.5159125145
 20
7.7732763008
  0
LINE
  5
135
330
1F
100
AcDbEntity
  8
0
  6
Continuous
 62
     7
370
    15
100
AcDbLine
 10
4.4165374991
 20
7.7822193223
 30
0.0
 11
4.4924124959
 21
7.7822193223
 31
0.0
  0
LINE
  5
136
330
1F
100
AcDbEntity
  8
0
  6
Continuous
 62
     7
370
    15
100
AcDbLine
 10
4.5159125145
 20
7.740909747
 30
0.0
 11
4.5159125145
 21
7.7275903538
 31
0.0
  0
ARC
  5
137
330
1F
100
AcDbEntity
  8
0
  6
Continuous
 62
     7
370
    15
100
AcDbCircle
 10
4.4932633038
 20
7.7285104426
 30
0.0
 40
0.0226678915561297
100
AcDbArc
 50
267.8489771819
 51
357.6737276078
  0
LINE
  5
138
330
1F
100
AcDbEntity
  8
0
  6
Continuous
 62
     7
370
    15
100
AcDbLine
 10
4.4924124959
 20
7.7058585236
 30
0.0
 11
4.4924124959
 21
7.7191779214
 31
0.0
  0
LINE
  5
139
330
1F
100
AcDbEntity
  8
0
  6
Continuous
 62
     7
370
    15
100
AcDbLine
 10
4.4165374991
 20
7.7058585236
 30
0.0
 11
4.4924124959
 21
7.7058585236
 31
0.0
  0
ARC
  5
13A
330
1F
100
AcDbEntity
  8
0
  6
Continuous
 62
     7
370
    15
100
AcDbCircle
 10
4.4690375093
 20
7.747497104
 30
0.0
 40
0.0421779754468323
100
AcDbArc
 50
260.8269837323
 51
279.1730162677
  0
ARC
  5
13B
330
1F
100
AcDbEntity
  8
0
  6
Continuous
 62
     7
370
    15
100
AcDbCircle
 10
4.4690366748
 20
7.7465837286
 30
0.0
 40
0.0420862113383926
100
AcDbArc
 50
255.912851279
 51
285.3058609994
  0
LINE
  5
13C
330
1F
100
AcDbEntity
  8
0
  6
Continuous
 62
     7
370
    15
100
AcDbLine
 10
3.4572874938
 20
7.7933449198
 30
0.0
 11
3.381412497
 21
7.7933449198
 31
0.0
  0
LINE
  5
13D
330
1F
100
AcDbEntity
  8
0
  6
Continuous
 62
     7
370
    15
100
AcDbLine
 10
3.381412497
 20
7.8260259617
 30
0.0
 11
3.381412497
 21
7.7933449198
 31
0.0
  0
LINE
  5
13E
330
1F
100
AcDbEntity
  8
0
  6
Continuous
 62
     7
370
    15
100
AcDbLine
 10
3.4572874938
 20
7.8260259617
 30
0.0
 11
3.381412497
 21
7.8260259617
 31
0.0
  0
LWPOLYLINE
  5
13F
330
1F
100
AcDbEntity
  8
0
  6
Continuous
 62
     7
370
    15
100
AcDbPolyline
 90
        9
 70
   128
 43
0.0
 10
3.381412497
 20
7.7933449198
 10
3.3768278599
 20
7.793600896
 10
3.3724194409
 20
7.7943589855
 10
3.3683566011
 20
7.795590058
 10
3.3647955023
 20
7.7972467993
 10
3.361872946
 20
7.7992655487
 10
3.3597013144
 20
7.8015687204
 10
3.3583640599
 20
7.8040678068
 10
3.3579124784
 20
7.806666772
  0
ARC
  5
140
330
1F
100
AcDbEntity
  8
0
  6
Continuous
 62
     7
370
    15
100
AcDbCircle
 10
3.3795245111
 20
7.8043749084
 30
0.0
 40
0.0217332141071726
100
AcDbArc
 50
85.0163772246
 51
173.946651675
  0
LINE
  5
141
330
1F
100
AcDbEntity
  8
0
  6
Continuous
 62
     7
370
    15
100
AcDbLine
 10
3.4572874938
 20
7.7645120827
 30
0.0
 11
3.381412497
 21
7.7645120827
 31
0.0
  0
LINE
  5
142
330
1F
100
AcDbEntity
  8
0
  6
Continuous
 62
     7
370
    15
100
AcDbLine
 10
3.381412497
 20
7.7933449198
 30
0.0
 11
3.381412497
 21
7.7645120827
 31
0.0
  0
LINE
  5
143
330
1F
100
AcDbEntity
  8
0
  6
Continuous
 62
     7
370
    15
100
AcDbLine
 10
3.3579124784
 20
7.7778339345
 30
0.0
 11
3.3579124784
 21
7.806666772
 31
0.0
  0
LWPOLYLINE
  5
144
330
1F
100
AcDbEntity
  8
0
  6
Continuous
 62
     7
370
    15
100
AcDbPolyline
 90
        9
 70
   128
 43
0.0
 10
3.381412497
 20
7.7645120827
 10
3.3768278599
 20
7.7647680589
 10
3.3724194409
 20
7.7655261484
 10
3.3683566011
 20
7.7667572198
 10
3.3647955023
 20
7.7684139628
 10
3.361872946
 20
7.7704327104
 10
3.3597013144
 20
7.7727358827
 10
3.3583640599
 20
7.7752349703
 10
3.3579124784
 20
7.7778339345
  0
LINE
  5
145
330
1F
100
AcDbEntity
  8
0
  6
Continuous
 62
     7
370
    15
100
AcDbLine
 10
3.381412497
 20
7.8458670191
 30
0.0
 11
3.381412497
 21
7.8260259617
 31
0.0
  0
LINE
  5
146
330
1F
100
AcDbEntity
  8
0
  6
Continuous
 62
     7
370
    15
100
AcDbLine
 10
3.4572874938
 20
7.8458670191
 30
0.0
 11
3.381412497
 21
7.8458670191
 31
0.0
  0
LINE
  5
147
330
1F
100
AcDbEntity
  8
0
  6
Continuous
 62
     7
370
    15
100
AcDbLine
 10
3.3579124784
 20
7.806666772
 30
0.0
 11
3.3579124784
 21
7.8265078294
 31
0.0
  0
ARC
  5
148
330
1F
100
AcDbEntity
  8
0
  6
Continuous
 62
     7
370
    15
100
AcDbCircle
 10
3.3795245136
 20
7.8242159629
 30
0.0
 40
0.0217332169224857
100
AcDbArc
 50
85.0163845093
 51
173.9466443902
  0
ARC
  5
149
330
1F
100
AcDbEntity
  8
0
  6
Continuous
 62
     7
370
    15
100
AcDbCircle
 10
3.4047874836
 20
7.8010151057
 30
0.0
 40
0.0467372000422315
100
AcDbArc
 50
73.1025883199
 51
106.8974116801
  0
ARC
  5
14A
330
1F
100
AcDbEntity
  8
0
  6
Continuous
 62
     7
370
    15
100
AcDbCircle
 10
3.4047875019
 20
7.8026802563
 30
0.0
 40
0.0463110053195628
100
AcDbArc
 50
68.4487458827
 51
111.5512541173
  0
LINE
  5
14B
330
1F
100
AcDbEntity
  8
0
  6
Continuous
 62
     7
370
    15
100
AcDbLine
 10
3.9368499964
 20
7.9534310915
 30
0.0
 11
3.9369749964
 21
7.9534310915
 31
0.0
  0
LINE
  5
14C
330
1F
100
AcDbEntity
  8
0
  6
Continuous
 62
     7
370
    15
100
AcDbLine
 10
3.8983532394
 20
7.9643937299
 30
0.0
 11
3.9754717535
 21
7.9643937299
 31
0.0
  0
LINE
  5
14D
330
1F
100
AcDbEntity
  8
0
  6
Continuous
 62
     7
370
    15
100
AcDbLine
 10
3.4885375094
 20
7.7753937299
 30
0.0
 11
3.4885375094
 21
7.4316437409
 31
0.0
  0
LINE
  5
14E
330
1F
100
AcDbEntity
  8
0
  6
Continuous
 62
     7
370
    15
100
AcDbLine
 10
3.4885375094
 20
8.1191437189
 30
0.0
 11
3.4885375094
 21
7.7753937299
 31
0.0
  0
LINE
  5
14F
330
1F
100
AcDbEntity
  8
0
  6
Continuous
 62
     7
370
    15
100
AcDbLine
 10
3.4572874938
 20
7.7753937299
 30
0.0
 11
3.4572874938
 21
7.4628937199
 31
0.0
  0
LINE
  5
150
330
1F
100
AcDbEntity
  8
0
  6
Continuous
 62
     7
370
    15
100
AcDbLine
 10
3.4572874938
 20
8.0878937399
 30
0.0
 11
3.4572874938
 21
7.7753937299
 31
0.0
  0
LINE
  5
151
330
1F
100
AcDbEntity
  8
0
  6
Continuous
 62
     7
370
    15
100
AcDbLine
 10
3.7006624873
 20
7.7753937299
 30
0.0
 11
3.7006624873
 21
7.4472687304
 31
0.0
  0
LINE
  5
152
330
1F
100
AcDbEntity
  8
0
  6
Continuous
 62
     7
370
    15
100
AcDbLine
 10
3.7006624873
 20
8.1035187294
 30
0.0
 11
3.7006624873
 21
7.7753937299
 31
0.0
  0
LINE
  5
153
330
1F
100
AcDbEntity
  8
0
  6
Continuous
 62
     7
370
    15
100
AcDbLine
 10
4.1731625056
 20
7.7753937299
 30
0.0
 11
4.1731625056
 21
8.1035187294
 31
0.0
  0
LINE
  5
154
330
1F
100
AcDbEntity
  8
0
  6
Continuous
 62
     7
370
    15
100
AcDbLine
 10
4.1731625056
 20
7.4780011471
 30
0.0
 11
4.1731625056
 21
7.7753937299
 31
0.0
  0
LINE
  5
155
330
1F
100
AcDbEntity
  8
0
  6
Continuous
 62
     7
370
    15
100
AcDbLine
 10
4.3852874834
 20
7.7753937299
 30
0.0
 11
4.3852874834
 21
8.1191437189
 31
0.0
  0
LINE
  5
156
330
1F
100
AcDbEntity
  8
0
  6
Continuous
 62
     7
370
    15
100
AcDbLine
 10
4.3852874834
 20
7.4316437409
 30
0.0
 11
4.3852874834
 21
7.7753937299
 31
0.0
  0
LINE
  5
157
330
1F
100
AcDbEntity
  8
0
  6
Continuous
 62
     7
370
    15
100
AcDbLine
 10
4.4165374991
 20
7.7753937299
 30
0.0
 11
4.4165374991
 21
8.0878937399
 31
0.0
  0
LINE
  5
158
330
1F
100
AcDbEntity
  8
0
  6
Continuous
 62
     7
370
    15
100
AcDbLine
 10
4.4165374991
 20
7.4628937199
 30
0.0
 11
4.4165374991
 21
7.7753937299
 31
0.0
  0
SPLINE
  5
159
330
1F
100
AcDbEntity
  8
0
  6
Continuous
 62
     7
370
    15
100
AcDbSpline
210
0.0
220
0.0
230
1.0
 70
     8
 71
     3
 72
    31
 73
    27
 74
     0
 42
0.00000001
 43
0.00000001
 12
1.0
 22
0.0
 32
0.0
 13
1.0
 23
0.0
 33
0.0
 40
0.0
 40
0.0
 40
0.0
 40
0.0
 40
0.0436332182657583
 40
0.0865377766972014
 40
0.1291773360898922
 40
0.1714363236638289
 40
0.2134158945709082
 40
0.2552659545538505
 40
0.2973694811566238
 40
0.3399407478985556
 40
0.382347458751812
 40
0.4239529468152709
 40
0.4648711632610174
 40
0.505572294118273
 40
0.5460025771083161
 40
0.5865679748069133
 40
0.6270647991481679
 40
0.6682706840331738
 40
0.7095492248503336
 40
0.7504281535131893
 40
0.7910961944485935
 40
0.8320271447794345
 40
0.8731359553359672
 40
0.9146107643654495
 40
0.9569559864804374
 40
1.0
 40
1.0
 40
1.0
 40
1.0
 10
3.897695983887329
 20
7.833993666243518
 30
0.0
 10
3.898206960275393
 20
7.834000686613424
 30
0.0
 10
3.899220379920454
 20
7.834014610115454
 30
0.0
 10
3.900727723245817
 20
7.834154849048561
 30
0.0
 10
3.902207910898481
 20
7.834379733119588
 30
0.0
 10
3.90365886673969
 20
7.834703518400187
 30
0.0
 10
3.905078944036946
 20
7.835108750309048
 30
0.0
 10
3.906474069968764
 20
7.835590172412209
 30
0.0
 10
3.907829384452731
 20
7.836190791708985
 30
0.0
 10
3.90916198514787
 20
7.836854405482049
 30
0.0
 10
3.910437543519565
 20
7.83761091769403
 30
0.0
 10
3.91165521634438
 20
7.838423503649
 30
0.0
 10
3.912784311481252
 20
7.839323647370936
 30
0.0
 10
3.913853067300518
 20
7.840273238726227
 30
0.0
 10
3.914851525834874
 20
7.841291424375934
 30
0.0
 10
3.915772935154761
 20
7.842376880555855
 30
0.0
 10
3.916614192634967
 20
7.843536458691328
 30
0.0
 10
3.917388798028078
 20
7.844751324478379
 30
0.0
 10
3.918079803706822
 20
7.846020977392669
 30
0.0
 10
3.918681868335608
 20
7.847328033922445
 30
0.0
 10
3.919192647095363
 20
7.848669275595832
 30
0.0
 10
3.919604984917548
 20
7.850046636956491
 30
0.0
 10
3.919928102952799
 20
7.851457502038929
 30
0.0
 10
3.920150743633766
 20
7.852903759934272
 30
0.0
 10
3.920306481301993
 20
7.854382517404688
 30
0.0
 10
3.920318219860774
 20
7.855382691033904
 30
0.0
 10
3.920324137172004
 20
7.855886870359295
 30
0.0
  0
SPLINE
  5
15A
330
1F
100
AcDbEntity
  8
0
  6
Continuous
 62
     7
370
    15
100
AcDbSpline
210
0.0
220
0.0
230
1.0
 70
     8
 71
     3
 72
    23
 73
    19
 74
     0
 42
0.00000001
 43
0.00000001
 12
1.0
 22
0.0
 32
0.0
 13
1.0
 23
0.0
 33
0.0
 40
0.0
 40
0.0
 40
0.0
 40
0.0
 40
0.0645039992970557
 40
0.1268993215900402
 40
0.1877465401000115
 40
0.2481497329298263
 40
0.3085860647627419
 40
0.3695830050869942
 40
0.4318269653810495
 40
0.4961797225241575
 40
0.56066785461188
 40
0.6235044551176646
 40
0.6852604113304278
 40
0.7465368217511669
 40
0.8083273517367078
 40
0.8704861878877675
 40
0.934316883359246
 40
0.9999999999999999
 40
0.9999999999999999
 40
0.9999999999999999
 40
0.9999999999999999
 10
3.875274858537554
 20
7.855648788234158
 30
0.0
 10
3.875293680662347
 20
7.854902285113487
 30
0.0
 10
3.87533070960463
 20
7.853433682536741
 30
0.0
 10
3.875654892252329
 20
7.851281554474001
 30
0.0
 10
3.876154241550586
 20
7.849213284108015
 30
0.0
 10
3.876890338166644
 20
7.84724018837061
 30
0.0
 10
3.877810885715358
 20
7.845345307051465
 30
0.0
 10
3.878948114520827
 20
7.843545449783746
 30
0.0
 10
3.880295468159274
 20
7.841840130124208
 30
0.0
 10
3.881825961576673
 20
7.840241253434142
 30
0.0
 10
3.88349906360376
 20
7.838781889107215
 30
0.0
 10
3.885275661960879
 20
7.837500909864512
 30
0.0
 10
3.887136723636311
 20
7.836417077316965
 30
0.0
 10
3.889087101833894
 20
7.835534112279885
 30
0.0
 10
3.891116384076337
 20
7.834834447854689
 30
0.0
 10
3.89323764652321
 20
7.834354931743515
 30
0.0
 10
3.895436758451815
 20
7.834039343466645
 30
0.0
 10
3.896935762050096
 20
7.834009036477023
 30
0.0
 10
3.897695983887329
 20
7.833993666243518
 30
0.0
  0
SPLINE
  5
15B
330
1F
100
AcDbEntity
  8
0
  6
Continuous
 62
     7
370
    15
100
AcDbSpline
210
0.0
220
0.0
230
1.0
 70
     8
 71
     3
 72
    31
 73
    27
 74
     0
 42
0.00000001
 43
0.00000001
 12
1.0
 22
0.0
 32
0.0
 13
1.0
 23
0.0
 33
0.0
 40
0.0
 40
0.0
 40
0.0
 40
0.0
 40
0.0420233285259235
 40
0.0836449111687117
 40
0.1249837954173945
 40
0.1662474611728949
 40
0.2077015560969879
 40
0.2496310707996493
 40
0.2917417703321306
 40
0.3347428753531984
 40
0.3774601685508653
 40
0.4195563188419398
 40
0.4610441763330335
 40
0.5020962839443965
 40
0.5428907140755996
 40
0.583800818626505
 40
0.6248635833101931
 40
0.6662246890691707
 40
0.7073991864779363
 40
0.7485566775366932
 40
0.7896545909521799
 40
0.8307397264898321
 40
0.8720701422586047
 40
0.9139933952421326
 40
0.9564981300675881
 40
1.0
 40
1.0
 40
1.0
 40
1.0
 10
3.897695983887329
 20
7.877717966094601
 30
0.0
 10
3.897205601400156
 20
7.877711988274941
 30
0.0
 10
3.896229524515793
 20
7.877700089783984
 30
0.0
 10
3.894778446777182
 20
7.877543358835918
 30
0.0
 10
3.893346453084367
 20
7.877319980409236
 30
0.0
 10
3.891933247702265
 20
7.877001349772692
 30
0.0
 10
3.890544743649374
 20
7.876567226887912
 30
0.0
 10
3.889167998397044
 20
7.876067598051034
 30
0.0
 10
3.887815566393662
 20
7.875459007837268
 30
0.0
 10
3.886491912416302
 20
7.874771406133902
 30
0.0
 10
3.885208693961902
 20
7.874010335325775
 30
0.0
 10
3.883997854394368
 20
7.873169201348541
 30
0.0
 10
3.882856259066852
 20
7.872267729843425
 30
0.0
 10
3.881786703106512
 20
7.871303816993672
 30
0.0
 10
3.880792327080091
 20
7.870272554029215
 30
0.0
 10
3.879853559413093
 20
7.869189575046072
 30
0.0
 10
3.879008028486258
 20
7.868023925434346
 30
0.0
 10
3.878233128842428
 20
7.8668072141245
 30
0.0
 10
3.877539693333041
 20
7.865541025911501
 30
0.0
 10
3.876923067576871
 20
7.864238691156198
 30
0.0
 10
3.876418668466568
 20
7.862889586483649
 30
0.0
 10
3.876007306969484
 20
7.86150834828894
 30
0.0
 10
3.875666260223313
 20
7.860097164142218
 30
0.0
 10
3.875450204246527
 20
7.858645328821963
 30
0.0
 10
3.875291751162517
 20
7.857160137628581
 30
0.0
 10
3.875280532766795
 20
7.856156450183972
 30
0.0
 10
3.875274858537554
 20
7.855648788234158
 30
0.0
  0
SPLINE
  5
15C
330
1F
100
AcDbEntity
  8
0
  6
Continuous
 62
     7
370
    15
100
AcDbSpline
210
0.0
220
0.0
230
1.0
 70
     8
 71
     3
 72
    31
 73
    27
 74
     0
 42
0.00000001
 43
0.00000001
 12
1.0
 22
0.0
 32
0.0
 13
1.0
 23
0.0
 33
0.0
 40
0.0
 40
0.0
 40
0.0
 40
0.0
 40
0.04291508210105
 40
0.0851299705846994
 40
0.1264733185549989
 40
0.1674530378853887
 40
0.2079763328949879
 40
0.2482493780637604
 40
0.2887499869834431
 40
0.3296698569108729
 40
0.3705372867119747
 40
0.4111285639171174
 40
0.4518189126736378
 40
0.492405876934264
 40
0.533485861742023
 40
0.5752630624415513
 40
0.6174406128021906
 40
0.6606716882923646
 40
0.7039402042434888
 40
0.7468675221598701
 40
0.7890793003947228
 40
0.8311040424574037
 40
0.8732379898547746
 40
0.9151657696593329
 40
0.9573806581429823
 40
1.0
 40
1.0
 40
1.0
 40
1.0
 10
3.920324137172004
 20
7.855886870359295
 30
0.0
 10
3.920318215120219
 20
7.856387600536361
 30
0.0
 10
3.920306467639624
 20
7.857380891080327
 30
0.0
 10
3.920150818024521
 20
7.858849335506069
 30
0.0
 10
3.919927867734622
 20
7.860285186714887
 30
0.0
 10
3.919606562040217
 20
7.861682807769281
 30
0.0
 10
3.919192428187582
 20
7.863042554933858
 30
0.0
 10
3.918681779136553
 20
7.864363151126676
 30
0.0
 10
3.918079622964391
 20
7.865649516094336
 30
0.0
 10
3.917388544031958
 20
7.866898470465771
 30
0.0
 10
3.916611721420173
 20
7.868096938299362
 30
0.0
 10
3.915762873577443
 20
7.869242664143715
 30
0.0
 10
3.914827344453552
 20
7.870314131674287
 30
0.0
 10
3.913831863298189
 20
7.87133779251537
 30
0.0
 10
3.912751564739838
 20
7.872291814223225
 30
0.0
 10
3.911591342347819
 20
7.873176513272415
 30
0.0
 10
3.910365281395265
 20
7.874013240288029
 30
0.0
 10
3.909067119356488
 20
7.874768060603554
 30
0.0
 10
3.90772737114988
 20
7.875465133863011
 30
0.0
 10
3.90635263208382
 20
7.876062354467687
 30
0.0
 10
3.904958476201697
 20
7.87656982613288
 30
0.0
 10
3.903548448778838
 20
7.877002663250225
 30
0.0
 10
3.902110681685678
 20
7.877318732462696
 30
0.0
 10
3.900654889895377
 20
7.877543560141577
 30
0.0
 10
3.8991830875311
 20
7.877700035233412
 30
0.0
 10
3.898193258129846
 20
7.877711970173972
 30
0.0
 10
3.897695983887329
 20
7.877717966094601
 30
0.0
  0
LINE
  5
15D
330
1F
100
AcDbEntity
  8
0
  6
Continuous
 62
     7
370
    15
100
AcDbLine
 10
3.9348120297
 20
7.7143462043
 30
0.0
 11
3.9348120297
 21
7.6737687272
 31
0.0
  0
LINE
  5
15E
330
1F
100
AcDbEntity
  8
0
  6
Continuous
 62
     7
370
    15
100
AcDbLine
 10
3.9688681242
 20
7.6737687272
 30
0.0
 11
3.9348120297
 21
7.7143462043
 31
0.0
  0
LINE
  5
15F
330
1F
100
AcDbEntity
  8
0
  6
Continuous
 62
     7
370
    15
100
AcDbLine
 10
3.9699239676
 20
7.6737687272
 30
0.0
 11
3.9688681242
 21
7.6737687272
 31
0.0
  0
LINE
  5
160
330
1F
100
AcDbEntity
  8
0
  6
Continuous
 62
     7
370
    15
100
AcDbLine
 10
3.9699239676
 20
7.7254429036
 30
0.0
 11
3.9699239676
 21
7.6737687272
 31
0.0
  0
LINE
  5
161
330
1F
100
AcDbEntity
  8
0
  6
Continuous
 62
     7
370
    15
100
AcDbLine
 10
3.9652865426
 20
7.7254429036
 30
0.0
 11
3.9699239676
 21
7.7254429036
 31
0.0
  0
LINE
  5
162
330
1F
100
AcDbEntity
  8
0
  6
Continuous
 62
     7
370
    15
100
AcDbLine
 10
3.9652865426
 20
7.6847722668
 30
0.0
 11
3.9652865426
 21
7.7254429036
 31
0.0
  0
LINE
  5
163
330
1F
100
AcDbEntity
  8
0
  6
Continuous
 62
     7
370
    15
100
AcDbLine
 10
3.9311476355
 20
7.7254429036
 30
0.0
 11
3.9652865426
 21
7.6847722668
 31
0.0
  0
LINE
  5
164
330
1F
100
AcDbEntity
  8
0
  6
Continuous
 62
     7
370
    15
100
AcDbLine
 10
3.9301746039
 20
7.7254429036
 30
0.0
 11
3.9311476355
 21
7.7254429036
 31
0.0
  0
LINE
  5
165
330
1F
100
AcDbEntity
  8
0
  6
Continuous
 62
     7
370
    15
100
AcDbLine
 10
3.9301746039
 20
7.6737687272
 30
0.0
 11
3.9301746039
 21
7.7254429036
 31
0.0
  0
LINE
  5
166
330
1F
100
AcDbEntity
  8
0
  6
Continuous
 62
     7
370
    15
100
AcDbLine
 10
3.9348120297
 20
7.6737687272
 30
0.0
 11
3.9301746039
 21
7.6737687272
 31
0.0
  0
LINE
  5
167
330
1F
100
AcDbEntity
  8
0
  6
Continuous
 62
     7
370
    15
100
AcDbLine
 10
3.9872355676
 20
7.8300187276
 30
0.0
 11
3.9872355676
 21
7.8763929865
 31
0.0
  0
LINE
  5
168
330
1F
100
AcDbEntity
  8
0
  6
Continuous
 62
     7
370
    15
100
AcDbLine
 10
3.9918729903
 20
7.8300187276
 30
0.0
 11
3.9872355676
 21
7.8300187276
 31
0.0
  0
LINE
  5
169
330
1F
100
AcDbEntity
  8
0
  6
Continuous
 62
     7
370
    15
100
AcDbLine
 10
3.9918729903
 20
7.8763929865
 30
0.0
 11
3.9918729903
 21
7.8300187276
 31
0.0
  0
LINE
  5
16A
330
1F
100
AcDbEntity
  8
0
  6
Continuous
 62
     7
370
    15
100
AcDbLine
 10
4.003135311
 20
7.8763929865
 30
0.0
 11
3.9918729903
 21
7.8763929865
 31
0.0
  0
LINE
  5
16B
330
1F
100
AcDbEntity
  8
0
  6
Continuous
 62
     7
370
    15
100
AcDbLine
 10
4.003135311
 20
7.8816928994
 30
0.0
 11
4.003135311
 21
7.8763929865
 31
0.0
  0
LINE
  5
16C
330
1F
100
AcDbEntity
  8
0
  6
Continuous
 62
     7
370
    15
100
AcDbLine
 10
3.9759732469
 20
7.8816928994
 30
0.0
 11
4.003135311
 21
7.8816928994
 31
0.0
  0
LINE
  5
16D
330
1F
100
AcDbEntity
  8
0
  6
Continuous
 62
     7
370
    15
100
AcDbLine
 10
3.9759732469
 20
7.8763929865
 30
0.0
 11
3.9759732469
 21
7.8816928994
 31
0.0
  0
LINE
  5
16E
330
1F
100
AcDbEntity
  8
0
  6
Continuous
 62
     7
370
    15
100
AcDbLine
 10
3.9872355676
 20
7.8763929865
 30
0.0
 11
3.9759732469
 21
7.8763929865
 31
0.0
  0
SPLINE
  5
16F
330
1F
100
AcDbEntity
  8
0
  6
Continuous
 62
     7
370
    15
100
AcDbSpline
210
0.0
220
0.0
230
1.0
 70
     8
 71
     3
 72
    23
 73
    19
 74
     0
 42
0.00000001
 43
0.00000001
 12
1.0
 22
0.0
 32
0.0
 13
1.0
 23
0.0
 33
0.0
 40
0.0
 40
0.0
 40
0.0
 40
0.0
 40
0.0658188768433069
 40
0.1297465269068315
 40
0.192071954488006
 40
0.2534594242982026
 40
0.3145695877964205
 40
0.3762798811880264
 40
0.4390256536685599
 40
0.5032670288290858
 40
0.567492822879295
 40
0.629704795605245
 40
0.6909996492157556
 40
0.751451650917447
 40
0.8120043642646946
 40
0.8731496810680429
 40
0.9356354837317856
 40
1.0
 40
1.0
 40
1.0
 40
1.0
 10
3.897882309028739
 20
7.828693751110054
 30
0.0
 10
3.896945909256483
 20
7.828716626333955
 30
0.0
 10
3.895100016040531
 20
7.828761719489534
 30
0.0
 10
3.892390266201741
 20
7.829148263040785
 30
0.0
 10
3.889787692901015
 20
7.829752722468527
 30
0.0
 10
3.887299738711897
 20
7.830616558669394
 30
0.0
 10
3.884925016241591
 20
7.831732975191772
 30
0.0
 10
3.882658881093571
 20
7.833094285189998
 30
0.0
 10
3.880510429229548
 20
7.8347095776162
 30
0.0
 10
3.878497472962753
 20
7.836542779044772
 30
0.0
 10
3.876655669650606
 20
7.83853845850274
 30
0.0
 10
3.875049940865999
 20
7.840676798585097
 30
0.0
 10
3.873688324746223
 20
7.84291584722365
 30
0.0
 10
3.872575656789823
 20
7.845261818103356
 30
0.0
 10
3.871694767770578
 20
7.847703370236278
 30
0.0
 10
3.87109379982881
 20
7.850256790084354
 30
0.0
 10
3.870704974534094
 20
7.852907520199568
 30
0.0
 10
3.870660167911018
 20
7.854712320377062
 30
0.0
 10
3.870637432795773
 20
7.855628085440668
 30
0.0
  0
SPLINE
  5
170
330
1F
100
AcDbEntity
  8
0
  6
Continuous
 62
     7
370
    15
100
AcDbSpline
210
0.0
220
0.0
230
1.0
 70
     8
 71
     3
 72
    23
 73
    19
 74
     0
 42
0.00000001
 43
0.00000001
 12
1.0
 22
0.0
 32
0.0
 13
1.0
 23
0.0
 33
0.0
 40
0.0
 40
0.0
 40
0.0
 40
0.0
 40
0.0652265038922756
 40
0.1285689957067287
 40
0.1903203781044671
 40
0.251377988624063
 40
0.312387528333694
 40
0.3737887042767234
 40
0.4364311597804503
 40
0.5005667553098538
 40
0.5646867953847439
 40
0.6271355178835134
 40
0.6884554088949797
 40
0.7492457464637473
 40
0.8101551773646785
 40
0.8716709256529234
 40
0.9347734961077241
 40
0.9999999999999999
 40
0.9999999999999999
 40
0.9999999999999999
 40
0.9999999999999999
 10
3.924961562913785
 20
7.85587651896255
 30
0.0
 10
3.924938679633587
 20
7.854947012120717
 30
0.0
 10
3.924893574037274
 20
7.853114846451459
 30
0.0
 10
3.924507216915609
 20
7.850425671661984
 30
0.0
 10
3.923901285568656
 20
7.847840623987086
 30
0.0
 10
3.923036167405919
 20
7.845364018899595
 30
0.0
 10
3.921925534733243
 20
7.842993243831637
 30
0.0
 10
3.920557569218732
 20
7.840734536902211
 30
0.0
 10
3.918946203002633
 20
7.838587157629476
 30
0.0
 10
3.917112406930535
 20
7.836574630719849
 30
0.0
 10
3.915113339270918
 20
7.834729161900108
 30
0.0
 10
3.912969152451845
 20
7.833121078249773
 30
0.0
 10
3.910728068393051
 20
7.831737330653563
 30
0.0
 10
3.908361247958458
 20
7.830633220804277
 30
0.0
 10
3.90590008039638
 20
7.829750745224048
 30
0.0
 10
3.903322538371329
 20
7.829149071385145
 30
0.0
 10
3.900640699692235
 20
7.828760968182611
 30
0.0
 10
3.898811862085208
 20
7.828716402664117
 30
0.0
 10
3.897882309028739
 20
7.828693751110054
 30
0.0
  0
SPLINE
  5
171
330
1F
100
AcDbEntity
  8
0
  6
Continuous
 62
     7
370
    15
100
AcDbSpline
210
0.0
220
0.0
230
1.0
 70
     8
 71
     3
 72
    23
 73
    19
 74
     0
 42
0.00000001
 43
0.00000001
 12
1.0
 22
0.0
 32
0.0
 13
1.0
 23
0.0
 33
0.0
 40
0.0
 40
0.0
 40
0.0
 40
0.0
 40
0.0665700352151803
 40
0.130749041482178
 40
0.1934128000295041
 40
0.2549893988897088
 40
0.3161135558759005
 40
0.3772617579089845
 40
0.439400784155553
 40
0.502970589371976
 40
0.5665249763607315
 40
0.6282311025133089
 40
0.6890906105998629
 40
0.7493446689958044
 40
0.8101695933722065
 40
0.8716098243170437
 40
0.9348691840727636
 40
1.0
 40
1.0
 40
1.0
 40
1.0
 10
3.897468253158938
 20
7.883017881228066
 30
0.0
 10
3.898425083229627
 20
7.882993646345706
 30
0.0
 10
3.900304376431134
 20
7.882946047037267
 30
0.0
 10
3.903066359443992
 20
7.882581683535687
 30
0.0
 10
3.905703146235576
 20
7.881951326693314
 30
0.0
 10
3.908236216223317
 20
7.881111798816604
 30
0.0
 10
3.910635270540348
 20
7.879991880931192
 30
0.0
 10
3.912918366772833
 20
7.878638236880997
 30
0.0
 10
3.915080072716399
 20
7.877036685095961
 30
0.0
 10
3.917091251909048
 20
7.875199605856317
 30
0.0
 10
3.918931693268663
 20
7.873200797868461
 30
0.0
 10
3.920553168067999
 20
7.87106771888133
 30
0.0
 10
3.921912085030372
 20
7.868813266235967
 30
0.0
 10
3.923028037318487
 20
7.866444214621596
 30
0.0
 10
3.92390352491545
 20
7.863965921778861
 30
0.0
 10
3.924507655693822
 20
7.861365175397929
 30
0.0
 10
3.9248935606313
 20
7.858658826388619
 30
0.0
 10
3.924938676279595
 20
7.856812923593967
 30
0.0
 10
3.924961562913785
 20
7.85587651896255
 30
0.0
  0
SPLINE
  5
172
330
1F
100
AcDbEntity
  8
0
  6
Continuous
 62
     7
370
    15
100
AcDbSpline
210
0.0
220
0.0
230
1.0
 70
     8
 71
     3
 72
    31
 73
    27
 74
     0
 42
0.00000001
 43
0.00000001
 12
1.0
 22
0.0
 32
0.0
 13
1.0
 23
0.0
 33
0.0
 40
0.0
 40
0.0
 40
0.0
 40
0.0
 40
0.0432089861713369
 40
0.0858728716306188
 40
0.128120006696703
 40
0.1701519644541992
 40
0.2119176209878617
 40
0.2537530026191244
 40
0.2960064088559509
 40
0.3384433571447844
 40
0.381015368162034
 40
0.422820479440761
 40
0.4640890557943135
 40
0.5051258486836866
 40
0.5459749706852414
 40
0.5869852111338598
 40
0.6283385916346628
 40
0.6700838015912062
 40
0.7119916023637224
 40
0.7530391548630191
 40
0.7940493953116377
 40
0.8348855427015818
 40
0.8754983129295133
 40
0.9165472998303794
 40
0.9580037786449607
 40
0.9999999999999999
 40
0.9999999999999999
 40
0.9999999999999999
 40
0.9999999999999999
 10
3.870637432795773
 20
7.855628085440668
 30
0.0
 10
3.870645326180728
 20
7.856242752220308
 30
0.0
 10
3.870661013372052
 20
7.857464331482878
 30
0.0
 10
3.870849870550297
 20
7.859278340024896
 30
0.0
 10
3.871123916422012
 20
7.86106317565612
 30
0.0
 10
3.871516668370375
 20
7.862813762977457
 30
0.0
 10
3.872030334257005
 20
7.864525816672521
 30
0.0
 10
3.872636428413275
 20
7.866211144162711
 30
0.0
 10
3.873376695562046
 20
7.867852666141487
 30
0.0
 10
3.874213531444069
 20
7.869458158937799
 30
0.0
 10
3.875147531896548
 20
7.871002595216773
 30
0.0
 10
3.876179180906357
 20
7.872462458257217
 30
0.0
 10
3.877272242736387
 20
7.873849998327007
 30
0.0
 10
3.878470543081297
 20
7.875129258963416
 30
0.0
 10
3.879734588499085
 20
7.876337455100787
 30
0.0
 10
3.88108488450279
 20
7.877456019590002
 30
0.0
 10
3.882513191768031
 20
7.878495038835435
 30
0.0
 10
3.884025656113337
 20
7.879431379877793
 30
0.0
 10
3.885585009530678
 20
7.880278232969088
 30
0.0
 10
3.887192471645478
 20
7.881004946803651
 30
0.0
 10
3.888826210722597
 20
7.88162866973854
 30
0.0
 10
3.890493878713274
 20
7.882134202969834
 30
0.0
 10
3.892191047107482
 20
7.88253330528191
 30
0.0
 10
3.893921420033007
 20
7.882805072359556
 30
0.0
 10
3.895683618958961
 20
7.882994411221091
 30
0.0
 10
3.896870815636246
 20
7.883010024232596
 30
0.0
 10
3.897468253158938
 20
7.883017881228066
 30
0.0
  0
LINE
  5
173
330
1F
100
AcDbEntity
  8
0
  6
Continuous
 62
     7
370
    15
100
AcDbLine
 10
3.7116624886
 20
7.4756437276
 30
0.0
 11
3.7125374918
 21
7.4756437276
 31
0.0
  0
LINE
  5
174
330
1F
100
AcDbEntity
  8
0
  6
Continuous
 62
     7
370
    15
100
AcDbLine
 10
3.8466006247
 20
7.4756437276
 30
0.0
 11
4.0272243682
 21
7.4756437276
 31
0.0
  0
LINE
  5
175
330
1F
100
AcDbEntity
  8
0
  6
Continuous
 62
     7
370
    15
100
AcDbLine
 10
4.1612875011
 20
7.4756437276
 30
0.0
 11
4.1621625043
 21
7.4756437276
 31
0.0
  0
LINE
  5
176
330
1F
100
AcDbEntity
  8
0
  6
Continuous
 62
     7
370
    15
100
AcDbLine
 10
3.7116624886
 20
7.4756437276
 30
0.0
 11
3.7116624886
 21
8.0688937327
 31
0.0
  0
LINE
  5
177
330
1F
100
AcDbEntity
  8
0
  6
Continuous
 62
     7
370
    15
100
AcDbLine
 10
4.1621625043
 20
8.0688937327
 30
0.0
 11
3.7116624886
 21
8.0688937327
 31
0.0
  0
LINE
  5
178
330
1F
100
AcDbEntity
  8
0
  6
Continuous
 62
     7
370
    15
100
AcDbLine
 10
4.1621625043
 20
7.4756437276
 30
0.0
 11
4.1621625043
 21
8.0688937327
 31
0.0
  0
SPLINE
  5
179
330
1F
100
AcDbEntity
  8
0
  6
Continuous
 62
     7
370
    15
100
AcDbSpline
210
0.0
220
0.0
230
1.0
 70
     8
 71
     3
 72
    15
 73
    11
 74
     0
 42
0.00000001
 43
0.00000001
 12
1.0
 22
0.0
 32
0.0
 13
1.0
 23
0.0
 33
0.0
 40
0.0
 40
0.0
 40
0.0
 40
0.0
 40
0.0781298651584278
 40
0.1694654174977334
 40
0.2743352908540846
 40
0.392110163353921
 40
0.5236873298575195
 40
0.6683654211389637
 40
0.8271319021257836
 40
1.0
 40
1.0
 40
1.0
 40
1.0
 10
3.936482667491024
 20
7.839593771882589
 30
0.0
 10
3.936406231672503
 20
7.83986886413035
 30
0.0
 10
3.936240440679888
 20
7.84046554534211
 30
0.0
 10
3.936062898592608
 20
7.8414530607567
 30
0.0
 10
3.935913647612873
 20
7.842590112797752
 30
0.0
 10
3.935773307082667
 20
7.843876779295797
 30
0.0
 10
3.935690496150871
 20
7.845314057525701
 30
0.0
 10
3.935617894843527
 20
7.846901324459826
 30
0.0
 10
3.935560881713235
 20
7.848640499373643
 30
0.0
 10
3.935561217926124
 20
7.849851956287539
 30
0.0
 10
3.935561393180715
 20
7.85048344125838
 30
0.0
  0
SPLINE
  5
17A
330
1F
100
AcDbEntity
  8
0
  6
Continuous
 62
     7
370
    15
100
AcDbSpline
210
0.0
220
0.0
230
1.0
 70
     8
 71
     3
 72
    23
 73
    19
 74
     0
 42
0.00000001
 43
0.00000001
 12
1.0
 22
0.0
 32
0.0
 13
1.0
 23
0.0
 33
0.0
 40
0.0
 40
0.0
 40
0.0
 40
0.0
 40
0.0711745037456342
 40
0.1396441217506233
 40
0.2063172239119632
 40
0.2713732401918835
 40
0.3354180839163126
 40
0.3980763446528611
 40
0.4606079146322842
 40
0.5229695111172337
 40
0.5847157240924588
 40
0.6448949403163619
 40
0.7042905608207902
 40
0.7629981899193224
 40
0.8210874309038771
 40
0.8801038914767008
 40
0.9393884881896685
 40
1.0
 40
1.0
 40
1.0
 40
1.0
 10
3.952630846413299
 20
7.828693751110054
 30
0.0
 10
3.952133754122496
 20
7.828705337423102
 30
0.0
 10
3.951158460826089
 20
7.828728069727859
 30
0.0
 10
3.949721356801969
 20
7.828858329245713
 30
0.0
 10
3.948343661407385
 20
7.829103684038675
 30
0.0
 10
3.947010823908355
 20
7.829416090490995
 30
0.0
 10
3.945740990216404
 20
7.829846960626943
 30
0.0
 10
3.944517147316874
 20
7.830350387023428
 30
0.0
 10
3.943360255885724
 20
7.83096866495881
 30
0.0
 10
3.942251547704629
 20
7.831656572110426
 30
0.0
 10
3.941220651562353
 20
7.832430572052903
 30
0.0
 10
3.940274314342846
 20
7.833274192398142
 30
0.0
 10
3.939410973706553
 20
7.834173919134392
 30
0.0
 10
3.938645181716524
 20
7.835139493358858
 30
0.0
 10
3.937964250702804
 20
7.836163405380127
 30
0.0
 10
3.937377671873405
 20
7.837248551780209
 30
0.0
 10
3.936874022255421
 20
7.838394512426523
 30
0.0
 10
3.936614078031368
 20
7.839191080137217
 30
0.0
 10
3.936482667491024
 20
7.839593771882589
 30
0.0
  0
SPLINE
  5
17B
330
1F
100
AcDbEntity
  8
0
  6
Continuous
 62
     7
370
    15
100
AcDbSpline
210
0.0
220
0.0
230
1.0
 70
     8
 71
     3
 72
    31
 73
    27
 74
     0
 42
0.00000001
 43
0.00000001
 12
1.0
 22
0.0
 32
0.0
 13
1.0
 23
0.0
 33
0.0
 40
0.0
 40
0.0
 40
0.0
 40
0.0
 40
0.0548580354451538
 40
0.107058791542641
 40
0.1569783545765235
 40
0.203992277182977
 40
0.2484915357868489
 40
0.2904833137405231
 40
0.3304890042981893
 40
0.3678859257629635
 40
0.4038581313538711
 40
0.4400093433074117
 40
0.4762950107796839
 40
0.5127922945733487
 40
0.550484824630372
 40
0.5883811157748436
 40
0.6276453271698538
 40
0.6679794644543811
 40
0.7084327575000837
 40
0.7486023022886336
 40
0.789087777195782
 40
0.8294612046317063
 40
0.8703710453051784
 40
0.9122142271494423
 40
0.9555465749316862
 40
1.0
 40
1.0
 40
1.0
 40
1.0
 10
3.968685862764869
 20
7.85048344125838
 30
0.0
 10
3.968682110918984
 20
7.849920954913316
 30
0.0
 10
3.968674788963626
 20
7.848823228611726
 30
0.0
 10
3.968611295040203
 20
7.847214665375754
 30
0.0
 10
3.968510057956333
 20
7.845688756864399
 30
0.0
 10
3.968367022547857
 20
7.844245297961642
 30
0.0
 10
3.968177496400185
 20
7.842889453907112
 30
0.0
 10
3.967966736340881
 20
7.841609340435195
 30
0.0
 10
3.967698332818569
 20
7.840414146460741
 30
0.0
 10
3.967384841836686
 20
7.839294552908058
 30
0.0
 10
3.967026465976776
 20
7.838228802429242
 30
0.0
 10
3.96656226731261
 20
7.837217337864846
 30
0.0
 10
3.966039258249161
 20
7.836229410369801
 30
0.0
 10
3.965418951842234
 20
7.835279962279856
 30
0.0
 10
3.964721920661358
 20
7.834364789753373
 30
0.0
 10
3.963932757411618
 20
7.833489442926956
 30
0.0
 10
3.963077562244497
 20
7.832639933611062
 30
0.0
 10
3.962142118582949
 20
7.831838052824728
 30
0.0
 10
3.961141846487933
 20
7.831102675063573
 30
0.0
 10
3.960079721406402
 20
7.830456042612045
 30
0.0
 10
3.958963902251813
 20
7.829909424098277
 30
0.0
 10
3.957797289506141
 20
7.829459476047945
 30
0.0
 10
3.956579385319836
 20
7.829121163775693
 30
0.0
 10
3.955310158982648
 20
7.828869065333931
 30
0.0
 10
3.953986721513306
 20
7.828725820134729
 30
0.0
 10
3.953086636323619
 20
7.82870453140824
 30
0.0
 10
3.952630846413299
 20
7.828693751110054
 30
0.0
  0
LINE
  5
17C
330
1F
100
AcDbEntity
  8
0
  6
Continuous
 62
     7
370
    15
100
AcDbLine
 10
3.9686858631
 20
7.8816928994
 30
0.0
 11
3.9686858631
 21
7.8504834412
 31
0.0
  0
LINE
  5
17D
330
1F
100
AcDbEntity
  8
0
  6
Continuous
 62
     7
370
    15
100
AcDbLine
 10
3.9640484359
 20
7.8816928994
 30
0.0
 11
3.9686858631
 21
7.8816928994
 31
0.0
  0
LINE
  5
17E
330
1F
100
AcDbEntity
  8
0
  6
Continuous
 62
     7
370
    15
100
AcDbLine
 10
3.9640484359
 20
7.8507318733
 30
0.0
 11
3.9640484359
 21
7.8816928994
 31
0.0
  0
SPLINE
  5
17F
330
1F
100
AcDbEntity
  8
0
  6
Continuous
 62
     7
370
    15
100
AcDbSpline
210
0.0
220
0.0
230
1.0
 70
     8
 71
     3
 72
    15
 73
    11
 74
     0
 42
0.00000001
 43
0.00000001
 12
1.0
 22
0.0
 32
0.0
 13
1.0
 23
0.0
 33
0.0
 40
0.0
 40
0.0
 40
0.0
 40
0.0
 40
0.0698351039154357
 40
0.1556207549116641
 40
0.2578015566582753
 40
0.3738112340663711
 40
0.5064024926743705
 40
0.6555644581431037
 40
0.8200792824038533
 40
1.0
 40
1.0
 40
1.0
 40
1.0
 10
3.96352051578909
 20
7.842709542302849
 30
0.0
 10
3.963564809786853
 20
7.842891857263234
 30
0.0
 10
3.963663514664249
 20
7.843298128467487
 30
0.0
 10
3.963755746344405
 20
7.843984971094751
 30
0.0
 10
3.963851809006417
 20
7.844795360370425
 30
0.0
 10
3.96391846234048
 20
7.845735118872815
 30
0.0
 10
3.963983442175659
 20
7.84680109759188
 30
0.0
 10
3.964022316992237
 20
7.84799884965692
 30
0.0
 10
3.964040285326329
 20
7.849324025851386
 30
0.0
 10
3.964045639956963
 20
7.850248803995878
 30
0.0
 10
3.964048437023087
 20
7.850731874780261
 30
0.0
  0
SPLINE
  5
180
330
1F
100
AcDbEntity
  8
0
  6
Continuous
 62
     7
370
    15
100
AcDbSpline
210
0.0
220
0.0
230
1.0
 70
     8
 71
     3
 72
    19
 73
    15
 74
     0
 42
0.00000001
 43
0.00000001
 12
1.0
 22
0.0
 32
0.0
 13
1.0
 23
0.0
 33
0.0
 40
0.0
 40
0.0
 40
0.0
 40
0.0
 40
0.082890647556869
 40
0.1653025405594704
 40
0.2477618761145889
 40
0.3315277110598006
 40
0.4152798127751556
 40
0.496366230484051
 40
0.5771513480211469
 40
0.6577825401388812
 40
0.7393216419943462
 40
0.8237930816663166
 40
0.9094759533791145
 40
1.0
 40
1.0
 40
1.0
 40
1.0
 10
3.952372061494672
 20
7.833993666243518
 30
0.0
 10
3.952793630325539
 20
7.834009520622017
 30
0.0
 10
3.953634333116709
 20
7.834041137808301
 30
0.0
 10
3.954883466630527
 20
7.834236930229813
 30
0.0
 10
3.956100025896995
 20
7.834589799359829
 30
0.0
 10
3.95729001830879
 20
7.835045119073534
 30
0.0
 10
3.958405456767452
 20
7.835646718517334
 30
0.0
 10
3.959446963623127
 20
7.836341674711913
 30
0.0
 10
3.96037656625222
 20
7.837156810807356
 30
0.0
 10
3.961224878964914
 20
7.838058899306278
 30
0.0
 10
3.961963597224583
 20
7.839076729911751
 30
0.0
 10
3.962603930897404
 20
7.840188140053144
 30
0.0
 10
3.963128437474131
 20
7.841409855490091
 30
0.0
 10
3.963387450939763
 20
7.842268450247224
 30
0.0
 10
3.96352051578909
 20
7.842709542302849
 30
0.0
  0
SPLINE
  5
181
330
1F
100
AcDbEntity
  8
0
  6
Continuous
 62
     7
370
    15
100
AcDbSpline
210
0.0
220
0.0
230
1.0
 70
     8
 71
     3
 72
    19
 73
    15
 74
     0
 42
0.00000001
 43
0.00000001
 12
1.0
 22
0.0
 32
0.0
 13
1.0
 23
0.0
 33
0.0
 40
0.0
 40
0.0
 40
0.0
 40
0.0
 40
0.0863150037405918
 40
0.1677664659179407
 40
0.2444326843848595
 40
0.3181346623514537
 40
0.3918841069799638
 40
0.4700680503917553
 40
0.5539041787139101
 40
0.6443394983098204
 40
0.7368746633345102
 40
0.8261683643076472
 40
0.9136785948895817
 40
1.0
 40
1.0
 40
1.0
 40
1.0
 10
3.940405846857397
 20
7.843858547341548
 30
0.0
 10
3.940482287114449
 20
7.84337359610807
 30
0.0
 10
3.940630860493625
 20
7.842431018907613
 30
0.0
 10
3.941009504879489
 20
7.841088844552639
 30
0.0
 10
3.941538316230086
 20
7.839879204463385
 30
0.0
 10
3.942164947405352
 20
7.838764352038673
 30
0.0
 10
3.942990739236828
 20
7.837775317824374
 30
0.0
 10
3.943979982734952
 20
7.836864203940148
 30
0.0
 10
3.945178495311638
 20
7.836067361555584
 30
0.0
 10
3.946511107343679
 20
7.835338743736845
 30
0.0
 10
3.947947431386548
 20
7.83475312650528
 30
0.0
 10
3.949415144223968
 20
7.834310302995474
 30
0.0
 10
3.950892183700371
 20
7.83404043241806
 30
0.0
 10
3.951881023103572
 20
7.834009183732323
 30
0.0
 10
3.952372061494672
 20
7.833993666243518
 30
0.0
  0
SPLINE
  5
182
330
1F
100
AcDbEntity
  8
0
  6
Continuous
 62
     7
370
    15
100
AcDbSpline
210
0.0
220
0.0
230
1.0
 70
     8
 71
     3
 72
    15
 73
    11
 74
     0
 42
0.00000001
 43
0.00000001
 12
1.0
 22
0.0
 32
0.0
 13
1.0
 23
0.0
 33
0.0
 40
0.0
 40
0.0
 40
0.0
 40
0.0
 40
0.1910785917157194
 40
0.362604556309971
 40
0.5160987502785588
 40
0.6500380260398402
 40
0.7659767209867906
 40
0.8623740257993889
 40
0.9408420582211753
 40
1.0
 40
1.0
 40
1.0
 40
1.0
 10
3.940198818922496
 20
7.850731874780261
 30
0.0
 10
3.940198128792178
 20
7.850293666934455
 30
0.0
 10
3.94019681915097
 20
7.84946209203078
 30
0.0
 10
3.940205567054978
 20
7.848278483289434
 30
0.0
 10
3.940230066052038
 20
7.847226213190235
 30
0.0
 10
3.940245511603333
 20
7.846301225606005
 30
0.0
 10
3.940279872470384
 20
7.845507765032985
 30
0.0
 10
3.94030789532839
 20
7.844841532721354
 30
0.0
 10
3.940343927827959
 20
7.844305683326998
 30
0.0
 10
3.940387232519329
 20
7.843992967090554
 30
0.0
 10
3.940405846857397
 20
7.843858547341548
 30
0.0
  0
LINE
  5
183
330
1F
100
AcDbEntity
  8
0
  6
Continuous
 62
     7
370
    15
100
AcDbLine
 10
3.9401988191
 20
7.8816928994
 30
0.0
 11
3.9401988191
 21
7.8507318733
 31
0.0
  0
LINE
  5
184
330
1F
100
AcDbEntity
  8
0
  6
Continuous
 62
     7
370
    15
100
AcDbLine
 10
3.9389950747
 20
7.8816928994
 30
0.0
 11
3.9401988191
 21
7.8816928994
 31
0.0
  0
LINE
  5
185
330
1F
100
AcDbEntity
  8
0
  6
Continuous
 62
     7
370
    15
100
AcDbLine
 10
3.9355613932
 20
7.8504834412
 30
0.0
 11
3.9355613932
 21
7.8811536856
 31
0.0
  0
LINE
  5
186
330
1F
100
AcDbEntity
  8
0
  6
Continuous
 62
     7
370
    15
100
AcDbLine
 10
3.9169248153
 20
7.6737687272
 30
0.0
 11
3.9122873903
 21
7.6737687272
 31
0.0
  0
LINE
  5
187
330
1F
100
AcDbEntity
  8
0
  6
Continuous
 62
     7
370
    15
100
AcDbLine
 10
3.9169248153
 20
7.7254429036
 30
0.0
 11
3.9169248153
 21
7.6737687272
 31
0.0
  0
LINE
  5
188
330
1F
100
AcDbEntity
  8
0
  6
Continuous
 62
     7
370
    15
100
AcDbLine
 10
3.9122873903
 20
7.7254429036
 30
0.0
 11
3.9169248153
 21
7.7254429036
 31
0.0
  0
LINE
  5
189
330
1F
100
AcDbEntity
  8
0
  6
Continuous
 62
     7
370
    15
100
AcDbLine
 10
3.9122873903
 20
7.6737687272
 30
0.0
 11
3.9122873903
 21
7.7254429036
 31
0.0
  0
LINE
  5
18A
330
1F
100
AcDbEntity
  8
0
  6
Continuous
 62
     7
370
    15
100
AcDbLine
 10
3.7116624886
 20
8.1001437117
 30
0.0
 11
4.1621625043
 21
8.1001437117
 31
0.0
  0
LINE
  5
18B
330
1F
100
AcDbEntity
  8
0
  6
Continuous
 62
     7
370
    15
100
AcDbLine
 10
3.7116624886
 20
8.0688937327
 30
0.0
 11
3.7116624886
 21
8.1001437117
 31
0.0
  0
LINE
  5
18C
330
1F
100
AcDbEntity
  8
0
  6
Continuous
 62
     7
370
    15
100
AcDbLine
 10
4.1621625043
 20
8.1001437117
 30
0.0
 11
4.1621625043
 21
8.0688937327
 31
0.0
  0
LINE
  5
18D
330
1F
100
AcDbEntity
  8
0
  6
Continuous
 62
     7
370
    15
100
AcDbLine
 10
3.7045887636
 20
8.0623312268
 30
0.0
 11
3.7045887636
 21
7.488456233
 31
0.0
  0
LINE
  5
18E
330
1F
100
AcDbEntity
  8
0
  6
Continuous
 62
     7
370
    15
100
AcDbLine
 10
4.1692362293
 20
8.0623312268
 30
0.0
 11
4.1692362293
 21
7.488456233
 31
0.0
  0
ARC
  5
18F
330
1F
100
AcDbEntity
  8
0
  6
Continuous
 62
     7
370
    15
100
AcDbCircle
 10
4.2673264311
 20
7.551039934
 30
0.0
 40
0.0250000000000001
100
AcDbArc
 50
317.2596217745
 51
137.2596217745
  0
LINE
  5
190
330
1F
100
AcDbEntity
  8
0
  6
Continuous
 62
     7
370
    15
100
AcDbLine
 10
4.1914036132
 20
7.432043073
 30
0.0
 11
4.2856873374
 21
7.5340729993
 31
0.0
  0
ARC
  5
191
330
1F
100
AcDbEntity
  8
0
  6
Continuous
 62
     7
370
    15
100
AcDbCircle
 10
4.1292768776
 20
7.4894530926
 30
0.0
 40
0.0845910310529063
100
AcDbArc
 50
292.235614603
 51
317.2596217745
  0
ARC
  5
192
330
1F
100
AcDbEntity
  8
0
  6
Continuous
 62
     7
370
    15
100
AcDbCircle
 10
4.1523497943
 20
7.4887783403
 30
0.0
 40
0.0234375000000004
100
AcDbArc
 50
292.4168315276
 51
0.0930498406
  0
LINE
  5
193
330
1F
100
AcDbEntity
  8
0
  6
Continuous
 62
     7
370
    15
100
AcDbLine
 10
4.2489655082
 20
7.568006874
 30
0.0
 11
4.1757872586
 21
7.4888164055
 31
0.0
  0
CIRCLE
  5
194
330
1F
100
AcDbEntity
  8
0
  6
Continuous
 62
     7
370
    15
100
AcDbCircle
 10
4.2673264311
 20
7.551039934
 30
0.0
 40
0.0120625000000006
  0
ARC
  5
195
330
1F
100
AcDbEntity
  8
0
  6
Continuous
 62
     8
370
    15
100
AcDbCircle
 10
4.4683926425
 20
7.6303987938
 30
0.0
 40
0.0149893972011914
100
AcDbArc
 50
182.0116510005
 51
272.465713047
  0
ARC
  5
196
330
1F
100
AcDbEntity
  8
0
  6
Continuous
 62
     8
370
    15
100
AcDbCircle
 10
4.4696823417
 20
7.630398793
 30
0.0
 40
0.0149893949296645
100
AcDbArc
 50
267.534418273
 51
357.9883517217
  0
ARC
  5
197
330
1F
100
AcDbEntity
  8
0
  6
Continuous
 62
     8
370
    15
100
AcDbCircle
 10
3.4062184822
 20
8.0161667762
 30
0.0
 40
0.0142544042353017
100
AcDbArc
 50
5.2753469444
 51
95.7616245731
  0
ARC
  5
198
330
1F
100
AcDbEntity
  8
0
  6
Continuous
 62
     8
370
    15
100
AcDbCircle
 10
3.4033565167
 20
8.0161667782
 30
0.0
 40
0.0142543990933046
100
AcDbArc
 50
84.238501344
 51
174.7246591042
  0
LINE
  5
199
330
1F
100
AcDbEntity
  8
0
  6
Continuous
 62
     8
370
    15
100
AcDbLine
 10
3.5922875042
 20
8.1366405201
 30
0.0
 11
3.5922875042
 21
8.1191437189
 31
0.0
  0
LINE
  5
19A
330
1F
100
AcDbEntity
  8
0
  6
Continuous
 62
     8
370
    15
100
AcDbLine
 10
3.5922875042
 20
8.1393937149
 30
0.0
 11
3.5922875042
 21
8.1366405201
 31
0.0
  0
LINE
  5
19B
330
1F
100
AcDbEntity
  8
0
  6
Continuous
 62
     8
370
    15
100
AcDbLine
 10
3.3682874853
 20
7.6294976211
 30
0.0
 11
3.3682874853
 21
7.612007319
 31
0.0
  0
LINE
  5
19C
330
1F
100
AcDbEntity
  8
0
  6
Continuous
 62
     8
370
    15
100
AcDbLine
 10
4.4924124959
 20
7.7822193223
 30
0.0
 11
4.4924124959
 21
7.7967763004
 31
0.0
  0
LINE
  5
19D
330
1F
100
AcDbEntity
  8
0
  6
Continuous
 62
     8
370
    15
100
AcDbLine
 10
3.381412497
 20
7.7645120827
 30
0.0
 11
3.381412497
 21
7.7543339346
 31
0.0
  0
LINE
  5
19E
330
1F
100
AcDbEntity
  8
0
  6
Continuous
 62
     8
370
    15
100
AcDbLine
 10
3.6850374978
 20
7.7753937299
 30
0.0
 11
3.6850374978
 21
8.1191437189
 31
0.0
  0
LINE
  5
19F
330
1F
100
AcDbEntity
  8
0
  6
Continuous
 62
     8
370
    15
100
AcDbLine
 10
3.6850374978
 20
7.4316437409
 30
0.0
 11
3.6850374978
 21
7.7753937299
 31
0.0
  0
LINE
  5
1A0
330
1F
100
AcDbEntity
  8
0
  6
Continuous
 62
     8
370
    15
100
AcDbLine
 10
4.1887874951
 20
7.7753937299
 30
0.0
 11
4.1887874951
 21
7.5028847113
 31
0.0
  0
LINE
  5
1A1
330
1F
100
AcDbEntity
  8
0
  6
Continuous
 62
     8
370
    15
100
AcDbLine
 10
4.1887874951
 20
8.1191437189
 30
0.0
 11
4.1887874951
 21
7.7753937299
 31
0.0
  0
ENDSEC
  0
SECTION
  2
OBJECTS
  0
DICTIONARY
  5
C
330
0
100
AcDbDictionary
281
     1
  3
ACAD_GROUP
350
D
  3
ACAD_LAYOUT
350
1A
  3
ACAD_MLINESTYLE
350
17
  3
ACAD_PLOTSETTINGS
350
19
  3
ACAD_PLOTSTYLENAME
350
E
  0
DICTIONARY
  5
D
102
{ACAD_REACTORS
330
C
102
}
330
C
100
AcDbDictionary
281
     1
  0
DICTIONARY
  5
1A
102
{ACAD_REACTORS
330
C
102
}
330
C
100
AcDbDictionary
281
     1
  3
Layout1
350
1E
  3
Layout2
350
26
  3
Model
350
22
  0
DICTIONARY
  5
17
102
{ACAD_REACTORS
330
C
102
}
330
C
100
AcDbDictionary
281
     1
  3
Standard
350
18
  0
DICTIONARY
  5
19
102
{ACAD_REACTORS
330
C
102
}
330
C
100
AcDbDictionary
281
     1
  0
ACDBDICTIONARYWDFLT
  5
E
102
{ACAD_REACTORS
330
C
102
}
330
C
100
AcDbDictionary
281
     1
  3
Normal
350
F
100
AcDbDictionaryWithDefault
340
F
  0
LAYOUT
  5
1E
102
{ACAD_REACTORS
330
1A
102
}
330
1A
100
AcDbPlotSettings
  1

  2
none_device
  4

  6

 40
0.0
 41
0.0
 42
0.0
 43
0.0
 44
0.0
 45
0.0
 46
0.0
 47
0.0
 48
0.0
 49
0.0
140
0.0
141
0.0
142
1.0
143
1.0
 70
   688
 72
     0
 73
     0
 74
     5
  7

 75
    16
147
1.0
148
0.0
149
0.0
100
AcDbLayout
  1
Layout1
 70
     1
 71
     1
 10
0.0
 20
0.0
 11
12.0
 21
9.0
 12
0.0
 22
0.0
 32
0.0
 14
1.0000000000E+20
 24
1.0000000000E+20
 34
1.0000000000E+20
 15
-1.0000000000E+20
 25
-1.0000000000E+20
 35
-1.0000000000E+20
146
0.0
 13
0.0
 23
0.0
 33
0.0
 16
1.0
 26
0.0
 36
0.0
 17
0.0
 27
1.0
 37
0.0
 76
     0
330
1B
  0
LAYOUT
  5
26
102
{ACAD_REACTORS
330
1A
102
}
330
1A
100
AcDbPlotSettings
  1

  2
none_device
  4

  6

 40
0.0
 41
0.0
 42
0.0
 43
0.0
 44
0.0
 45
0.0
 46
0.0
 47
0.0
 48
0.0
 49
0.0
140
0.0
141
0.0
142
1.0
143
1.0
 70
   688
 72
     0
 73
     0
 74
     5
  7

 75
    16
147
1.0
148
0.0
149
0.0
100
AcDbLayout
  1
Layout2
 70
     1
 71
     2
 10
0.0
 20
0.0
 11
0.0
 21
0.0
 12
0.0
 22
0.0
 32
0.0
 14
0.0
 24
0.0
 34
0.0
 15
0.0
 25
0.0
 35
0.0
146
0.0
 13
0.0
 23
0.0
 33
0.0
 16
1.0
 26
0.0
 36
0.0
 17
0.0
 27
1.0
 37
0.0
 76
     0
330
23
  0
LAYOUT
  5
22
102
{ACAD_REACTORS
330
1A
102
}
330
1A
100
AcDbPlotSettings
  1

  2
none_device
  4

  6

 40
0.0
 41
0.0
 42
0.0
 43
0.0
 44
0.0
 45
0.0
 46
0.0
 47
0.0
 48
0.0
 49
0.0
140
0.0
141
0.0
142
1.0
143
1.0
 70
  1712
 72
     0
 73
     0
 74
     0
  7

 75
     0
147
1.0
148
0.0
149
0.0
100
AcDbLayout
  1
Model
 70
     1
 71
     0
 10
0.0
 20
0.0
 11
8.5
 21
11.0
 12
0.0
 22
0.0
 32
0.0
 14
0.0
 24
0.0
 34
0.0
 15
8.5
 25
11.0
 35
0.0
146
0.0
 13
0.0
 23
0.0
 33
0.0
 16
1.0
 26
0.0
 36
0.0
 17
0.0
 27
1.0
 37
0.0
 76
     0
330
1F
331
29
  0
MLINESTYLE
  5
18
102
{ACAD_REACTORS
330
17
102
}
330
17
100
AcDbMlineStyle
  2
Standard
 70
     0
  3

 62
   256
 51
90.0
 52
90.0
 71
     2
 49
0.5
 62
   256
  6
BYLAYER
 49
-0.5
 62
   256
  6
BYLAYER
  0
ACDBPLACEHOLDER
  5
F
102
{ACAD_REACTORS
330
E
102
}
330
E
  0
ENDSEC
  0
EOF
