  0
SECTION
  2
HEADER
  9
$ACADVER
  1
AC1015
  9
$ACADMAINTVER
 70
     6
  9
$DWGCODEPAGE
  3
ANSI_1252
  9
$INSBASE
 10
0.0
 20
0.0
 30
0.0
  9
$EXTMIN
 10
0.0
 20
0.0
 30
0.0
  9
$EXTMAX
 10
8.5
 20
11.0
 30
0.0
  9
$LIMMIN
 10
0.0
 20
0.0
  9
$LIMMAX
 10
8.5
 20
11.0
  9
$ORTHOMODE
 70
     0
  9
$REGENMODE
 70
     1
  9
$FILLMODE
 70
     1
  9
$QTEXTMODE
 70
     0
  9
$MIRRTEXT
 70
     1
  9
$LTSCALE
 40
1.0
  9
$ATTMODE
 70
     1
  9
$TEXTSIZE
 40
0.125
  9
$TRACEWID
 40
0.05
  9
$TEXTSTYLE
  7
Standard
  9
$CLAYER
  8
0
  9
$CELTYPE
  6
ByLayer
  9
$CECOLOR
 62
   256
  9
$CELTSCALE
 40
1.0
  9
$DISPSILH
 70
     0
  9
$DIMSCALE
 40
1.0
  9
$DIMASZ
 40
0.13
  9
$DIMEXO
 40
0.05
  9
$DIMDLI
 40
0.38
  9
$DIMRND
 40
0.0
  9
$DIMDLE
 40
0.0
  9
$DIMEXE
 40
0.125
  9
$DIMTP
 40
0.0
  9
$DIMTM
 40
0.0
  9
$DIMTXT
 40
0.1527777778
  9
$DIMCEN
 40
0.09
  9
$DIMTSZ
 40
0.0
  9
$DIMTOL
 70
     0
  9
$DIMLIM
 70
     0
  9
$DIMTIH
 70
     1
  9
$DIMTOH
 70
     1
  9
$DIMSE1
 70
     0
  9
$DIMSE2
 70
     0
  9
$DIMTAD
 70
     1
  9
$DIMZIN
 70
     0
  9
$DIMBLK
  1

  9
$DIMASO
 70
     1
  9
$DIMSHO
 70
     1
  9
$DIMPOST
  1

  9
$DIMAPOST
  1

  9
$DIMALT
 70
     0
  9
$DIMALTD
 70
     2
  9
$DIMALTF
 40
25.4
  9
$DIMLFAC
 40
8.0
  9
$DIMTOFL
 70
     0
  9
$DIMTVP
 40
0.0
  9
$DIMTIX
 70
     0
  9
$DIMSOXD
 70
     0
  9
$DIMSAH
 70
     0
  9
$DIMBLK1
  1

  9
$DIMBLK2
  1

  9
$DIMSTYLE
  2
Standard
  9
$DIMCLRD
 70
     0
  9
$DIMCLRE
 70
     0
  9
$DIMCLRT
 70
     0
  9
$DIMTFAC
 40
1.0
  9
$DIMGAP
 40
0.06
  9
$DIMJUST
 70
     0
  9
$DIMSD1
 70
     0
  9
$DIMSD2
 70
     0
  9
$DIMTOLJ
 70
     1
  9
$DIMTZIN
 70
     0
  9
$DIMALTZ
 70
     0
  9
$DIMALTTZ
 70
     0
  9
$DIMUPT
 70
     0
  9
$DIMDEC
 70
     2
  9
$DIMTDEC
 70
     2
  9
$DIMALTU
 70
     2
  9
$DIMALTTD
 70
     2
  9
$DIMTXSTY
  7
Standard
  9
$DIMAUNIT
 70
     0
  9
$DIMADEC
 70
     2
  9
$DIMALTRND
 40
0.0
  9
$DIMAZIN
 70
     0
  9
$DIMDSEP
 70
    46
  9
$DIMATFIT
 70
     3
  9
$DIMFRAC
 70
     0
  9
$DIMLDRBLK
  1

  9
$DIMLUNIT
 70
     2
  9
$DIMLWD
 70
    -2
  9
$DIMLWE
 70
    -2
  9
$DIMTMOVE
 70
     0
  9
$LUNITS
 70
     2
  9
$LUPREC
 70
     3
  9
$SKETCHINC
 40
0.1
  9
$FILLETRAD
 40
0.5
  9
$AUNITS
 70
     0
  9
$AUPREC
 70
     2
  9
$MENU
  1
.
  9
$ELEVATION
 40
0.0
  9
$PELEVATION
 40
0.0
  9
$THICKNESS
 40
0.0
  9
$LIMCHECK
 70
     0
  9
$CHAMFERA
 40
0.5
  9
$CHAMFERB
 40
0.5
  9
$CHAMFERC
 40
1.0
  9
$CHAMFERD
 40
0.0
  9
$SKPOLY
 70
     0
  9
$TDCREATE
 40
2456051.432835602
  9
$TDUCREATE
 40
2456051.682835602
  9
$TDUPDATE
 40
2456051.432836019
  9
$TDUUPDATE
 40
2456051.682836019
  9
$TDINDWG
 40
0.0000000116
  9
$TDUSRTIMER
 40
0.0000000116
  9
$USRTIMER
 70
     1
  9
$ANGBASE
 50
0.0
  9
$ANGDIR
 70
     0
  9
$PDMODE
 70
     0
  9
$PDSIZE
 40
-1.0
  9
$PLINEWID
 40
0.0
  9
$SPLFRAME
 70
     0
  9
$SPLINETYPE
 70
     6
  9
$SPLINESEGS
 70
     8
  9
$HANDSEED
  5
1FE
  9
$SURFTAB1
 70
     6
  9
$SURFTAB2
 70
     6
  9
$SURFTYPE
 70
     6
  9
$SURFU
 70
     6
  9
$SURFV
 70
     6
  9
$UCSBASE
  2

  9
$UCSNAME
  2

  9
$UCSORG
 10
0.0
 20
0.0
 30
0.0
  9
$UCSXDIR
 10
1.0
 20
0.0
 30
0.0
  9
$UCSYDIR
 10
0.0
 20
1.0
 30
0.0
  9
$UCSORTHOREF
  2

  9
$UCSORTHOVIEW
 70
     0
  9
$UCSORGTOP
 10
0.0
 20
0.0
 30
0.0
  9
$UCSORGBOTTOM
 10
0.0
 20
0.0
 30
0.0
  9
$UCSORGLEFT
 10
0.0
 20
0.0
 30
0.0
  9
$UCSORGRIGHT
 10
0.0
 20
0.0
 30
0.0
  9
$UCSORGFRONT
 10
0.0
 20
0.0
 30
0.0
  9
$UCSORGBACK
 10
0.0
 20
0.0
 30
0.0
  9
$PUCSBASE
  2

  9
$PUCSNAME
  2

  9
$PUCSORG
 10
0.0
 20
0.0
 30
0.0
  9
$PUCSXDIR
 10
1.0
 20
0.0
 30
0.0
  9
$PUCSYDIR
 10
0.0
 20
1.0
 30
0.0
  9
$PUCSORTHOREF
  2

  9
$PUCSORTHOVIEW
 70
     0
  9
$PUCSORGTOP
 10
0.0
 20
0.0
 30
0.0
  9
$PUCSORGBOTTOM
 10
0.0
 20
0.0
 30
0.0
  9
$PUCSORGLEFT
 10
0.0
 20
0.0
 30
0.0
  9
$PUCSORGRIGHT
 10
0.0
 20
0.0
 30
0.0
  9
$PUCSORGFRONT
 10
0.0
 20
0.0
 30
0.0
  9
$PUCSORGBACK
 10
0.0
 20
0.0
 30
0.0
  9
$USERI1
 70
     0
  9
$USERI2
 70
     0
  9
$USERI3
 70
     0
  9
$USERI4
 70
     0
  9
$USERI5
 70
     0
  9
$USERR1
 40
0.0
  9
$USERR2
 40
0.0
  9
$USERR3
 40
0.0
  9
$USERR4
 40
0.0
  9
$USERR5
 40
0.0
  9
$WORLDVIEW
 70
     1
  9
$SHADEDGE
 70
     3
  9
$SHADEDIF
 70
    70
  9
$TILEMODE
 70
     1
  9
$MAXACTVP
 70
    64
  9
$PINSBASE
 10
0.0
 20
0.0
 30
0.0
  9
$PLIMCHECK
 70
     0
  9
$PEXTMIN
 10
1.0000000000E+20
 20
1.0000000000E+20
 30
1.0000000000E+20
  9
$PEXTMAX
 10
-1.0000000000E+20
 20
-1.0000000000E+20
 30
-1.0000000000E+20
  9
$PLIMMIN
 10
0.0
 20
0.0
  9
$PLIMMAX
 10
12.0
 20
9.0
  9
$UNITMODE
 70
     0
  9
$VISRETAIN
 70
     1
  9
$PLINEGEN
 70
     0
  9
$PSLTSCALE
 70
     1
  9
$TREEDEPTH
 70
  3020
  9
$CMLSTYLE
  2
Standard
  9
$CMLJUST
 70
     0
  9
$CMLSCALE
 40
1.0
  9
$PROXYGRAPHICS
 70
     1
  9
$MEASUREMENT
 70
     0
  9
$CELWEIGHT
370
    -1
  9
$ENDCAPS
280
     0
  9
$JOINSTYLE
280
     0
  9
$LWDISPLAY
290
     1
  9
$INSUNITS
 70
     1
  9
$HYPERLINKBASE
  1

  9
$STYLESHEET
  1

  9
$XEDIT
290
     1
  9
$CEPSNTYPE
380
     0
  9
$PSTYLEMODE
290
     1
  9
$FINGERPRINTGUID
  2
{0B9195AC-5799-4749-B714-4A65E7322686}
  9
$VERSIONGUID
  2
{FAEB1C32-E019-11D5-929B-00C0DF256EC4}
  9
$EXTNAMES
290
     1
  9
$PSVPSCALE
 40
0.0
  9
$OLESTARTUP
290
     0
  0
ENDSEC
  0
SECTION
  2
CLASSES
  0
CLASS
  1
ACDBDICTIONARYWDFLT
  2
AcDbDictionaryWithDefault
  3
ObjectDBX Classes
 90
        0
280
     0
281
     0
  0
CLASS
  1
VISUALSTYLE
  2
AcDbVisualStyle
  3
ObjectDBX Classes
 90
     4095
280
     0
281
     0
  0
CLASS
  1
MATERIAL
  2
AcDbMaterial
  3
ObjectDBX Classes
 90
     1153
280
     0
281
     0
  0
CLASS
  1
ACDBPLACEHOLDER
  2
AcDbPlaceHolder
  3
ObjectDBX Classes
 90
        0
280
     0
281
     0
  0
CLASS
  1
LAYOUT
  2
AcDbLayout
  3
ObjectDBX Classes
 90
        0
280
     0
281
     0
  0
ENDSEC
  0
SECTION
  2
TABLES
  0
TABLE
  2
VPORT
  5
8
330
0
100
AcDbSymbolTable
 70
     1
  0
VPORT
  5
29
330
8
100
AcDbSymbolTableRecord
100
AcDbViewportTableRecord
  2
*Active
 70
     0
 10
0.0
 20
0.0
 11
1.0
 21
1.0
 12
4.25
 22
5.5
 13
0.0
 23
0.0
 14
0.5
 24
0.5
 15
0.5
 25
0.5
 16
0.0
 26
0.0
 36
1.0
 17
0.0
 27
0.0
 37
0.0
 40
11.0
 41
0.7727272727
 42
50.0
 43
0.0
 44
0.0
 50
0.0
 51
0.0
 71
     0
 72
  2000
 73
     1
 74
     3
 75
     0
 76
     0
 77
     0
 78
     0
281
     0
 65
     1
110
0.0
120
0.0
130
0.0
111
1.0
121
0.0
131
0.0
112
0.0
122
1.0
132
0.0
 79
     0
146
0.0
  0
ENDTAB
  0
TABLE
  2
LTYPE
  5
5
330
0
100
AcDbSymbolTable
 70
     6
  0
LTYPE
  5
14
330
5
100
AcDbSymbolTableRecord
100
AcDbLinetypeTableRecord
  2
ByBlock
 70
     0
  3

 72
    65
 73
     0
 40
0.0
  0
LTYPE
  5
15
330
5
100
AcDbSymbolTableRecord
100
AcDbLinetypeTableRecord
  2
ByLayer
 70
     0
  3

 72
    65
 73
     0
 40
0.0
  0
LTYPE
  5
16
330
5
100
AcDbSymbolTableRecord
100
AcDbLinetypeTableRecord
  2
Continuous
 70
     0
  3
Solid line
 72
    65
 73
     0
 40
0.0
  0
LTYPE
  5
3F
330
5
100
AcDbSymbolTableRecord
100
AcDbLinetypeTableRecord
  2
HIDDEN
 70
     0
  3
Hidden __ __ __ __ __ __ __ __ __ __ __ __ __ __
 72
    65
 73
     2
 40
0.075
 49
0.05
 74
     0
 49
-0.025
 74
     0
  0
LTYPE
  5
40
330
5
100
AcDbSymbolTableRecord
100
AcDbLinetypeTableRecord
  2
PHANTOM
 70
     0
  3
Phantom ______  __  __  ______  __  __  ______
 72
    65
 73
     6
 40
0.5
 49
0.25
 74
     0
 49
-0.05
 74
     0
 49
0.05
 74
     0
 49
-0.05
 74
     0
 49
0.05
 74
     0
 49
-0.05
 74
     0
  0
LTYPE
  5
41
330
5
100
AcDbSymbolTableRecord
100
AcDbLinetypeTableRecord
  2
CENTER
 70
     0
  3
Center ____ _ ____ _ ____ _ ____ _ ____ _ ____
 72
    65
 73
     4
 40
0.4
 49
0.25
 74
     0
 49
-0.05
 74
     0
 49
0.05
 74
     0
 49
-0.05
 74
     0
  0
LTYPE
  5
42
330
5
100
AcDbSymbolTableRecord
100
AcDbLinetypeTableRecord
  2
CENTERX2
 70
     0
  3
Center (2x) ________  __  ________  __  _____
 72
    65
 73
     4
 40
0.8
 49
0.5
 74
     0
 49
-0.1
 74
     0
 49
0.1
 74
     0
 49
-0.1
 74
     0
  0
LTYPE
  5
43
330
5
100
AcDbSymbolTableRecord
100
AcDbLinetypeTableRecord
  2
DOT2
 70
     0
  3
Dot (.5x) ........................................
 72
    65
 73
     2
 40
0.025
 49
0.0
 74
     0
 49
-0.025
 74
     0
  0
ENDTAB
  0
TABLE
  2
LAYER
  5
2
330
0
100
AcDbSymbolTable
 70
     1
  0
LAYER
  5
10
330
2
100
AcDbSymbolTableRecord
100
AcDbLayerTableRecord
  2
0
 70
     0
 62
     7
  6
Continuous
370
    -3
390
F
  0
ENDTAB
  0
TABLE
  2
STYLE
  5
3
330
0
100
AcDbSymbolTable
 70
     1
  0
STYLE
  5
11
330
3
100
AcDbSymbolTableRecord
100
AcDbTextStyleTableRecord
  2
Standard
 70
     0
 40
0.0
 41
1.0
 50
0.0
 71
     0
 42
0.125
  3
txt
  4

  0
ENDTAB
  0
TABLE
  2
VIEW
  5
6
330
0
100
AcDbSymbolTable
 70
     0
  0
ENDTAB
  0
TABLE
  2
UCS
  5
7
330
0
100
AcDbSymbolTable
 70
     0
  0
ENDTAB
  0
TABLE
  2
APPID
  5
9
330
0
100
AcDbSymbolTable
 70
     1
  0
APPID
  5
12
330
9
100
AcDbSymbolTableRecord
100
AcDbRegAppTableRecord
  2
ACAD
 70
     0
  0
ENDTAB
  0
TABLE
  2
DIMSTYLE
  5
A
330
0
100
AcDbSymbolTable
 70
     1
100
AcDbDimStyleTable
  0
DIMSTYLE
105
27
330
A
100
AcDbSymbolTableRecord
100
AcDbDimStyleTableRecord
  2
Standard
 70
     0
178
     0
340
11
  0
ENDTAB
  0
TABLE
  2
BLOCK_RECORD
  5
1
330
0
100
AcDbSymbolTable
 70
     1
  0
BLOCK_RECORD
  5
1F
330
1
100
AcDbSymbolTableRecord
100
AcDbBlockTableRecord
  2
*Model_Space
340
22
  0
BLOCK_RECORD
  5
1B
330
1
100
AcDbSymbolTableRecord
100
AcDbBlockTableRecord
  2
*Paper_Space
340
1E
  0
BLOCK_RECORD
  5
23
330
1
100
AcDbSymbolTableRecord
100
AcDbBlockTableRecord
  2
*Paper_Space0
340
26
  0
ENDTAB
  0
ENDSEC
  0
SECTION
  2
BLOCKS
  0
BLOCK
  5
20
330
1F
100
AcDbEntity
  8
0
100
AcDbBlockBegin
  2
*Model_Space
 70
     0
 10
0.0
 20
0.0
 30
0.0
  3
*Model_Space
  1

  0
ENDBLK
  5
21
330
1F
100
AcDbEntity
  8
0
100
AcDbBlockEnd
  0
BLOCK
  5
1C
330
1B
100
AcDbEntity
 67
     1
  8
0
100
AcDbBlockBegin
  2
*Paper_Space
 70
     0
 10
0.0
 20
0.0
 30
0.0
  3
*Paper_Space
  1

  0
ENDBLK
  5
1D
330
1B
100
AcDbEntity
 67
     1
  8
0
100
AcDbBlockEnd
  0
BLOCK
  5
24
330
23
100
AcDbEntity
  8
0
100
AcDbBlockBegin
  2
*Paper_Space0
 70
     0
 10
0.0
 20
0.0
 30
0.0
  3
*Paper_Space0
  1

  0
ENDBLK
  5
25
330
23
100
AcDbEntity
  8
0
100
AcDbBlockEnd
  0
ENDSEC
  0
SECTION
  2
ENTITIES
  0
LINE
  5
44
330
1F
100
AcDbEntity
  8
0
  6
Continuous
 62
     7
370
    15
100
AcDbLine
 10
3.8063586803
 20
7.9994259438
 30
0.0
 11
3.7063586705
 21
7.9994259438
 31
0.0
  0
LINE
  5
45
330
1F
100
AcDbEntity
  8
0
  6
Continuous
 62
     7
370
    15
100
AcDbLine
 10
3.7759836678
 20
7.9081759296
 30
0.0
 11
3.7869836691
 21
7.9081759296
 31
0.0
  0
LINE
  5
46
330
1F
100
AcDbEntity
  8
0
  6
Continuous
 62
     7
370
    15
100
AcDbLine
 10
3.8196763914
 20
7.9928634196
 30
0.0
 11
3.8063586803
 21
7.9928634196
 31
0.0
  0
LINE
  5
47
330
1F
100
AcDbEntity
  8
0
  6
Continuous
 62
     7
370
    15
100
AcDbLine
 10
3.8226086825
 20
7.9877845583
 30
0.0
 11
3.8196763914
 21
7.9928634196
 31
0.0
  0
LINE
  5
48
330
1F
100
AcDbEntity
  8
0
  6
Continuous
 62
     7
370
    15
100
AcDbLine
 10
3.4857336691
 20
7.8203604241
 30
0.0
 11
3.4857336691
 21
7.8450979283
 31
0.0
  0
LINE
  5
49
330
1F
100
AcDbEntity
  8
0
  6
Continuous
 62
     7
370
    15
100
AcDbLine
 10
3.4544836902
 20
7.8450979283
 30
0.0
 11
3.4544836902
 21
7.8148202831
 31
0.0
  0
SPLINE
  5
4A
330
1F
100
AcDbEntity
  8
0
  6
Continuous
 62
     7
370
    15
100
AcDbSpline
210
0.0
220
0.0
230
1.0
 70
     8
 71
     3
 72
    17
 73
    13
 74
     0
 42
0.00000001
 43
0.00000001
 12
1.0
 22
0.0
 32
0.0
 13
1.0
 23
0.0
 33
0.0
 40
0.0
 40
0.0
 40
0.0
 40
0.0
 40
0.0534078056395744
 40
0.1703930071312263
 40
0.2858459758204082
 40
0.3981280789754236
 40
0.5073352342571068
 40
0.6142829598093749
 40
0.7198030431562555
 40
0.824527250454909
 40
0.9288820913122083
 40
1.0
 40
1.0
 40
1.0
 40
1.0
 10
3.485733669148962
 20
7.845097928298324
 30
0.0
 10
3.485759042556869
 20
7.846245198204937
 30
0.0
 10
3.48583999423093
 20
7.849905464097494
 30
0.0
 10
3.486811615291149
 20
7.85606326578668
 30
0.0
 10
3.489139821862641
 20
7.863551112737332
 30
0.0
 10
3.492644131168126
 20
7.870921735642653
 30
0.0
 10
3.497246768220617
 20
7.878106348190708
 30
0.0
 10
3.502910756927177
 20
7.885069928199557
 30
0.0
 10
3.509592220454456
 20
7.891791404609461
 30
0.0
 10
3.517305828924188
 20
7.898217884103007
 30
0.0
 10
3.52495255138294
 20
7.903727422806658
 30
0.0
 10
3.530400612354792
 20
7.906908966425169
 30
0.0
 10
3.532608674311569
 20
7.90819842435601
 30
0.0
  0
SPLINE
  5
4B
330
1F
100
AcDbEntity
  8
0
  6
Continuous
 62
     7
370
    15
100
AcDbSpline
210
0.0
220
0.0
230
1.0
 70
     8
 71
     3
 72
    12
 73
     8
 74
     0
 42
0.00000001
 43
0.00000001
 12
1.0
 22
0.0
 32
0.0
 13
1.0
 23
0.0
 33
0.0
 40
0.0
 40
0.0
 40
0.0
 40
0.0
 40
0.1476760970044836
 40
0.4262215015916478
 40
0.7049031436372323
 40
0.9837494367357952
 40
1.0
 40
1.0
 40
1.0
 40
1.0
 10
3.657608663634359
 20
7.969425917050789
 30
0.0
 10
3.654850465546209
 20
7.969405209368177
 30
0.0
 10
3.646889777563084
 20
7.969345443029843
 30
0.0
 10
3.633743432073527
 20
7.968711295429014
 30
0.0
 10
3.618333997627469
 20
7.967201895668892
 30
0.0
 10
3.607816971979023
 20
7.965871630630724
 30
0.0
 10
3.602571013557531
 20
7.964856830729614
 30
0.0
 10
3.602282126104575
 20
7.964800947145503
 30
0.0
  0
SPLINE
  5
4C
330
1F
100
AcDbEntity
  8
0
  6
Continuous
 62
     7
370
    15
100
AcDbSpline
210
0.0
220
0.0
230
1.0
 70
     8
 71
     3
 72
    21
 73
    17
 74
     0
 42
0.00000001
 43
0.00000001
 12
1.0
 22
0.0
 32
0.0
 13
1.0
 23
0.0
 33
0.0
 40
0.0
 40
0.0
 40
0.0
 40
0.0
 40
0.0205687583241514
 40
0.0993699303979862
 40
0.1783120783184974
 40
0.2573808293105607
 40
0.3365356349879996
 40
0.4156684189797178
 40
0.4946289879499363
 40
0.5732191280159894
 40
0.6512029161133784
 40
0.7283498906792134
 40
0.8044995725834045
 40
0.879620495913529
 40
0.953840479413722
 40
1.0
 40
1.0
 40
1.0
 40
1.0
 10
3.549785819213059
 20
7.950728076383173
 30
0.0
 10
3.54860675450973
 20
7.950307776190061
 30
0.0
 10
3.542910563438877
 20
7.948277259798272
 30
0.0
 10
3.533329590314967
 20
7.944000345678104
 30
0.0
 10
3.521153859435309
 20
7.937900845806714
 30
0.0
 10
3.50981414879818
 20
7.931157375763608
 30
0.0
 10
3.499323627853792
 20
7.923861987937581
 30
0.0
 10
3.489775417974121
 20
7.916032030654229
 30
0.0
 10
3.481240520564391
 20
7.907715195726753
 30
0.0
 10
3.473791550806263
 20
7.898963557808448
 30
0.0
 10
3.467491347690659
 20
7.889842726214785
 30
0.0
 10
3.46239234684742
 20
7.880428702524913
 30
0.0
 10
3.458520603100307
 20
7.870804373941071
 30
0.0
 10
3.455913123331308
 20
7.861053228487509
 30
0.0
 10
3.454654657951038
 20
7.852457082936505
 30
0.0
 10
3.454531077192851
 20
7.847137660731526
 30
0.0
 10
3.454483690151386
 20
7.845097928298324
 30
0.0
  0
LINE
  5
4D
330
1F
100
AcDbEntity
  8
0
  6
Continuous
 62
     7
370
    15
100
AcDbLine
 10
3.7063586705
 20
7.9694259171
 30
0.0
 11
3.6576086636
 21
7.9694259171
 31
0.0
  0
SPLINE
  5
4E
330
1F
100
AcDbEntity
  8
0
  6
Continuous
 62
     7
370
    15
100
AcDbSpline
210
0.0
220
0.0
230
1.0
 70
     8
 71
     3
 72
    12
 73
     8
 74
     0
 42
0.00000001
 43
0.00000001
 12
1.0
 22
0.0
 32
0.0
 13
1.0
 23
0.0
 33
0.0
 40
0.0
 40
0.0
 40
0.0
 40
0.0
 40
0.1922341325187996
 40
0.4197454259880039
 40
0.6486884517864276
 40
0.8794192208630706
 40
0.9999999999999999
 40
0.9999999999999999
 40
0.9999999999999999
 40
0.9999999999999999
 10
4.525099232309284
 20
7.441621012631418
 30
0.0
 10
4.523555427508137
 20
7.440436666588322
 30
0.0
 10
4.520184512075955
 20
7.437850633463701
 30
0.0
 10
4.513685160281214
 20
7.43386858923071
 30
0.0
 10
4.505858943966472
 20
7.429784094886085
 30
0.0
 10
4.498559032894568
 20
7.426446278557298
 30
0.0
 10
4.493570794394178
 20
7.424586534146356
 30
0.0
 10
4.491858679640318
 20
7.423948213455769
 30
0.0
  0
SPLINE
  5
4F
330
1F
100
AcDbEntity
  8
0
  6
Continuous
 62
     7
370
    15
100
AcDbSpline
210
0.0
220
0.0
230
1.0
 70
     8
 71
     3
 72
    15
 73
    11
 74
     0
 42
0.00000001
 43
0.00000001
 12
1.0
 22
0.0
 32
0.0
 13
1.0
 23
0.0
 33
0.0
 40
0.0
 40
0.0
 40
0.0
 40
0.0
 40
0.109274545358389
 40
0.2411568169605854
 40
0.3738521931645404
 40
0.5074445420832265
 40
0.6418976097436186
 40
0.7768447136390593
 40
0.9109339142126832
 40
0.9999999999999999
 40
0.9999999999999999
 40
0.9999999999999999
 40
0.9999999999999999
 10
4.491858679640318
 20
7.390796851423132
 30
0.0
 10
4.495250236415491
 20
7.391931525493662
 30
0.0
 10
4.502735026526117
 20
7.394435625476318
 30
0.0
 10
4.513387006824118
 20
7.398814094247952
 30
0.0
 10
4.523946768919022
 20
7.403838055740302
 30
0.0
 10
4.533625408391133
 20
7.409316848214029
 30
0.0
 10
4.542399308329129
 20
7.415240601539649
 30
0.0
 10
4.550109583764995
 20
7.421643828581781
 30
0.0
 10
4.556151134582465
 20
7.427692583899927
 30
0.0
 10
4.559082741873267
 20
7.43184368916778
 30
0.0
 10
4.560252809545493
 20
7.433500484773782
 30
0.0
  0
LINE
  5
50
330
1F
100
AcDbEntity
  8
0
  6
Continuous
 62
     7
370
    15
100
AcDbLine
 10
4.4973650327
 20
7.7467757016
 30
0.0
 11
4.4932744733
 21
7.746786234
 31
0.0
  0
LINE
  5
51
330
1F
100
AcDbEntity
  8
0
  6
Continuous
 62
     7
370
    15
100
AcDbLine
 10
4.6249836884
 20
7.7190764633
 30
0.0
 11
4.6249836884
 21
7.7206396919
 31
0.0
  0
LINE
  5
52
330
1F
100
AcDbEntity
  8
0
  6
Continuous
 62
     7
370
    15
100
AcDbLine
 10
3.3994836655
 20
7.5277517593
 30
0.0
 11
3.3994836655
 21
7.5171980596
 31
0.0
  0
LINE
  5
53
330
1F
100
AcDbEntity
  8
0
  6
Continuous
 62
     7
370
    15
100
AcDbLine
 10
3.5044836859
 20
7.5241759298
 30
0.0
 11
3.5044836859
 21
7.5277517593
 31
0.0
  0
LINE
  5
54
330
1F
100
AcDbEntity
  8
0
  6
Continuous
 62
     7
370
    15
100
AcDbLine
 10
3.5256804777
 20
7.5242384366
 30
0.0
 11
3.5244836915
 21
7.5221655197
 31
0.0
  0
LINE
  5
55
330
1F
100
AcDbEntity
  8
0
  6
Continuous
 62
     7
370
    15
100
AcDbLine
 10
3.5244836915
 20
7.4636863452
 30
0.0
 11
3.5256804777
 21
7.4616134283
 31
0.0
  0
LINE
  5
56
330
1F
100
AcDbEntity
  8
0
  6
Continuous
 62
     7
370
    15
100
AcDbLine
 10
3.5326086743
 20
7.5242384366
 30
0.0
 11
3.5291445577
 21
7.5182384275
 31
0.0
  0
LINE
  5
57
330
1F
100
AcDbEntity
  8
0
  6
Continuous
 62
     7
370
    15
100
AcDbLine
 10
3.5291445577
 20
7.4676134282
 30
0.0
 11
3.5326086743
 21
7.4616134283
 31
0.0
  0
LINE
  5
58
330
1F
100
AcDbEntity
  8
0
  6
Continuous
 62
     7
370
    15
100
AcDbLine
 10
3.5256804777
 20
7.4616134283
 30
0.0
 11
3.5291445577
 21
7.4676134282
 31
0.0
  0
LINE
  5
59
330
1F
100
AcDbEntity
  8
0
  6
Continuous
 62
     7
370
    15
100
AcDbLine
 10
3.5291445577
 20
7.5182384275
 30
0.0
 11
3.5256804777
 21
7.5242384366
 31
0.0
  0
LINE
  5
5A
330
1F
100
AcDbEntity
  8
0
  6
Continuous
 62
     7
370
    15
100
AcDbLine
 10
3.5244836915
 20
7.5241759298
 30
0.0
 11
3.4643505762
 21
7.5241759298
 31
0.0
  0
LINE
  5
5B
330
1F
100
AcDbEntity
  8
0
  6
Continuous
 62
     7
370
    15
100
AcDbLine
 10
3.4478613633
 20
7.4616759351
 30
0.0
 11
3.5244836915
 21
7.4616759351
 31
0.0
  0
SPLINE
  5
5C
330
1F
100
AcDbEntity
  8
0
  6
Continuous
 62
     7
370
    15
100
AcDbSpline
210
0.0
220
0.0
230
1.0
 70
     8
 71
     3
 72
    16
 73
    12
 74
     0
 42
0.00000001
 43
0.00000001
 12
1.0
 22
0.0
 32
0.0
 13
1.0
 23
0.0
 33
0.0
 40
0.0
 40
0.0
 40
0.0
 40
0.0
 40
0.0378483625501475
 40
0.1698347267864423
 40
0.3015112543982631
 40
0.432075687530496
 40
0.5612582825138309
 40
0.6899084440302697
 40
0.8195997611829909
 40
0.9522005369265003
 40
1.0
 40
1.0
 40
1.0
 40
1.0
 10
3.420857041942629
 20
7.489128354655882
 30
0.0
 10
3.420815551555262
 20
7.488552180525311
 30
0.0
 10
3.420629374185146
 20
7.485966748304373
 30
0.0
 10
3.421509549673598
 20
7.481452551799595
 30
0.0
 10
3.423526408040028
 20
7.475950422038954
 30
0.0
 10
3.42670567271612
 20
7.471143052564822
 30
0.0
 10
3.430733084327597
 20
7.467230461683819
 30
0.0
 10
3.43542160453337
 20
7.464294125347998
 30
0.0
 10
3.44057181004916
 20
7.46245325853102
 30
0.0
 10
3.444825454380152
 20
7.461631553962576
 30
0.0
 10
3.447292815297649
 20
7.461760589805054
 30
0.0
 10
3.44794657566869
 20
7.46179477958234
 30
0.0
  0
LINE
  5
5D
330
1F
100
AcDbEntity
  8
0
  6
Continuous
 62
     7
370
    15
100
AcDbLine
 10
3.42073366
 20
7.510074716
 30
0.0
 11
3.42073366
 21
7.4888036292
 31
0.0
  0
LINE
  5
5E
330
1F
100
AcDbEntity
  8
0
  6
Continuous
 62
     7
370
    15
100
AcDbLine
 10
3.4129211836
 20
7.5171980596
 30
0.0
 11
3.4129211836
 21
7.510074716
 31
0.0
  0
LINE
  5
5F
330
1F
100
AcDbEntity
  8
0
  6
Continuous
 62
     7
370
    15
100
AcDbLine
 10
4.4987868763
 20
7.6866134275
 30
0.0
 11
4.4999836624
 21
7.6886863443
 31
0.0
  0
LINE
  5
60
330
1F
100
AcDbEntity
  8
0
  6
Continuous
 62
     7
370
    15
100
AcDbLine
 10
4.4999836624
 20
7.7471655188
 30
0.0
 11
4.4987868763
 21
7.7492384357
 31
0.0
  0
LINE
  5
61
330
1F
100
AcDbEntity
  8
0
  6
Continuous
 62
     7
370
    15
100
AcDbLine
 10
4.4987868763
 20
7.7492384357
 30
0.0
 11
4.4953227963
 21
7.7432384358
 31
0.0
  0
LINE
  5
62
330
1F
100
AcDbEntity
  8
0
  6
Continuous
 62
     7
370
    15
100
AcDbLine
 10
4.4953227963
 20
7.6926134365
 30
0.0
 11
4.4987868763
 21
7.6866134275
 31
0.0
  0
LINE
  5
63
330
1F
100
AcDbEntity
  8
0
  6
Continuous
 62
     7
370
    15
100
AcDbLine
 10
4.4918586796
 20
7.6866134275
 30
0.0
 11
4.4953227963
 21
7.6926134365
 31
0.0
  0
LINE
  5
64
330
1F
100
AcDbEntity
  8
0
  6
Continuous
 62
     7
370
    15
100
AcDbLine
 10
4.4953227963
 20
7.7432384358
 30
0.0
 11
4.4918586796
 21
7.7492384357
 31
0.0
  0
LINE
  5
65
330
1F
100
AcDbEntity
  8
0
  6
Continuous
 62
     7
370
    15
100
AcDbLine
 10
4.4999836624
 20
7.6866759342
 30
0.0
 11
4.5726790727
 21
7.6866759342
 31
0.0
  0
LINE
  5
66
330
1F
100
AcDbEntity
  8
0
  6
Continuous
 62
     7
370
    15
100
AcDbLine
 10
4.5718974584
 20
7.7491759289
 30
0.0
 11
4.4999836624
 21
7.7491759289
 31
0.0
  0
LINE
  5
67
330
1F
100
AcDbEntity
  8
0
  6
Continuous
 62
     7
370
    15
100
AcDbLine
 10
4.6037336939
 20
7.717730528
 30
0.0
 11
4.6037336939
 21
7.718738813
 31
0.0
  0
LINE
  5
68
330
1F
100
AcDbEntity
  8
0
  6
Continuous
 62
     7
370
    15
100
AcDbLine
 10
4.6115461703
 20
7.718738813
 30
0.0
 11
4.6115461703
 21
7.7190764633
 31
0.0
  0
LINE
  5
69
330
1F
100
AcDbEntity
  8
0
  6
Continuous
 62
     7
370
    15
100
AcDbLine
 10
3.4246711745
 20
7.7168211685
 30
0.0
 11
3.4246711745
 21
7.707587206
 31
0.0
  0
LINE
  5
6A
330
1F
100
AcDbEntity
  8
0
  6
Continuous
 62
     7
370
    15
100
AcDbLine
 10
3.5155461848
 20
7.707587206
 30
0.0
 11
3.5155461848
 21
7.7101729461
 31
0.0
  0
LINE
  5
6B
330
1F
100
AcDbEntity
  8
0
  6
Continuous
 62
     7
370
    15
100
AcDbLine
 10
4.6062336717
 20
7.4805910783
 30
0.0
 11
4.6062336717
 21
7.5248009334
 31
0.0
  0
LINE
  5
6C
330
1F
100
AcDbEntity
  8
0
  6
Continuous
 62
     7
370
    15
100
AcDbLine
 10
4.5024836769
 20
7.5248009334
 30
0.0
 11
4.5024836769
 21
7.4805910783
 31
0.0
  0
LINE
  5
6D
330
1F
100
AcDbEntity
  8
0
  6
Continuous
 62
     7
370
    15
100
AcDbLine
 10
3.5326086743
 20
7.6860509306
 30
0.0
 11
3.407608685
 21
7.6860509306
 31
0.0
  0
LINE
  5
6E
330
1F
100
AcDbEntity
  8
0
  6
Continuous
 62
     7
370
    15
100
AcDbLine
 10
3.407608685
 20
7.5673009316
 30
0.0
 11
3.5326086743
 21
7.5673009316
 31
0.0
  0
LINE
  5
6F
330
1F
100
AcDbEntity
  8
0
  6
Continuous
 62
     7
370
    15
100
AcDbLine
 10
4.4918586796
 20
7.5248009334
 30
0.0
 11
4.616858669
 21
7.5248009334
 31
0.0
  0
LINE
  5
70
330
1F
100
AcDbEntity
  8
0
  6
Continuous
 62
     7
370
    15
100
AcDbLine
 10
4.616858669
 20
7.6435509324
 30
0.0
 11
4.4918586796
 21
7.6435509324
 31
0.0
  0
LWPOLYLINE
  5
71
330
1F
100
AcDbEntity
  8
0
  6
Continuous
 62
     7
370
    15
100
AcDbPolyline
 90
        3
 70
   128
 43
0.0
 10
4.0057665228
 20
7.4486993575
 10
4.0122961769
 20
7.448251131
 10
4.0187008311
 20
7.4486993575
  0
LWPOLYLINE
  5
72
330
1F
100
AcDbEntity
  8
0
  6
Continuous
 62
     7
370
    15
100
AcDbPolyline
 90
        3
 70
   128
 43
0.0
 10
4.0122961769
 20
7.4462305644
 10
4.0204281412
 20
7.4469523394
 10
4.0234522904
 20
7.4475927886
  0
LWPOLYLINE
  5
73
330
1F
100
AcDbEntity
  8
0
  6
Continuous
 62
     7
370
    15
100
AcDbPolyline
 90
        3
 70
   128
 43
0.0
 10
4.0010150636
 20
7.4475927886
 10
4.0041554763
 20
7.4469318429
 10
4.0122961769
 20
7.4462305644
  0
LINE
  5
74
330
1F
100
AcDbEntity
  8
0
  6
Continuous
 62
     7
370
    15
100
AcDbLine
 10
4.3776086828
 20
7.2460509169
 30
0.0
 11
4.460608664
 21
7.2460509169
 31
0.0
  0
LINE
  5
75
330
1F
100
AcDbEntity
  8
0
  6
Continuous
 62
     7
370
    15
100
AcDbLine
 10
4.460608664
 20
7.9648009471
 30
0.0
 11
4.3776086828
 21
7.9648009471
 31
0.0
  0
LINE
  5
76
330
1F
100
AcDbEntity
  8
0
  6
Continuous
 62
     7
370
    15
100
AcDbLine
 10
4.460608664
 20
7.2460509169
 30
0.0
 11
4.4918586796
 21
7.2773009325
 31
0.0
  0
LINE
  5
77
330
1F
100
AcDbEntity
  8
0
  6
Continuous
 62
     7
370
    15
100
AcDbLine
 10
4.4918586796
 20
7.9335509315
 30
0.0
 11
4.460608664
 21
7.9648009471
 31
0.0
  0
LINE
  5
78
330
1F
100
AcDbEntity
  8
0
  6
Continuous
 62
     7
370
    15
100
AcDbLine
 10
4.3776086828
 20
7.9648009471
 30
0.0
 11
4.2639955236
 21
7.951052976
 31
0.0
  0
LINE
  5
79
330
1F
100
AcDbEntity
  8
0
  6
Continuous
 62
     7
370
    15
100
AcDbLine
 10
4.2639955236
 20
7.2597988881
 30
0.0
 11
4.3776086828
 21
7.2460509169
 31
0.0
  0
LINE
  5
7A
330
1F
100
AcDbEntity
  8
0
  6
Continuous
 62
     7
370
    15
100
AcDbLine
 10
4.2639955236
 20
7.951052976
 30
0.0
 11
4.2484836861
 21
7.9312702545
 31
0.0
  0
LINE
  5
7B
330
1F
100
AcDbEntity
  8
0
  6
Continuous
 62
     7
370
    15
100
AcDbLine
 10
4.2484836861
 20
7.2795816095
 30
0.0
 11
4.2639955236
 21
7.2597988881
 31
0.0
  0
LINE
  5
7C
330
1F
100
AcDbEntity
  8
0
  6
Continuous
 62
     7
370
    15
100
AcDbLine
 10
3.6468586712
 20
7.2460509169
 30
0.0
 11
3.7604718304
 21
7.2597988881
 31
0.0
  0
LINE
  5
7D
330
1F
100
AcDbEntity
  8
0
  6
Continuous
 62
     7
370
    15
100
AcDbLine
 10
3.7604718304
 20
7.951052976
 30
0.0
 11
3.6468586712
 21
7.9648009471
 31
0.0
  0
LINE
  5
7E
330
1F
100
AcDbEntity
  8
0
  6
Continuous
 62
     7
370
    15
100
AcDbLine
 10
3.6468586712
 20
7.9648009471
 30
0.0
 11
3.56385869
 21
7.9648009471
 31
0.0
  0
LINE
  5
7F
330
1F
100
AcDbEntity
  8
0
  6
Continuous
 62
     7
370
    15
100
AcDbLine
 10
3.56385869
 20
7.2460509169
 30
0.0
 11
3.6468586712
 21
7.2460509169
 31
0.0
  0
LINE
  5
80
330
1F
100
AcDbEntity
  8
0
  6
Continuous
 62
     7
370
    15
100
AcDbLine
 10
3.56385869
 20
7.9648009471
 30
0.0
 11
3.5326086743
 21
7.9335509315
 31
0.0
  0
LINE
  5
81
330
1F
100
AcDbEntity
  8
0
  6
Continuous
 62
     7
370
    15
100
AcDbLine
 10
3.5326086743
 20
7.2773009325
 30
0.0
 11
3.56385869
 21
7.2460509169
 31
0.0
  0
LINE
  5
82
330
1F
100
AcDbEntity
  8
0
  6
Continuous
 62
     7
370
    15
100
AcDbLine
 10
3.7604718304
 20
7.2597988881
 30
0.0
 11
3.7759836678
 21
7.2795816095
 31
0.0
  0
LINE
  5
83
330
1F
100
AcDbEntity
  8
0
  6
Continuous
 62
     7
370
    15
100
AcDbLine
 10
3.7759836678
 20
7.9312702545
 30
0.0
 11
3.7604718304
 21
7.951052976
 31
0.0
  0
LINE
  5
84
330
1F
100
AcDbEntity
  8
0
  6
Continuous
 62
     7
370
    15
100
AcDbLine
 10
3.9732336779
 20
7.8028847609
 30
0.0
 11
3.9732336779
 21
7.798467102
 31
0.0
  0
LINE
  5
85
330
1F
100
AcDbEntity
  8
0
  6
Continuous
 62
     7
370
    15
100
AcDbLine
 10
4.051233676
 20
7.798467102
 30
0.0
 11
4.051233676
 21
7.8028847609
 31
0.0
  0
LINE
  5
86
330
1F
100
AcDbEntity
  8
0
  6
Continuous
 62
     7
370
    15
100
AcDbLine
 10
3.7869836691
 20
7.9046154907
 30
0.0
 11
3.7799099441
 21
7.8923634289
 31
0.0
  0
LINE
  5
87
330
1F
100
AcDbEntity
  8
0
  6
Continuous
 62
     7
370
    15
100
AcDbLine
 10
3.7799099441
 20
7.3184884351
 30
0.0
 11
3.7869836691
 21
7.3062363733
 31
0.0
  0
LINE
  5
88
330
1F
100
AcDbEntity
  8
0
  6
Continuous
 62
     7
370
    15
100
AcDbLine
 10
4.2374836849
 20
7.3062363733
 30
0.0
 11
4.2445574098
 21
7.3184884351
 31
0.0
  0
LINE
  5
89
330
1F
100
AcDbEntity
  8
0
  6
Continuous
 62
     7
370
    15
100
AcDbLine
 10
4.2445574098
 20
7.8923634289
 30
0.0
 11
4.2374836849
 21
7.9046154907
 31
0.0
  0
LINE
  5
8A
330
1F
100
AcDbEntity
  8
0
  6
Continuous
 62
     7
370
    15
100
AcDbLine
 10
3.7799099441
 20
7.8923634289
 30
0.0
 11
3.7759836678
 21
7.8923634289
 31
0.0
  0
LINE
  5
8B
330
1F
100
AcDbEntity
  8
0
  6
Continuous
 62
     7
370
    15
100
AcDbLine
 10
3.7759836678
 20
7.3184884351
 30
0.0
 11
3.7799099441
 21
7.3184884351
 31
0.0
  0
LINE
  5
8C
330
1F
100
AcDbEntity
  8
0
  6
Continuous
 62
     7
370
    15
100
AcDbLine
 10
4.2484836861
 20
7.8923634289
 30
0.0
 11
4.2445574098
 21
7.8923634289
 31
0.0
  0
LINE
  5
8D
330
1F
100
AcDbEntity
  8
0
  6
Continuous
 62
     7
370
    15
100
AcDbLine
 10
4.2445574098
 20
7.3184884351
 30
0.0
 11
4.2484836861
 21
7.3184884351
 31
0.0
  0
LINE
  5
8E
330
1F
100
AcDbEntity
  8
0
  6
Continuous
 62
     7
370
    15
100
AcDbLine
 10
3.8063586803
 20
7.9301759138
 30
0.0
 11
3.8063586803
 21
7.9994259438
 31
0.0
  0
LINE
  5
8F
330
1F
100
AcDbEntity
  8
0
  6
Continuous
 62
     7
370
    15
100
AcDbLine
 10
3.7869836691
 20
7.9085876915
 30
0.0
 11
3.7759836678
 21
7.9085876915
 31
0.0
  0
LINE
  5
90
330
1F
100
AcDbEntity
  8
0
  6
Continuous
 62
     7
370
    15
100
AcDbLine
 10
3.7759836678
 20
7.9130891512
 30
0.0
 11
3.7869836691
 21
7.9130891512
 31
0.0
  0
LINE
  5
91
330
1F
100
AcDbEntity
  8
0
  6
Continuous
 62
     7
370
    15
100
AcDbLine
 10
3.8001086808
 20
7.9364907575
 30
0.0
 11
3.7718902118
 21
7.9364907575
 31
0.0
  0
LINE
  5
92
330
1F
100
AcDbEntity
  8
0
  6
Continuous
 62
     7
370
    15
100
AcDbLine
 10
3.8001086808
 20
7.9364907575
 30
0.0
 11
3.8001086808
 21
7.9512816633
 31
0.0
  0
LINE
  5
93
330
1F
100
AcDbEntity
  8
0
  6
Continuous
 62
     7
370
    15
100
AcDbLine
 10
3.7585819788
 20
7.9512816633
 30
0.0
 11
3.8001086808
 21
7.9512816633
 31
0.0
  0
LINE
  5
94
330
1F
100
AcDbEntity
  8
0
  6
Continuous
 62
     7
370
    15
100
AcDbLine
 10
3.7063586705
 20
7.957601017
 30
0.0
 11
3.7063586705
 21
7.9817040119
 31
0.0
  0
LINE
  5
95
330
1F
100
AcDbEntity
  8
0
  6
Continuous
 62
     7
370
    15
100
AcDbLine
 10
3.8001086808
 20
7.9817040119
 30
0.0
 11
3.7063586705
 21
7.9817040119
 31
0.0
  0
LINE
  5
96
330
1F
100
AcDbEntity
  8
0
  6
Continuous
 62
     7
370
    15
100
AcDbLine
 10
3.8001086808
 20
7.9817040119
 30
0.0
 11
3.8001086808
 21
7.9919934397
 31
0.0
  0
LINE
  5
97
330
1F
100
AcDbEntity
  8
0
  6
Continuous
 62
     7
370
    15
100
AcDbLine
 10
3.7063586705
 20
7.9919934397
 30
0.0
 11
3.8001086808
 21
7.9919934397
 31
0.0
  0
LINE
  5
98
330
1F
100
AcDbEntity
  8
0
  6
Continuous
 62
     7
370
    15
100
AcDbLine
 10
3.7063586705
 20
7.9919934397
 30
0.0
 11
3.7063586705
 21
7.9994259438
 31
0.0
  0
LINE
  5
99
330
1F
100
AcDbEntity
  8
0
  6
Continuous
 62
     7
370
    15
100
AcDbLine
 10
3.8196763914
 20
7.9301759138
 30
0.0
 11
3.8196763914
 21
7.9928634196
 31
0.0
  0
LINE
  5
9A
330
1F
100
AcDbEntity
  8
0
  6
Continuous
 62
     7
370
    15
100
AcDbLine
 10
3.7063586705
 20
7.9919934397
 30
0.0
 11
3.7063586705
 21
7.9817040119
 31
0.0
  0
LINE
  5
9B
330
1F
100
AcDbEntity
  8
0
  6
Continuous
 62
     7
370
    15
100
AcDbLine
 10
4.172608671
 20
7.9928009404
 30
0.0
 11
4.172608671
 21
7.9301759138
 31
0.0
  0
LINE
  5
9C
330
1F
100
AcDbEntity
  8
0
  6
Continuous
 62
     7
370
    15
100
AcDbLine
 10
4.0944836777
 20
7.9301759138
 30
0.0
 11
4.0944836777
 21
7.9537384483
 31
0.0
  0
ARC
  5
9D
330
1F
100
AcDbEntity
  8
0
  6
Continuous
 62
     7
370
    15
100
AcDbCircle
 10
4.071046177
 20
7.953738432
 30
0.0
 40
0.0234375000000009
100
AcDbArc
 50
0.0
 51
180.0
  0
LINE
  5
9E
330
1F
100
AcDbEntity
  8
0
  6
Continuous
 62
     7
370
    15
100
AcDbLine
 10
4.0476086771
 20
7.9537384483
 30
0.0
 11
4.0476086771
 21
7.9301759138
 31
0.0
  0
LINE
  5
9F
330
1F
100
AcDbEntity
  8
0
  6
Continuous
 62
     7
370
    15
100
AcDbLine
 10
4.0319836761
 20
7.9301759138
 30
0.0
 11
4.0319836761
 21
7.9537384483
 31
0.0
  0
ARC
  5
A0
330
1F
100
AcDbEntity
  8
0
  6
Continuous
 62
     7
370
    15
100
AcDbCircle
 10
4.008546177
 20
7.953738432
 30
0.0
 40
0.0234375
100
AcDbArc
 50
0.0
 51
180.0
  0
LINE
  5
A1
330
1F
100
AcDbEntity
  8
0
  6
Continuous
 62
     7
370
    15
100
AcDbLine
 10
3.9851086778
 20
7.9537384483
 30
0.0
 11
3.9851086778
 21
7.9301759138
 31
0.0
  0
LINE
  5
A2
330
1F
100
AcDbEntity
  8
0
  6
Continuous
 62
     7
370
    15
100
AcDbLine
 10
3.9069836753
 20
7.9301759138
 30
0.0
 11
3.9069836753
 21
7.9928009404
 31
0.0
  0
LINE
  5
A3
330
1F
100
AcDbEntity
  8
0
  6
Continuous
 62
     7
370
    15
100
AcDbLine
 10
4.172608671
 20
7.9928009404
 30
0.0
 11
3.9069836753
 21
7.9928009404
 31
0.0
  0
LINE
  5
A4
330
1F
100
AcDbEntity
  8
0
  6
Continuous
 62
     7
370
    15
100
AcDbLine
 10
3.922608674
 20
8.00841581
 30
0.0
 11
3.922608674
 21
8.0084259299
 31
0.0
  0
LINE
  5
A5
330
1F
100
AcDbEntity
  8
0
  6
Continuous
 62
     7
370
    15
100
AcDbLine
 10
3.922608674
 20
8.0084259299
 30
0.0
 11
4.1569836815
 21
8.0084259299
 31
0.0
  0
LINE
  5
A6
330
1F
100
AcDbEntity
  8
0
  6
Continuous
 62
     7
370
    15
100
AcDbLine
 10
4.1569836815
 20
8.0084259299
 30
0.0
 11
4.1569836815
 21
8.00841581
 31
0.0
  0
LINE
  5
A7
330
1F
100
AcDbEntity
  8
0
  6
Continuous
 62
     7
370
    15
100
AcDbLine
 10
4.1569836815
 20
8.00841581
 30
0.0
 11
4.172608671
 21
8.00841581
 31
0.0
  0
LINE
  5
A8
330
1F
100
AcDbEntity
  8
0
  6
Continuous
 62
     7
370
    15
100
AcDbLine
 10
4.172608671
 20
8.00841581
 30
0.0
 11
4.172608671
 21
7.9928009404
 31
0.0
  0
LINE
  5
A9
330
1F
100
AcDbEntity
  8
0
  6
Continuous
 62
     7
370
    15
100
AcDbLine
 10
3.9069836753
 20
7.9928009404
 30
0.0
 11
3.9069836753
 21
8.00841581
 31
0.0
  0
LINE
  5
AA
330
1F
100
AcDbEntity
  8
0
  6
Continuous
 62
     7
370
    15
100
AcDbLine
 10
3.9069836753
 20
8.00841581
 30
0.0
 11
3.922608674
 21
8.00841581
 31
0.0
  0
LINE
  5
AB
330
1F
100
AcDbEntity
  8
0
  6
Continuous
 62
     7
370
    15
100
AcDbLine
 10
3.8226086825
 20
7.9301759138
 30
0.0
 11
3.8226086825
 21
7.9928009404
 31
0.0
  0
ARC
  5
AC
330
1F
100
AcDbEntity
  8
0
  6
Continuous
 62
     7
370
    15
100
AcDbCircle
 10
3.838233677
 20
7.992800932
 30
0.0
 40
0.0156250000000004
100
AcDbArc
 50
90.0
 51
180.0
  0
LINE
  5
AD
330
1F
100
AcDbEntity
  8
0
  6
Continuous
 62
     7
370
    15
100
AcDbLine
 10
3.922608674
 20
8.0084259299
 30
0.0
 11
3.838233672
 21
8.0084259299
 31
0.0
  0
ARC
  5
AE
330
1F
100
AcDbEntity
  8
0
  6
Continuous
 62
     7
370
    15
100
AcDbCircle
 10
4.241358677
 20
7.992800932
 30
0.0
 40
0.015625
100
AcDbArc
 50
0.0
 51
90.0
  0
LINE
  5
AF
330
1F
100
AcDbEntity
  8
0
  6
Continuous
 62
     7
370
    15
100
AcDbLine
 10
4.2569836729
 20
7.9928009404
 30
0.0
 11
4.2569836729
 21
7.9421105559
 31
0.0
  0
LINE
  5
B0
330
1F
100
AcDbEntity
  8
0
  6
Continuous
 62
     7
370
    15
100
AcDbLine
 10
4.2413586834
 20
8.0084259299
 30
0.0
 11
4.1569836815
 21
8.0084259299
 31
0.0
  0
CIRCLE
  5
B1
330
1F
100
AcDbEntity
  8
0
  6
Continuous
 62
     7
370
    15
100
AcDbCircle
 10
4.012233677
 20
7.800675932
 30
0.0
 40
0.0390625
  0
CIRCLE
  5
B2
330
1F
100
AcDbEntity
  8
0
  6
Continuous
 62
     7
370
    15
100
AcDbCircle
 10
4.012233677
 20
7.800675932
 30
0.0
 40
0.0405601291492559
  0
CIRCLE
  5
B3
330
1F
100
AcDbEntity
  8
0
  6
Continuous
 62
     7
370
    15
100
AcDbCircle
 10
4.012233677
 20
7.800675932
 30
0.0
 40
0.0482453333233921
  0
CIRCLE
  5
B4
330
1F
100
AcDbEntity
  8
0
  6
Continuous
 62
     7
370
    15
100
AcDbCircle
 10
4.012233677
 20
7.800675932
 30
0.0
 40
0.0499999999999998
  0
CIRCLE
  5
B5
330
1F
100
AcDbEntity
  8
0
  6
Continuous
 62
     7
370
    15
100
AcDbCircle
 10
4.012233677
 20
7.800675932
 30
0.0
 40
0.05375
  0
CIRCLE
  5
B6
330
1F
100
AcDbEntity
  8
0
  6
Continuous
 62
     7
370
    15
100
AcDbCircle
 10
4.012233677
 20
7.800675932
 30
0.0
 40
0.0570874999999997
  0
CIRCLE
  5
B7
330
1F
100
AcDbEntity
  8
0
  6
Continuous
 62
     7
370
    15
100
AcDbCircle
 10
4.012233677
 20
7.800675932
 30
0.0
 40
0.0625
  0
LINE
  5
B8
330
1F
100
AcDbEntity
  8
0
  6
Continuous
 62
     7
370
    15
100
AcDbLine
 10
4.012233677
 20
7.890886916
 30
0.0
 11
4.0903586795
 21
7.8457814237
 31
0.0
  0
LINE
  5
B9
330
1F
100
AcDbEntity
  8
0
  6
Continuous
 62
     7
370
    15
100
AcDbLine
 10
3.9341086745
 20
7.7555704392
 30
0.0
 11
3.9341086745
 21
7.8457814237
 31
0.0
  0
LINE
  5
BA
330
1F
100
AcDbEntity
  8
0
  6
Continuous
 62
     7
370
    15
100
AcDbLine
 10
4.012233677
 20
7.7104649561
 30
0.0
 11
3.9341086745
 21
7.7555704392
 31
0.0
  0
LINE
  5
BB
330
1F
100
AcDbEntity
  8
0
  6
Continuous
 62
     7
370
    15
100
AcDbLine
 10
4.0903586795
 20
7.7555704392
 30
0.0
 11
4.012233677
 21
7.7104649561
 31
0.0
  0
LINE
  5
BC
330
1F
100
AcDbEntity
  8
0
  6
Continuous
 62
     7
370
    15
100
AcDbLine
 10
4.0903586795
 20
7.8457814237
 30
0.0
 11
4.0903586795
 21
7.7555704392
 31
0.0
  0
LINE
  5
BD
330
1F
100
AcDbEntity
  8
0
  6
Continuous
 62
     7
370
    15
100
AcDbLine
 10
3.9341086745
 20
7.8457814237
 30
0.0
 11
4.012233677
 21
7.890886916
 31
0.0
  0
LINE
  5
BE
330
1F
100
AcDbEntity
  8
0
  6
Continuous
 62
     7
370
    15
100
AcDbLine
 10
4.0908961791
 20
7.8006759315
 30
0.0
 11
4.0903586795
 21
7.8098559854
 31
0.0
  0
LWPOLYLINE
  5
BF
330
1F
100
AcDbEntity
  8
0
  6
Continuous
 62
     7
370
    15
100
AcDbPolyline
 90
        3
 70
   128
 43
0.0
 10
4.0592463318
 20
7.8637441429
 10
4.051564928
 20
7.8687996478
 10
4.0433460224
 20
7.8729241968
  0
LWPOLYLINE
  5
C0
330
1F
100
AcDbEntity
  8
0
  6
Continuous
 62
     7
370
    15
100
AcDbPolyline
 90
        3
 70
   128
 43
0.0
 10
3.9814466872
 20
7.8730634369
 10
3.9729024259
 20
7.8687996478
 10
3.9652210222
 20
7.8637441429
  0
LWPOLYLINE
  5
C1
330
1F
100
AcDbEntity
  8
0
  6
Continuous
 62
     7
370
    15
100
AcDbPolyline
 90
        3
 70
   128
 43
0.0
 10
3.9341086745
 20
7.8098559854
 10
3.9335711749
 20
7.8006759315
 10
3.9341086745
 20
7.7914958775
  0
LWPOLYLINE
  5
C2
330
1F
100
AcDbEntity
  8
0
  6
Continuous
 62
     7
370
    15
100
AcDbPolyline
 90
        3
 70
   128
 43
0.0
 10
3.9652210222
 20
7.73760772
 10
3.9729024259
 20
7.7325522059
 10
3.9811213316
 20
7.7284276752
  0
LWPOLYLINE
  5
C3
330
1F
100
AcDbEntity
  8
0
  6
Continuous
 62
     7
370
    15
100
AcDbPolyline
 90
        3
 70
   128
 43
0.0
 10
4.0433460224
 20
7.7284276752
 10
4.051564928
 20
7.7325522059
 10
4.0592463318
 20
7.73760772
  0
LINE
  5
C4
330
1F
100
AcDbEntity
  8
0
  6
Continuous
 62
     7
370
    15
100
AcDbLine
 10
4.0903586795
 20
7.7914958775
 30
0.0
 11
4.0908961791
 21
7.8006759315
 31
0.0
  0
CIRCLE
  5
C5
330
1F
100
AcDbEntity
  8
0
  6
Continuous
 62
     7
370
    15
100
AcDbCircle
 10
4.012233677
 20
7.410175932
 30
0.0
 40
0.0405601291492559
  0
CIRCLE
  5
C6
330
1F
100
AcDbEntity
  8
0
  6
Continuous
 62
     7
370
    15
100
AcDbCircle
 10
4.012233677
 20
7.410175932
 30
0.0
 40
0.0482453333233921
  0
CIRCLE
  5
C7
330
1F
100
AcDbEntity
  8
0
  6
Continuous
 62
     7
370
    15
100
AcDbCircle
 10
4.012233677
 20
7.410175932
 30
0.0
 40
0.0390625
  0
CIRCLE
  5
C8
330
1F
100
AcDbEntity
  8
0
  6
Continuous
 62
     7
370
    15
100
AcDbCircle
 10
4.012233677
 20
7.410175932
 30
0.0
 40
0.0499999999999998
  0
CIRCLE
  5
C9
330
1F
100
AcDbEntity
  8
0
  6
Continuous
 62
     7
370
    15
100
AcDbCircle
 10
4.012233677
 20
7.410175932
 30
0.0
 40
0.05375
  0
CIRCLE
  5
CA
330
1F
100
AcDbEntity
  8
0
  6
Continuous
 62
     7
370
    15
100
AcDbCircle
 10
4.012233677
 20
7.410175932
 30
0.0
 40
0.0570874999999997
  0
CIRCLE
  5
CB
330
1F
100
AcDbEntity
  8
0
  6
Continuous
 62
     7
370
    15
100
AcDbCircle
 10
4.012233677
 20
7.410175932
 30
0.0
 40
0.0625
  0
LINE
  5
CC
330
1F
100
AcDbEntity
  8
0
  6
Continuous
 62
     7
370
    15
100
AcDbLine
 10
4.012233677
 20
7.5003869079
 30
0.0
 11
4.0903586795
 21
7.4552814248
 31
0.0
  0
LINE
  5
CD
330
1F
100
AcDbEntity
  8
0
  6
Continuous
 62
     7
370
    15
100
AcDbLine
 10
4.012233677
 20
7.319964948
 30
0.0
 11
3.9341086745
 21
7.3650704403
 31
0.0
  0
LINE
  5
CE
330
1F
100
AcDbEntity
  8
0
  6
Continuous
 62
     7
370
    15
100
AcDbLine
 10
4.0903586795
 20
7.3650704403
 30
0.0
 11
4.012233677
 21
7.319964948
 31
0.0
  0
LINE
  5
CF
330
1F
100
AcDbEntity
  8
0
  6
Continuous
 62
     7
370
    15
100
AcDbLine
 10
4.0903586795
 20
7.4552814248
 30
0.0
 11
4.0903586795
 21
7.3650704403
 31
0.0
  0
LINE
  5
D0
330
1F
100
AcDbEntity
  8
0
  6
Continuous
 62
     7
370
    15
100
AcDbLine
 10
3.9341086745
 20
7.4552814248
 30
0.0
 11
4.012233677
 21
7.5003869079
 31
0.0
  0
LINE
  5
D1
330
1F
100
AcDbEntity
  8
0
  6
Continuous
 62
     7
370
    15
100
AcDbLine
 10
3.9341086745
 20
7.3650704403
 30
0.0
 11
3.9341086745
 21
7.4552814248
 31
0.0
  0
LINE
  5
D2
330
1F
100
AcDbEntity
  8
0
  6
Continuous
 62
     7
370
    15
100
AcDbLine
 10
4.0908961791
 20
7.4101759326
 30
0.0
 11
4.0903586795
 21
7.4193559865
 31
0.0
  0
LWPOLYLINE
  5
D3
330
1F
100
AcDbEntity
  8
0
  6
Continuous
 62
     7
370
    15
100
AcDbPolyline
 90
        3
 70
   128
 43
0.0
 10
4.0592463318
 20
7.473244144
 10
4.051564928
 20
7.4782996581
 10
4.0433460224
 20
7.4824241888
  0
LWPOLYLINE
  5
D4
330
1F
100
AcDbEntity
  8
0
  6
Continuous
 62
     7
370
    15
100
AcDbPolyline
 90
        3
 70
   128
 43
0.0
 10
3.9811213316
 20
7.4824241888
 10
3.9729024259
 20
7.4782996581
 10
3.9652210222
 20
7.473244144
  0
LWPOLYLINE
  5
D5
330
1F
100
AcDbEntity
  8
0
  6
Continuous
 62
     7
370
    15
100
AcDbPolyline
 90
        3
 70
   128
 43
0.0
 10
3.9341086745
 20
7.4193559865
 10
3.9335711749
 20
7.4101759326
 10
3.9341086745
 20
7.4009958786
  0
LWPOLYLINE
  5
D6
330
1F
100
AcDbEntity
  8
0
  6
Continuous
 62
     7
370
    15
100
AcDbPolyline
 90
        3
 70
   128
 43
0.0
 10
3.9652210222
 20
7.3471077211
 10
3.9729024259
 20
7.3420522162
 10
3.9811213316
 20
7.3379276672
  0
LWPOLYLINE
  5
D7
330
1F
100
AcDbEntity
  8
0
  6
Continuous
 62
     7
370
    15
100
AcDbPolyline
 90
        3
 70
   128
 43
0.0
 10
4.0433460224
 20
7.3379276672
 10
4.051564928
 20
7.3420522162
 10
4.0592463318
 20
7.3471077211
  0
LINE
  5
D8
330
1F
100
AcDbEntity
  8
0
  6
Continuous
 62
     7
370
    15
100
AcDbLine
 10
4.0903586795
 20
7.4009958786
 30
0.0
 11
4.0908961791
 21
7.4101759326
 31
0.0
  0
LINE
  5
D9
330
1F
100
AcDbEntity
  8
0
  6
Continuous
 62
     7
370
    15
100
AcDbLine
 10
4.5227369729
 20
7.7511430087
 30
0.0
 11
4.5215225136
 21
7.7491759289
 31
0.0
  0
LINE
  5
DA
330
1F
100
AcDbEntity
  8
0
  6
Continuous
 62
     7
370
    15
100
AcDbLine
 10
4.5227369729
 20
7.7511430087
 30
0.0
 11
4.5263206215
 21
7.7491759289
 31
0.0
  0
ARC
  5
DB
330
1F
100
AcDbEntity
  8
0
  6
Continuous
 62
     7
370
    15
100
AcDbCircle
 10
4.5724807399
 20
7.7190737118
 30
0.0
 40
0.0524978126002767
100
AcDbArc
 50
123.3214849361
 51
145.0123781799
  0
LINE
  5
DC
330
1F
100
AcDbEntity
  8
0
  6
Continuous
 62
     7
370
    15
100
AcDbLine
 10
4.5436417914
 20
7.762940959
 30
0.0
 11
4.5404146121
 21
7.7688192911
 31
0.0
  0
ARC
  5
DD
330
1F
100
AcDbEntity
  8
0
  6
Continuous
 62
     7
370
    15
100
AcDbCircle
 10
4.5724830191
 20
7.7190696753
 30
0.0
 40
0.0591895852930757
100
AcDbArc
 50
102.1911984021
 51
122.8056692062
  0
LINE
  5
DE
330
1F
100
AcDbEntity
  8
0
  6
Continuous
 62
     7
370
    15
100
AcDbLine
 10
4.5599836793
 20
7.7769244375
 30
0.0
 11
4.561858681
 21
7.7704860652
 31
0.0
  0
ARC
  5
DF
330
1F
100
AcDbEntity
  8
0
  6
Continuous
 62
     7
370
    15
100
AcDbCircle
 10
4.5724836783
 20
7.7190675715
 30
0.0
 40
0.0525047813086452
100
AcDbArc
 50
78.3248560164
 51
101.6751439836
  0
LINE
  5
E0
330
1F
100
AcDbEntity
  8
0
  6
Continuous
 62
     7
370
    15
100
AcDbLine
 10
4.5831086755
 20
7.7704860652
 30
0.0
 11
4.5849836772
 21
7.7769244375
 31
0.0
  0
ARC
  5
E1
330
1F
100
AcDbEntity
  8
0
  6
Continuous
 62
     7
370
    15
100
AcDbCircle
 10
4.5724839318
 20
7.7190686959
 30
0.0
 40
0.0591906282506997
100
AcDbArc
 50
57.1945143954
 51
77.8086179963
  0
LINE
  5
E2
330
1F
100
AcDbEntity
  8
0
  6
Continuous
 62
     7
370
    15
100
AcDbLine
 10
4.6045527445
 20
7.7688192911
 30
0.0
 11
4.6013255651
 21
7.762940959
 31
0.0
  0
ARC
  5
E3
330
1F
100
AcDbEntity
  8
0
  6
Continuous
 62
     7
370
    15
100
AcDbCircle
 10
4.5724863045
 20
7.7190733471
 30
0.0
 40
0.0524982888287086
100
AcDbArc
 50
33.3261298854
 51
56.6784491392
  0
LINE
  5
E4
330
1F
100
AcDbEntity
  8
0
  6
Continuous
 62
     7
370
    15
100
AcDbLine
 10
4.6163516115
 20
7.7479161135
 30
0.0
 11
4.6222303836
 21
7.7511430087
 31
0.0
  0
ARC
  5
E5
330
1F
100
AcDbEntity
  8
0
  6
Continuous
 62
     7
370
    15
100
AcDbCircle
 10
4.5724909067
 20
7.7190758607
 30
0.0
 40
0.0591803813959034
100
AcDbArc
 50
12.1934109243
 51
32.8099629499
  0
LINE
  5
E6
330
1F
100
AcDbEntity
  8
0
  6
Continuous
 62
     7
370
    15
100
AcDbLine
 10
4.6303361899
 20
7.7315754906
 30
0.0
 11
4.6238973043
 21
7.7297006355
 31
0.0
  0
ARC
  5
E7
330
1F
100
AcDbEntity
  8
0
  6
Continuous
 62
     7
370
    15
100
AcDbCircle
 10
4.5724908186
 20
7.7190764679
 30
0.0
 40
0.0524928539680701
100
AcDbArc
 50
348.3230904732
 51
11.6769095268
  0
LINE
  5
E8
330
1F
100
AcDbEntity
  8
0
  6
Continuous
 62
     7
370
    15
100
AcDbLine
 10
4.6238973043
 20
7.7084523002
 30
0.0
 11
4.6303361899
 21
7.7065774452
 31
0.0
  0
ARC
  5
E9
330
1F
100
AcDbEntity
  8
0
  6
Continuous
 62
     7
370
    15
100
AcDbCircle
 10
4.5724909067
 20
7.719077075
 30
0.0
 40
0.0591803813959061
100
AcDbArc
 50
327.1900370501
 51
347.8065890757
  0
LINE
  5
EA
330
1F
100
AcDbEntity
  8
0
  6
Continuous
 62
     7
370
    15
100
AcDbLine
 10
4.6222303836
 20
7.687009927
 30
0.0
 11
4.6163516115
 21
7.6902368223
 31
0.0
  0
ARC
  5
EB
330
1F
100
AcDbEntity
  8
0
  6
Continuous
 62
     7
370
    15
100
AcDbCircle
 10
4.5724865005
 20
7.7190793926
 30
0.0
 40
0.0524980173282878
100
AcDbArc
 50
303.3214896259
 51
326.6739313495
  0
LINE
  5
EC
330
1F
100
AcDbEntity
  8
0
  6
Continuous
 62
     7
370
    15
100
AcDbLine
 10
4.6013255651
 20
7.6752119767
 30
0.0
 11
4.6045527445
 21
7.6693336354
 31
0.0
  0
ARC
  5
ED
330
1F
100
AcDbEntity
  8
0
  6
Continuous
 62
     7
370
    15
100
AcDbCircle
 10
4.5724839041
 20
7.7190844285
 30
0.0
 40
0.0591908095471685
100
AcDbArc
 50
282.1913715521
 51
302.8054044216
  0
LINE
  5
EE
330
1F
100
AcDbEntity
  8
0
  6
Continuous
 62
     7
370
    15
100
AcDbLine
 10
4.5849836772
 20
7.6612285074
 30
0.0
 11
4.5831086755
 21
7.6676668751
 31
0.0
  0
ARC
  5
EF
330
1F
100
AcDbEntity
  8
0
  6
Continuous
 62
     7
370
    15
100
AcDbCircle
 10
4.5724836783
 20
7.719084829
 30
0.0
 40
0.0525042526699985
100
AcDbArc
 50
258.3247368108
 51
281.6752631892
  0
LINE
  5
F0
330
1F
100
AcDbEntity
  8
0
  6
Continuous
 62
     7
370
    15
100
AcDbLine
 10
4.561858681
 20
7.6676668751
 30
0.0
 11
4.5599836793
 21
7.6612285074
 31
0.0
  0
ARC
  5
F1
330
1F
100
AcDbEntity
  8
0
  6
Continuous
 62
     7
370
    15
100
AcDbCircle
 10
4.5724830468
 20
7.7190834491
 30
0.0
 40
0.0591897665823223
100
AcDbArc
 50
237.1944119767
 51
257.8088120496
  0
LINE
  5
F2
330
1F
100
AcDbEntity
  8
0
  6
Continuous
 62
     7
370
    15
100
AcDbLine
 10
4.5404146121
 20
7.6693336354
 30
0.0
 11
4.5436417914
 21
7.6752119767
 31
0.0
  0
ARC
  5
F3
330
1F
100
AcDbEntity
  8
0
  6
Continuous
 62
     7
370
    15
100
AcDbCircle
 10
4.5724806233
 20
7.7190791363
 30
0.0
 40
0.052497675305205
100
AcDbArc
 50
218.114221224
 51
236.678568941
  0
LINE
  5
F4
330
1F
100
AcDbEntity
  8
0
  6
Continuous
 62
     7
370
    15
100
AcDbLine
 10
4.5599836793
 20
7.7784876478
 30
0.0
 11
4.5599836793
 21
7.7769244375
 31
0.0
  0
LINE
  5
F5
330
1F
100
AcDbEntity
  8
0
  6
Continuous
 62
     7
370
    15
100
AcDbLine
 10
4.5599836793
 20
7.7784876478
 30
0.0
 11
4.561858681
 21
7.7720492938
 31
0.0
  0
LINE
  5
F6
330
1F
100
AcDbEntity
  8
0
  6
Continuous
 62
     7
370
    15
100
AcDbLine
 10
4.561858681
 20
7.7720492938
 30
0.0
 11
4.561858681
 21
7.7704860652
 31
0.0
  0
LINE
  5
F7
330
1F
100
AcDbEntity
  8
0
  6
Continuous
 62
     7
370
    15
100
AcDbLine
 10
4.5404146121
 20
7.7703825198
 30
0.0
 11
4.5404146121
 21
7.7688192911
 31
0.0
  0
ARC
  5
F8
330
1F
100
AcDbEntity
  8
0
  6
Continuous
 62
     7
370
    15
100
AcDbCircle
 10
4.572482713
 20
7.720633512
 30
0.0
 40
0.0591889083687406
100
AcDbArc
 50
102.1910368671
 51
122.8057391066
  0
LINE
  5
F9
330
1F
100
AcDbEntity
  8
0
  6
Continuous
 62
     7
370
    15
100
AcDbLine
 10
4.6045527445
 20
7.7703825198
 30
0.0
 11
4.6045527445
 21
7.7688192911
 31
0.0
  0
LINE
  5
FA
330
1F
100
AcDbEntity
  8
0
  6
Continuous
 62
     7
370
    15
100
AcDbLine
 10
4.5849836772
 20
7.7784876478
 30
0.0
 11
4.5849836772
 21
7.7769244375
 31
0.0
  0
ARC
  5
FB
330
1F
100
AcDbEntity
  8
0
  6
Continuous
 62
     7
370
    15
100
AcDbCircle
 10
4.5724842379
 20
7.7206325326
 30
0.0
 40
0.0591899513011352
100
AcDbArc
 50
57.1944444948
 51
77.8087795315
  0
LINE
  5
FC
330
1F
100
AcDbEntity
  8
0
  6
Continuous
 62
     7
370
    15
100
AcDbLine
 10
4.5831086755
 20
7.7720492938
 30
0.0
 11
4.5831086755
 21
7.7704860652
 31
0.0
  0
LINE
  5
FD
330
1F
100
AcDbEntity
  8
0
  6
Continuous
 62
     7
370
    15
100
AcDbLine
 10
4.5831086755
 20
7.7720492938
 30
0.0
 11
4.5849836772
 21
7.7784876478
 31
0.0
  0
ARC
  5
FE
330
1F
100
AcDbEntity
  8
0
  6
Continuous
 62
     7
370
    15
100
AcDbCircle
 10
4.5724836783
 20
7.7206308001
 30
0.0
 40
0.0525047813086452
100
AcDbArc
 50
78.3248560164
 51
101.6751439836
  0
ARC
  5
FF
330
1F
100
AcDbEntity
  8
0
  6
Continuous
 62
     7
370
    15
100
AcDbCircle
 10
4.5724864428
 20
7.7206366918
 30
0.0
 40
0.052498109530267
100
AcDbArc
 50
33.326106963
 51
55.8543613722
  0
LINE
  5
100
330
1F
100
AcDbEntity
  8
0
  6
Continuous
 62
     7
370
    15
100
AcDbLine
 10
4.6163516115
 20
7.7494793421
 30
0.0
 11
4.6163516115
 21
7.7479161135
 31
0.0
  0
LINE
  5
101
330
1F
100
AcDbEntity
  8
0
  6
Continuous
 62
     7
370
    15
100
AcDbLine
 10
4.528615745
 20
7.7494793421
 30
0.0
 11
4.528615745
 21
7.7491759289
 31
0.0
  0
ARC
  5
102
330
1F
100
AcDbEntity
  8
0
  6
Continuous
 62
     7
370
    15
100
AcDbCircle
 10
4.5724809138
 20
7.7206366918
 30
0.0
 40
0.0524981095302657
100
AcDbArc
 50
124.1456386278
 51
146.673893037
  0
LINE
  5
103
330
1F
100
AcDbEntity
  8
0
  6
Continuous
 62
     7
370
    15
100
AcDbLine
 10
4.6163516115
 20
7.7494793421
 30
0.0
 11
4.6222303836
 21
7.7527062373
 31
0.0
  0
LINE
  5
104
330
1F
100
AcDbEntity
  8
0
  6
Continuous
 62
     7
370
    15
100
AcDbLine
 10
4.6222303836
 20
7.7527062373
 30
0.0
 11
4.6222303836
 21
7.7511430087
 31
0.0
  0
LINE
  5
105
330
1F
100
AcDbEntity
  8
0
  6
Continuous
 62
     7
370
    15
100
AcDbLine
 10
4.5227369729
 20
7.7527062373
 30
0.0
 11
4.5227369729
 21
7.7511430087
 31
0.0
  0
LWPOLYLINE
  5
106
330
1F
100
AcDbEntity
  8
0
  6
Continuous
 62
     7
370
    15
100
AcDbPolyline
 90
        3
 70
   128
 43
0.0
 10
4.5227369729
 20
7.7527062373
 10
4.5213454157
 20
7.7504373393
 10
4.5206308639
 20
7.7491759289
  0
LINE
  5
107
330
1F
100
AcDbEntity
  8
0
  6
Continuous
 62
     7
370
    15
100
AcDbLine
 10
4.5227369729
 20
7.7527062373
 30
0.0
 11
4.528615745
 21
7.7494793421
 31
0.0
  0
LINE
  5
108
330
1F
100
AcDbEntity
  8
0
  6
Continuous
 62
     7
370
    15
100
AcDbLine
 10
4.6303361899
 20
7.7331387192
 30
0.0
 11
4.6303361899
 21
7.7315754906
 31
0.0
  0
ARC
  5
109
330
1F
100
AcDbEntity
  8
0
  6
Continuous
 62
     7
370
    15
100
AcDbCircle
 10
4.5724909067
 20
7.7206390893
 30
0.0
 40
0.0591803813959034
100
AcDbArc
 50
12.1934109243
 51
32.8099629499
  0
ARC
  5
10A
330
1F
100
AcDbEntity
  8
0
  6
Continuous
 62
     7
370
    15
100
AcDbCircle
 10
4.5724907077
 20
7.7206395213
 30
0.0
 40
0.0524929807753801
100
AcDbArc
 50
0.0001862106
 51
10.0315533733
  0
LINE
  5
10B
330
1F
100
AcDbEntity
  8
0
  6
Continuous
 62
     7
370
    15
100
AcDbLine
 10
4.6241811744
 20
7.7099328647
 30
0.0
 11
4.6303361899
 21
7.7081406738
 31
0.0
  0
LINE
  5
10C
330
1F
100
AcDbEntity
  8
0
  6
Continuous
 62
     7
370
    15
100
AcDbLine
 10
4.6303361899
 20
7.7081406738
 30
0.0
 11
4.6303361899
 21
7.7065774452
 31
0.0
  0
LINE
  5
10D
330
1F
100
AcDbEntity
  8
0
  6
Continuous
 62
     7
370
    15
100
AcDbLine
 10
4.6019535478
 20
7.6756313193
 30
0.0
 11
4.6045527445
 21
7.670896864
 31
0.0
  0
LINE
  5
10E
330
1F
100
AcDbEntity
  8
0
  6
Continuous
 62
     7
370
    15
100
AcDbLine
 10
4.6045527445
 20
7.670896864
 30
0.0
 11
4.6045527445
 21
7.6693336354
 31
0.0
  0
LINE
  5
10F
330
1F
100
AcDbEntity
  8
0
  6
Continuous
 62
     7
370
    15
100
AcDbLine
 10
4.5404146121
 20
7.670896864
 30
0.0
 11
4.5404146121
 21
7.6693336354
 31
0.0
  0
LINE
  5
110
330
1F
100
AcDbEntity
  8
0
  6
Continuous
 62
     7
370
    15
100
AcDbLine
 10
4.5404146121
 20
7.670896864
 30
0.0
 11
4.5430138087
 21
7.6756313193
 31
0.0
  0
ARC
  5
111
330
1F
100
AcDbEntity
  8
0
  6
Continuous
 62
     7
370
    15
100
AcDbCircle
 10
3.4551991759
 20
7.5169707937
 30
0.0
 40
0.0560009390827956
100
AcDbArc
 50
12.6714675494
 51
33.8086533288
  0
LINE
  5
112
330
1F
100
AcDbEntity
  8
0
  6
Continuous
 62
     7
370
    15
100
AcDbLine
 10
3.5098361507
 20
7.5292551807
 30
0.0
 11
3.5033973018
 21
7.5274466137
 31
0.0
  0
LWPOLYLINE
  5
113
330
1F
100
AcDbEntity
  8
0
  6
Continuous
 62
     7
370
    15
100
AcDbPolyline
 90
        3
 70
   128
 43
0.0
 10
3.5033973018
 20
7.5274466137
 10
3.503871653
 20
7.5249078338
 10
3.5039828617
 20
7.5241759298
  0
LINE
  5
114
330
1F
100
AcDbEntity
  8
0
  6
Continuous
 62
     7
370
    15
100
AcDbLine
 10
3.4644836746
 20
7.4613952917
 30
0.0
 11
3.4657615665
 21
7.4616759351
 31
0.0
  0
LINE
  5
115
330
1F
100
AcDbEntity
  8
0
  6
Continuous
 62
     7
370
    15
100
AcDbLine
 10
3.4644836746
 20
7.4613952917
 30
0.0
 11
3.4643989389
 21
7.4616759351
 31
0.0
  0
LINE
  5
116
330
1F
100
AcDbEntity
  8
0
  6
Continuous
 62
     7
370
    15
100
AcDbLine
 10
3.4399196384
 20
7.4628394192
 30
0.0
 11
3.4394836768
 21
7.4613952917
 31
0.0
  0
ARC
  5
117
330
1F
100
AcDbEntity
  8
0
  6
Continuous
 62
     7
370
    15
100
AcDbCircle
 10
3.4517642858
 20
7.5205313189
 30
0.0
 40
0.0603977074787457
100
AcDbArc
 50
238.1745983622
 51
258.2682987712
  0
LINE
  5
118
330
1F
100
AcDbEntity
  8
0
  6
Continuous
 62
     7
370
    15
100
AcDbLine
 10
3.4199146095
 20
7.4692138639
 30
0.0
 11
3.4231417889
 21
7.4748843809
 31
0.0
  0
ARC
  5
119
330
1F
100
AcDbEntity
  8
0
  6
Continuous
 62
     7
370
    15
100
AcDbCircle
 10
3.4507185468
 20
7.5185099561
 30
0.0
 40
0.0516107390798928
100
AcDbArc
 50
214.3644434041
 51
237.7020511404
  0
LINE
  5
11A
330
1F
100
AcDbEntity
  8
0
  6
Continuous
 62
     7
370
    15
100
AcDbLine
 10
3.4081157425
 20
7.4893780243
 30
0.0
 11
3.4022369704
 21
7.4862652161
 31
0.0
  0
ARC
  5
11B
330
1F
100
AcDbEntity
  8
0
  6
Continuous
 62
     7
370
    15
100
AcDbCircle
 10
3.4487693569
 20
7.5174259343
 30
0.0
 40
0.0560022620853632
100
AcDbArc
 50
192.6718065334
 51
213.8085022824
  0
LINE
  5
11C
330
1F
100
AcDbEntity
  8
0
  6
Continuous
 62
     7
370
    15
100
AcDbLine
 10
3.394131164
 20
7.5051409338
 30
0.0
 11
3.4005700496
 21
7.5069495055
 31
0.0
  0
ARC
  5
11D
330
1F
100
AcDbEntity
  8
0
  6
Continuous
 62
     7
370
    15
100
AcDbCircle
 10
3.4483744479
 20
7.5171980596
 30
0.0
 40
0.0488906264557466
100
AcDbArc
 50
167.8997947482
 51
192.1002052518
  0
LINE
  5
11E
330
1F
100
AcDbEntity
  8
0
  6
Continuous
 62
     7
370
    15
100
AcDbLine
 10
3.4005700496
 20
7.5274466137
 30
0.0
 11
3.394131164
 21
7.5292551807
 31
0.0
  0
ARC
  5
11F
330
1F
100
AcDbEntity
  8
0
  6
Continuous
 62
     7
370
    15
100
AcDbCircle
 10
3.448769323
 20
7.5169701948
 30
0.0
 40
0.0560022258103283
100
AcDbArc
 50
146.1914907933
 51
167.3282003909
  0
LINE
  5
120
330
1F
100
AcDbEntity
  8
0
  6
Continuous
 62
     7
370
    15
100
AcDbLine
 10
3.4022369704
 20
7.5481308985
 30
0.0
 11
3.4081157425
 21
7.5450180857
 31
0.0
  0
ARC
  5
121
330
1F
100
AcDbEntity
  8
0
  6
Continuous
 62
     7
370
    15
100
AcDbCircle
 10
3.4507185522
 20
7.5158861621
 30
0.0
 40
0.0516107389334039
100
AcDbArc
 50
122.2979560759
 51
145.6355674863
  0
LINE
  5
122
330
1F
100
AcDbEntity
  8
0
  6
Continuous
 62
     7
370
    15
100
AcDbLine
 10
3.4231417889
 20
7.5595117337
 30
0.0
 11
3.4199146095
 21
7.5651822461
 31
0.0
  0
LWPOLYLINE
  5
123
330
1F
100
AcDbEntity
  8
0
  6
Continuous
 62
     7
370
    15
100
AcDbPolyline
 90
        3
 70
   128
 43
0.0
 10
3.4236100901
 20
7.5673009316
 10
3.4221837
 20
7.5665244827
 10
3.4199146095
 20
7.5651822461
  0
LINE
  5
124
330
1F
100
AcDbEntity
  8
0
  6
Continuous
 62
     7
370
    15
100
AcDbLine
 10
3.4412044602
 20
7.5673009316
 30
0.0
 11
3.4413586784
 21
7.5667900792
 31
0.0
  0
LWPOLYLINE
  5
125
330
1F
100
AcDbEntity
  8
0
  6
Continuous
 62
     7
370
    15
100
AcDbPolyline
 90
        3
 70
   128
 43
0.0
 10
3.4413586784
 20
7.5667900792
 10
3.4439906914
 20
7.5672476395
 10
3.4443580138
 20
7.5673009316
  0
LWPOLYLINE
  5
126
330
1F
100
AcDbEntity
  8
0
  6
Continuous
 62
     7
370
    15
100
AcDbPolyline
 90
        3
 70
   128
 43
0.0
 10
3.4596093376
 20
7.5673009316
 10
3.45997666
 20
7.5672476395
 10
3.462608673
 20
7.5667900792
  0
LINE
  5
127
330
1F
100
AcDbEntity
  8
0
  6
Continuous
 62
     7
370
    15
100
AcDbLine
 10
3.462608673
 20
7.5667900792
 30
0.0
 11
3.4627628912
 21
7.5673009316
 31
0.0
  0
LWPOLYLINE
  5
128
330
1F
100
AcDbEntity
  8
0
  6
Continuous
 62
     7
370
    15
100
AcDbPolyline
 90
        3
 70
   128
 43
0.0
 10
3.4840527419
 20
7.5651822461
 10
3.4817836514
 20
7.5665244827
 10
3.4803572613
 20
7.5673009316
  0
LINE
  5
129
330
1F
100
AcDbEntity
  8
0
  6
Continuous
 62
     7
370
    15
100
AcDbLine
 10
3.4840527419
 20
7.5651822461
 30
0.0
 11
3.4808255625
 21
7.5595117337
 31
0.0
  0
ARC
  5
12A
330
1F
100
AcDbEntity
  8
0
  6
Continuous
 62
     7
370
    15
100
AcDbCircle
 10
3.4532487992
 20
7.5158861621
 30
0.0
 40
0.0516107389334114
100
AcDbArc
 50
34.3644325137
 51
57.7020439241
  0
LINE
  5
12B
330
1F
100
AcDbEntity
  8
0
  6
Continuous
 62
     7
370
    15
100
AcDbLine
 10
3.4958516089
 20
7.5450180857
 30
0.0
 11
3.501730381
 21
7.5481308985
 31
0.0
  0
LINE
  5
12C
330
1F
100
AcDbEntity
  8
0
  6
Continuous
 62
     7
370
    15
100
AcDbLine
 10
3.4199146095
 20
7.5673009316
 30
0.0
 11
3.4199146095
 21
7.5651822461
 31
0.0
  0
LINE
  5
12D
330
1F
100
AcDbEntity
  8
0
  6
Continuous
 62
     7
370
    15
100
AcDbLine
 10
3.4413586784
 20
7.5673009316
 30
0.0
 11
3.4413586784
 21
7.5667900792
 31
0.0
  0
LINE
  5
12E
330
1F
100
AcDbEntity
  8
0
  6
Continuous
 62
     7
370
    15
100
AcDbLine
 10
3.462608673
 20
7.5673009316
 30
0.0
 11
3.462608673
 21
7.5667900792
 31
0.0
  0
LINE
  5
12F
330
1F
100
AcDbEntity
  8
0
  6
Continuous
 62
     7
370
    15
100
AcDbLine
 10
3.4840527419
 20
7.5673009316
 30
0.0
 11
3.4840527419
 21
7.5651822461
 31
0.0
  0
LINE
  5
130
330
1F
100
AcDbEntity
  8
0
  6
Continuous
 62
     7
370
    15
100
AcDbLine
 10
3.4081157425
 20
7.5673009316
 30
0.0
 11
3.4081157425
 21
7.5450180857
 31
0.0
  0
LINE
  5
131
330
1F
100
AcDbEntity
  8
0
  6
Continuous
 62
     7
370
    15
100
AcDbLine
 10
3.4958516089
 20
7.5673009316
 30
0.0
 11
3.4958516089
 21
7.5450180857
 31
0.0
  0
LINE
  5
132
330
1F
100
AcDbEntity
  8
0
  6
Continuous
 62
     7
370
    15
100
AcDbLine
 10
3.501730381
 20
7.5673009316
 30
0.0
 11
3.501730381
 21
7.5481308985
 31
0.0
  0
LINE
  5
133
330
1F
100
AcDbEntity
  8
0
  6
Continuous
 62
     7
370
    15
100
AcDbLine
 10
3.4022369704
 20
7.5811093265
 30
0.0
 11
3.4022369704
 21
7.5481308985
 31
0.0
  0
LINE
  5
134
330
1F
100
AcDbEntity
  8
0
  6
Continuous
 62
     7
370
    15
100
AcDbLine
 10
3.4022369704
 20
7.5811093265
 30
0.0
 11
3.407608685
 21
7.5782650137
 31
0.0
  0
LINE
  5
135
330
1F
100
AcDbEntity
  8
0
  6
Continuous
 62
     7
370
    15
100
AcDbLine
 10
3.394131164
 20
7.562233611
 30
0.0
 11
3.394131164
 21
7.5292551807
 31
0.0
  0
ARC
  5
136
330
1F
100
AcDbEntity
  8
0
  6
Continuous
 62
     7
370
    15
100
AcDbCircle
 10
3.44876927
 20
7.549948644
 30
0.0
 40
0.0560021699544387
100
AcDbArc
 50
146.1914787051
 51
167.328207435
  0
LINE
  5
137
330
1F
100
AcDbEntity
  8
0
  6
Continuous
 62
     7
370
    15
100
AcDbLine
 10
3.5098361507
 20
7.562233611
 30
0.0
 11
3.5098361507
 21
7.5292551807
 31
0.0
  0
ARC
  5
138
330
1F
100
AcDbEntity
  8
0
  6
Continuous
 62
     7
370
    15
100
AcDbCircle
 10
3.4556563568
 20
7.5500927982
 30
0.0
 40
0.0555234131415188
100
AcDbArc
 50
12.6304074639
 51
18.054753697
  0
LINE
  5
139
330
1F
100
AcDbEntity
  8
0
  6
Continuous
 62
     7
370
    15
100
AcDbLine
 10
3.394131164
 20
7.5292551807
 30
0.0
 11
3.394131164
 21
7.5051409338
 31
0.0
  0
LINE
  5
13A
330
1F
100
AcDbEntity
  8
0
  6
Continuous
 62
     7
370
    15
100
AcDbLine
 10
3.5098361507
 20
7.5292551807
 30
0.0
 11
3.5098361507
 21
7.5241759298
 31
0.0
  0
LINE
  5
13B
330
1F
100
AcDbEntity
  8
0
  6
Continuous
 62
     7
370
    15
100
AcDbLine
 10
3.4199146095
 20
7.4771036602
 30
0.0
 11
3.4199146095
 21
7.4692138639
 31
0.0
  0
LINE
  5
13C
330
1F
100
AcDbEntity
  8
0
  6
Continuous
 62
     7
370
    15
100
AcDbLine
 10
3.5256804777
 20
7.5242384366
 30
0.0
 11
3.5256804777
 21
7.4616134283
 31
0.0
  0
LINE
  5
13D
330
1F
100
AcDbEntity
  8
0
  6
Continuous
 62
     7
370
    15
100
AcDbLine
 10
3.5291445577
 20
7.5182384275
 30
0.0
 11
3.5291445577
 21
7.4676134282
 31
0.0
  0
LINE
  5
13E
330
1F
100
AcDbEntity
  8
0
  6
Continuous
 62
     7
370
    15
100
AcDbLine
 10
3.5244836915
 20
7.5241759298
 30
0.0
 11
3.5244836915
 21
7.4616759351
 31
0.0
  0
ARC
  5
13F
330
1F
100
AcDbEntity
  8
0
  6
Continuous
 62
     7
370
    15
100
AcDbCircle
 10
3.4521114215
 20
7.5090139326
 30
0.0
 40
0.0313956872047678
100
AcDbArc
 50
28.8771029468
 51
178.0637473167
  0
LWPOLYLINE
  5
140
330
1F
100
AcDbEntity
  8
0
  6
Continuous
 62
     7
370
    15
100
AcDbPolyline
 90
       19
 70
   128
 43
0.0
 10
3.4204619265
 20
7.4878214139
 10
3.4172635301
 20
7.4928094255
 10
3.4145034787
 20
7.4994594536
 10
3.4130980616
 20
7.5064931482
 10
3.4130980616
 20
7.5136562838
 10
3.4145034787
 20
7.5206899784
 10
3.4172635301
 20
7.5273400066
 10
3.4212784837
 20
7.5333660257
 10
3.4264031779
 20
7.5385502337
 10
3.4324524113
 20
7.5427052616
 10
3.43920758
 20
7.545680938
 10
3.4464244866
 20
7.5473697118
 10
3.4538423609
 20
7.5477105521
 10
3.461193026
 20
7.5466911297
 10
3.4682108349
 20
7.5443482943
 10
3.4746421673
 20
7.5407667265
 10
3.4802545224
 20
7.5360758673
 10
3.4848451361
 20
7.5304452569
 10
3.4882073939
 20
7.5241759298
  0
LINE
  5
141
330
1F
100
AcDbEntity
  8
0
  6
Continuous
 62
     7
370
    15
100
AcDbLine
 10
4.4987868763
 20
7.6866134275
 30
0.0
 11
4.4987868763
 21
7.749235979
 31
0.0
  0
LINE
  5
142
330
1F
100
AcDbEntity
  8
0
  6
Continuous
 62
     7
370
    15
100
AcDbLine
 10
4.4953227963
 20
7.6926134365
 30
0.0
 11
4.4953227963
 21
7.7432364558
 31
0.0
  0
LINE
  5
143
330
1F
100
AcDbEntity
  8
0
  6
Continuous
 62
     7
370
    15
100
AcDbLine
 10
4.4999836624
 20
7.6866759342
 30
0.0
 11
4.4999836624
 21
7.7491734906
 31
0.0
  0
ELLIPSE
  5
144
330
1F
100
AcDbEntity
  8
0
  6
Continuous
 62
     7
370
    15
100
AcDbEllipse
 10
4.572483677
 20
7.717925932
 30
0.0
 11
0.0468726562523285
 21
-0.0007032588085804649
 31
0.0
210
0.0
220
0.0
230
1.0
 40
0.6665311576
 41
1.580796363494781
 42
1.593302508624046
  0
ELLIPSE
  5
145
330
1F
100
AcDbEntity
  8
0
  6
Continuous
 62
     7
370
    15
100
AcDbEllipse
 10
4.572483677
 20
7.717925932
 30
0.0
 11
-0.0002605175286847227
 21
0.03124972859204522
 31
0.0
210
0.0
220
0.0
230
1.0
 40
0.4999348389
 41
3.124918759155479
 42
6.266511412745301
  0
ELLIPSE
  5
146
330
1F
100
AcDbEntity
  8
0
  6
Continuous
 62
     7
370
    15
100
AcDbEllipse
 10
4.572483677
 20
7.717925932
 30
0.0
 11
0.02226912347903021
 21
-0.02206123276962924
 31
0.0
210
0.0
220
0.0
230
1.0
 40
0.9937658804
 41
5.489971032276663
 42
8.631563685866443
  0
ARC
  5
147
330
1F
100
AcDbEntity
  8
0
  6
Continuous
 62
     7
370
    15
100
AcDbCircle
 10
4.5724841964
 20
7.7187370629
 30
0.0
 40
0.0312494975647395
100
AcDbArc
 50
0.0032088516
 51
103.0788988514
  0
ELLIPSE
  5
148
330
1F
100
AcDbEntity
  8
0
  6
Continuous
 62
     7
370
    15
100
AcDbEllipse
 10
4.572483677
 20
7.717925932
 30
0.0
 11
-0.02224626665924134
 21
0.0223624885838154
 31
0.0
210
0.0
220
0.0
230
1.0
 40
0.9814155113
 41
5.491013043148123
 42
5.523752058340735
  0
ARC
  5
149
330
1F
100
AcDbEntity
  8
0
  6
Continuous
 62
     7
370
    15
100
AcDbCircle
 10
4.5724837023
 20
7.7187389388
 30
0.0
 40
0.039060551538682
100
AcDbArc
 50
235.1703601363
 51
128.8102537218
  0
ARC
  5
14A
330
1F
100
AcDbEntity
  8
0
  6
Continuous
 62
     7
370
    15
100
AcDbCircle
 10
3.4551192282
 20
7.7075832921
 30
0.0
 40
0.0304467457031549
100
AcDbArc
 50
162.8786738854
 51
184.8525562691
  0
LINE
  5
14B
330
1F
100
AcDbEntity
  8
0
  6
Continuous
 62
     7
370
    15
100
AcDbLine
 10
3.4197756444
 20
7.7178160612
 30
0.0
 11
3.4260217756
 21
7.7165466942
 31
0.0
  0
ARC
  5
14C
330
1F
100
AcDbEntity
  8
0
  6
Continuous
 62
     7
370
    15
100
AcDbCircle
 10
3.4610281246
 20
7.7039321102
 30
0.0
 40
0.0435262129713978
100
AcDbArc
 50
117.2418057691
 51
161.3988053809
  0
LINE
  5
14D
330
1F
100
AcDbEntity
  8
0
  6
Continuous
 62
     7
370
    15
100
AcDbLine
 10
3.4447034831
 20
7.7382817647
 30
0.0
 11
3.4411041414
 21
7.7426305095
 31
0.0
  0
ARC
  5
14E
330
1F
100
AcDbEntity
  8
0
  6
Continuous
 62
     7
370
    15
100
AcDbCircle
 10
3.4689921921
 20
7.6937476273
 30
0.0
 40
0.0507270222299522
100
AcDbArc
 50
102.991952225
 51
118.60784319
  0
LINE
  5
14F
330
1F
100
AcDbEntity
  8
0
  6
Continuous
 62
     7
370
    15
100
AcDbLine
 10
3.4558141614
 20
7.7482182891
 30
0.0
 11
3.4575880376
 21
7.7431761215
 31
0.0
  0
ARC
  5
150
330
1F
100
AcDbEntity
  8
0
  6
Continuous
 62
     7
370
    15
100
AcDbCircle
 10
3.4700781038
 20
7.687257356
 30
0.0
 40
0.0626074709673758
100
AcDbArc
 50
68.6678417969
 51
103.1694256709
  0
LINE
  5
151
330
1F
100
AcDbEntity
  8
0
  6
Continuous
 62
     7
370
    15
100
AcDbLine
 10
3.4900305862
 20
7.7408612166
 30
0.0
 11
3.4928530802
 21
7.7455754138
 31
0.0
  0
ARC
  5
152
330
1F
100
AcDbEntity
  8
0
  6
Continuous
 62
     7
370
    15
100
AcDbCircle
 10
3.4729405784
 20
7.6973863246
 30
0.0
 40
0.0467133235757795
100
AcDbArc
 50
52.0392607379
 51
68.5401787333
  0
LINE
  5
153
330
1F
100
AcDbEntity
  8
0
  6
Continuous
 62
     7
370
    15
100
AcDbLine
 10
3.5061471967
 20
7.737989434
 30
0.0
 11
3.5016749417
 21
7.7342166242
 31
0.0
  0
ARC
  5
154
330
1F
100
AcDbEntity
  8
0
  6
Continuous
 62
     7
370
    15
100
AcDbCircle
 10
3.4825082829
 20
7.7062405896
 30
0.0
 40
0.0395826648911876
100
AcDbArc
 50
6.224197168
 51
53.3301115396
  0
LINE
  5
155
330
1F
100
AcDbEntity
  8
0
  6
Continuous
 62
     7
370
    15
100
AcDbLine
 10
3.515435746
 20
7.7101666579
 30
0.0
 11
3.5218576185
 21
7.7105321103
 31
0.0
  0
ARC
  5
156
330
1F
100
AcDbEntity
  8
0
  6
Continuous
 62
     7
370
    15
100
AcDbCircle
 10
3.485098069
 20
7.7075911174
 30
0.0
 40
0.0304468069932076
100
AcDbArc
 50
342.8786962775
 51
4.852533877
  0
LINE
  5
157
330
1F
100
AcDbEntity
  8
0
  6
Continuous
 62
     7
370
    15
100
AcDbLine
 10
3.5204417149
 20
7.6973583508
 30
0.0
 11
3.5141955837
 21
7.6986277087
 31
0.0
  0
ARC
  5
158
330
1F
100
AcDbEntity
  8
0
  6
Continuous
 62
     7
370
    15
100
AcDbCircle
 10
3.4835897557
 20
7.708836094
 30
0.0
 40
0.0385979984428664
100
AcDbArc
 50
323.820293304
 51
342.7005157817
  0
ARC
  5
159
330
1F
100
AcDbEntity
  8
0
  6
Continuous
 62
     7
370
    15
100
AcDbCircle
 10
3.4554407151
 20
7.7081725536
 30
0.0
 40
0.0372486429297125
100
AcDbArc
 50
185.4384021395
 51
216.4335935617
  0
LINE
  5
15A
330
1F
100
AcDbEntity
  8
0
  6
Continuous
 62
     7
370
    15
100
AcDbLine
 10
3.4247816133
 20
7.705007745
 30
0.0
 11
3.4183597408
 21
7.7046422925
 31
0.0
  0
LINE
  5
15B
330
1F
100
AcDbEntity
  8
0
  6
Continuous
 62
     7
370
    15
100
AcDbLine
 10
3.4928530802
 20
7.7455754138
 30
0.0
 11
3.4928530802
 21
7.8180440892
 31
0.0
  0
LINE
  5
15C
330
1F
100
AcDbEntity
  8
0
  6
Continuous
 62
     7
370
    15
100
AcDbLine
 10
3.4558141614
 20
7.7482182891
 30
0.0
 11
3.4558141614
 21
7.8206869553
 31
0.0
  0
ARC
  5
15D
330
1F
100
AcDbEntity
  8
0
  6
Continuous
 62
     7
370
    15
100
AcDbCircle
 10
3.4700781226
 20
7.7597260835
 30
0.0
 40
0.0626074154814156
100
AcDbArc
 50
68.6678404496
 51
103.1694552342
  0
LINE
  5
15E
330
1F
100
AcDbEntity
  8
0
  6
Continuous
 62
     7
370
    15
100
AcDbLine
 10
3.4447034831
 20
7.7382817647
 30
0.0
 11
3.4447034831
 21
7.8107504401
 31
0.0
  0
ARC
  5
15F
330
1F
100
AcDbEntity
  8
0
  6
Continuous
 62
     7
370
    15
100
AcDbCircle
 10
3.4687766847
 20
7.7667171962
 30
0.0
 40
0.0501841170373925
100
AcDbArc
 50
104.9691737012
 51
118.6656551058
  0
LINE
  5
160
330
1F
100
AcDbEntity
  8
0
  6
Continuous
 62
     7
370
    15
100
AcDbLine
 10
3.4411041414
 20
7.7426305095
 30
0.0
 11
3.4411041414
 21
7.8150991848
 31
0.0
  0
LINE
  5
161
330
1F
100
AcDbEntity
  8
0
  6
Continuous
 62
     7
370
    15
100
AcDbLine
 10
3.4197756444
 20
7.7178160612
 30
0.0
 11
3.4197756444
 21
7.7902847365
 31
0.0
  0
ARC
  5
162
330
1F
100
AcDbEntity
  8
0
  6
Continuous
 62
     7
370
    15
100
AcDbCircle
 10
3.4610281246
 20
7.7764007856
 30
0.0
 40
0.0435262129714032
100
AcDbArc
 50
117.2418057692
 51
161.3988053809
  0
LINE
  5
163
330
1F
100
AcDbEntity
  8
0
  6
Continuous
 62
     7
370
    15
100
AcDbLine
 10
3.4447034831
 20
7.8107504401
 30
0.0
 11
3.4411041414
 21
7.8150991848
 31
0.0
  0
LINE
  5
164
330
1F
100
AcDbEntity
  8
0
  6
Continuous
 62
     7
370
    15
100
AcDbLine
 10
3.5016749417
 20
7.7342166242
 30
0.0
 11
3.5016749417
 21
7.8066852904
 31
0.0
  0
ARC
  5
165
330
1F
100
AcDbEntity
  8
0
  6
Continuous
 62
     7
370
    15
100
AcDbCircle
 10
3.4732541898
 20
7.7703212553
 30
0.0
 40
0.04615281342357
100
AcDbArc
 50
51.9901645848
 51
64.8713537215
  0
LINE
  5
166
330
1F
100
AcDbEntity
  8
0
  6
Continuous
 62
     7
370
    15
100
AcDbLine
 10
3.5061471967
 20
7.737989434
 30
0.0
 11
3.5061471967
 21
7.8104581001
 31
0.0
  0
LINE
  5
167
330
1F
100
AcDbEntity
  8
0
  6
Continuous
 62
     7
370
    15
100
AcDbLine
 10
3.5061471967
 20
7.8104581001
 30
0.0
 11
3.5016749417
 21
7.8066852904
 31
0.0
  0
LINE
  5
168
330
1F
100
AcDbEntity
  8
0
  6
Continuous
 62
     7
370
    15
100
AcDbLine
 10
3.5218576185
 20
7.7105321103
 30
0.0
 11
3.5218576185
 21
7.7830007856
 31
0.0
  0
ARC
  5
169
330
1F
100
AcDbEntity
  8
0
  6
Continuous
 62
     7
370
    15
100
AcDbCircle
 10
3.4825082895
 20
7.7787092581
 30
0.0
 40
0.0395826590623935
100
AcDbArc
 50
6.2242080171
 51
53.3301171811
  0
LINE
  5
16A
330
1F
100
AcDbEntity
  8
0
  6
Continuous
 62
     7
370
    15
100
AcDbLine
 10
3.4183597408
 20
7.7046422925
 30
0.0
 11
3.4183597408
 21
7.7771109587
 31
0.0
  0
LINE
  5
16B
330
1F
100
AcDbEntity
  8
0
  6
Continuous
 62
     7
370
    15
100
AcDbLine
 10
3.4197756444
 20
7.7771915328
 30
0.0
 11
3.4183597408
 21
7.7771109587
 31
0.0
  0
LINE
  5
16C
330
1F
100
AcDbEntity
  8
0
  6
Continuous
 62
     7
370
    15
100
AcDbLine
 10
3.5204417149
 20
7.6973583508
 30
0.0
 11
3.5204417149
 21
7.7104515362
 31
0.0
  0
ARC
  5
16D
330
1F
100
AcDbEntity
  8
0
  6
Continuous
 62
     7
370
    15
100
AcDbCircle
 10
4.5613530876
 20
7.5296964449
 30
0.0
 40
0.0448928170908462
100
AcDbArc
 50
331.5727865363
 51
353.7395093087
  0
LINE
  5
16E
330
1F
100
AcDbEntity
  8
0
  6
Continuous
 62
     7
370
    15
100
AcDbLine
 10
4.5950655741
 20
7.5109573092
 30
0.0
 11
4.6008328441
 21
7.5083255804
 31
0.0
  0
ARC
  5
16F
330
1F
100
AcDbEntity
  8
0
  6
Continuous
 62
     7
370
    15
100
AcDbCircle
 10
4.5580976033
 20
7.5309760776
 30
0.0
 40
0.0420402420705024
100
AcDbArc
 50
313.1233443649
 51
331.5637212246
  0
LINE
  5
170
330
1F
100
AcDbEntity
  8
0
  6
Continuous
 62
     7
370
    15
100
AcDbLine
 10
4.5914363126
 20
7.4961487669
 30
0.0
 11
4.5868351025
 21
7.5002915849
 31
0.0
  0
ARC
  5
171
330
1F
100
AcDbEntity
  8
0
  6
Continuous
 62
     7
370
    15
100
AcDbCircle
 10
4.5548358299
 20
7.5357358536
 30
0.0
 40
0.0539141240212552
100
AcDbArc
 50
272.9775877991
 51
312.7551163206
  0
LINE
  5
172
330
1F
100
AcDbEntity
  8
0
  6
Continuous
 62
     7
370
    15
100
AcDbLine
 10
4.5572296778
 20
7.4878062433
 30
0.0
 11
4.5576364164
 21
7.4818945174
 31
0.0
  0
ARC
  5
173
330
1F
100
AcDbEntity
  8
0
  6
Continuous
 62
     7
370
    15
100
AcDbCircle
 10
4.5543563256
 20
7.5369491548
 30
0.0
 40
0.0492268413656002
100
AcDbArc
 50
256.7532727094
 51
273.3462350244
  0
LINE
  5
174
330
1F
100
AcDbEntity
  8
0
  6
Continuous
 62
     7
370
    15
100
AcDbLine
 10
4.5414777864
 20
7.4832940771
 30
0.0
 11
4.5430762513
 21
7.4890321241
 31
0.0
  0
ARC
  5
175
330
1F
100
AcDbEntity
  8
0
  6
Continuous
 62
     7
370
    15
100
AcDbCircle
 10
4.5529599281
 20
7.5339704017
 30
0.0
 40
0.0519608454567523
100
AcDbArc
 50
216.4469498539
 51
257.2335880465
  0
LINE
  5
176
330
1F
100
AcDbEntity
  8
0
  6
Continuous
 62
     7
370
    15
100
AcDbLine
 10
4.5165227781
 20
7.5063816003
 30
0.0
 11
4.5111622466
 21
7.5031015941
 31
0.0
  0
ARC
  5
177
330
1F
100
AcDbEntity
  8
0
  6
Continuous
 62
     7
370
    15
100
AcDbCircle
 10
4.549168451
 20
7.5300625742
 30
0.0
 40
0.0403302428347367
100
AcDbArc
 50
196.9969636383
 51
215.9569044238
  0
LINE
  5
178
330
1F
100
AcDbEntity
  8
0
  6
Continuous
 62
     7
370
    15
100
AcDbLine
 10
4.5044001481
 20
7.5166779764
 30
0.0
 11
4.5105998231
 21
7.5182731963
 31
0.0
  0
LWPOLYLINE
  5
179
330
1F
100
AcDbEntity
  8
0
  6
Continuous
 62
     7
370
    15
100
AcDbPolyline
 90
        3
 70
   128
 43
0.0
 10
4.5027391673
 20
7.5248009334
 10
4.5033314371
 20
7.5209382364
 10
4.5044001481
 20
7.5166779764
  0
LINE
  5
17A
330
1F
100
AcDbEntity
  8
0
  6
Continuous
 62
     7
370
    15
100
AcDbLine
 10
4.5111622466
 20
7.5031015941
 30
0.0
 11
4.5111622466
 21
7.4541600153
 31
0.0
  0
LINE
  5
17B
330
1F
100
AcDbEntity
  8
0
  6
Continuous
 62
     7
370
    15
100
AcDbLine
 10
4.5414777864
 20
7.4832940771
 30
0.0
 11
4.5414777864
 21
7.4343524983
 31
0.0
  0
ARC
  5
17C
330
1F
100
AcDbEntity
  8
0
  6
Continuous
 62
     7
370
    15
100
AcDbCircle
 10
4.5529599835
 20
7.4850289078
 30
0.0
 40
0.0519609404858245
100
AcDbArc
 50
216.4469888095
 51
257.233549091
  0
LINE
  5
17D
330
1F
100
AcDbEntity
  8
0
  6
Continuous
 62
     7
370
    15
100
AcDbLine
 10
4.5576364164
 20
7.4818945174
 30
0.0
 11
4.5576364164
 21
7.4329529478
 31
0.0
  0
LINE
  5
17E
330
1F
100
AcDbEntity
  8
0
  6
Continuous
 62
     7
370
    15
100
AcDbLine
 10
4.5914363126
 20
7.4961487669
 30
0.0
 11
4.5914363126
 21
7.4472071881
 31
0.0
  0
ARC
  5
17F
330
1F
100
AcDbEntity
  8
0
  6
Continuous
 62
     7
370
    15
100
AcDbCircle
 10
4.5548358787
 20
7.4867941938
 30
0.0
 40
0.0539140314773271
100
AcDbArc
 50
272.9775410396
 51
312.7551366954
  0
LINE
  5
180
330
1F
100
AcDbEntity
  8
0
  6
Continuous
 62
     7
370
    15
100
AcDbLine
 10
4.5572296778
 20
7.4878062433
 30
0.0
 11
4.5572296778
 21
7.4388646645
 31
0.0
  0
LINE
  5
181
330
1F
100
AcDbEntity
  8
0
  6
Continuous
 62
     7
370
    15
100
AcDbLine
 10
4.5572296778
 20
7.4388646645
 30
0.0
 11
4.5576364164
 21
7.4329529478
 31
0.0
  0
LINE
  5
182
330
1F
100
AcDbEntity
  8
0
  6
Continuous
 62
     7
370
    15
100
AcDbLine
 10
4.5430762513
 20
7.4890321241
 30
0.0
 11
4.5430762513
 21
7.4400905453
 31
0.0
  0
ARC
  5
183
330
1F
100
AcDbEntity
  8
0
  6
Continuous
 62
     7
370
    15
100
AcDbCircle
 10
4.5543562669
 20
7.4880068977
 30
0.0
 40
0.0492261676248304
100
AcDbArc
 50
256.7531583581
 51
273.3463493757
  0
LINE
  5
184
330
1F
100
AcDbEntity
  8
0
  6
Continuous
 62
     7
370
    15
100
AcDbLine
 10
4.5414777864
 20
7.4343524983
 30
0.0
 11
4.5430762513
 21
7.4400905453
 31
0.0
  0
LINE
  5
185
330
1F
100
AcDbEntity
  8
0
  6
Continuous
 62
     7
370
    15
100
AcDbLine
 10
4.5950655741
 20
7.5109573092
 30
0.0
 11
4.5950655741
 21
7.4620157304
 31
0.0
  0
ARC
  5
186
330
1F
100
AcDbEntity
  8
0
  6
Continuous
 62
     7
370
    15
100
AcDbCircle
 10
4.5587549161
 20
7.4816072967
 30
0.0
 40
0.0412588578969701
100
AcDbArc
 50
322.3827757925
 51
331.650735275
  0
LINE
  5
187
330
1F
100
AcDbEntity
  8
0
  6
Continuous
 62
     7
370
    15
100
AcDbLine
 10
4.5105998231
 20
7.5182731963
 30
0.0
 11
4.5105998231
 21
7.4693316175
 31
0.0
  0
LWPOLYLINE
  5
188
330
1F
100
AcDbEntity
  8
0
  6
Continuous
 62
     7
370
    15
100
AcDbPolyline
 90
        3
 70
   128
 43
0.0
 10
4.5105998231
 20
7.4693316175
 10
4.5111139572
 20
7.4677594882
 10
4.5111622466
 20
7.4676224573
  0
LINE
  5
189
330
1F
100
AcDbEntity
  8
0
  6
Continuous
 62
     7
370
    15
100
AcDbLine
 10
4.6008328441
 20
7.5083255804
 30
0.0
 11
4.6008328441
 21
7.4593840016
 31
0.0
  0
LINE
  5
18A
330
1F
100
AcDbEntity
  8
0
  6
Continuous
 62
     7
370
    15
100
AcDbLine
 10
4.5950655741
 20
7.4620157304
 30
0.0
 11
4.6008328441
 21
7.4593840016
 31
0.0
  0
ARC
  5
18B
330
1F
100
AcDbEntity
  8
0
  6
Continuous
 62
     7
370
    15
100
AcDbCircle
 10
4.5616403058
 20
7.4806564603
 30
0.0
 40
0.0445934138520104
100
AcDbArc
 50
331.5083030093
 51
359.9159939672
  0
LINE
  5
18C
330
1F
100
AcDbEntity
  8
0
  6
Continuous
 62
     7
370
    15
100
AcDbLine
 10
4.5044001481
 20
7.5166779764
 30
0.0
 11
4.5044001481
 21
7.4677363976
 31
0.0
  0
LINE
  5
18D
330
1F
100
AcDbEntity
  8
0
  6
Continuous
 62
     7
370
    15
100
AcDbLine
 10
4.5044001481
 20
7.4677363976
 30
0.0
 11
4.5105998231
 21
7.4693316175
 31
0.0
  0
ARC
  5
18E
330
1F
100
AcDbEntity
  8
0
  6
Continuous
 62
     7
370
    15
100
AcDbCircle
 10
4.5466644058
 20
7.480607668
 30
0.0
 40
0.0441807319909836
100
AcDbArc
 50
180.0215143992
 51
196.9377304878
  0
LINE
  5
18F
330
1F
100
AcDbEntity
  8
0
  6
Continuous
 62
     7
370
    15
100
AcDbLine
 10
3.4740121679
 20
7.7289048956
 30
0.0
 11
3.4740121679
 21
7.7071642976
 31
0.0
  0
LINE
  5
190
330
1F
100
AcDbEntity
  8
0
  6
Continuous
 62
     7
370
    15
100
AcDbLine
 10
3.4740121679
 20
7.7071642976
 30
0.0
 11
3.4334581664
 21
7.6917593605
 31
0.0
  0
LINE
  5
191
330
1F
100
AcDbEntity
  8
0
  6
Continuous
 62
     7
370
    15
100
AcDbLine
 10
3.4334581664
 20
7.7134999677
 30
0.0
 11
3.4334581664
 21
7.6917593605
 31
0.0
  0
LINE
  5
192
330
1F
100
AcDbEntity
  8
0
  6
Continuous
 62
     7
370
    15
100
AcDbLine
 10
3.4740121679
 20
7.7289048956
 30
0.0
 11
3.4334581664
 21
7.7134999677
 31
0.0
  0
ARC
  5
193
330
1F
100
AcDbEntity
  8
0
  6
Continuous
 62
     7
370
    15
100
AcDbCircle
 10
3.4701086797
 20
7.6622078816
 30
0.0
 40
0.0290729654250908
100
AcDbArc
 50
55.0958733816
 51
124.9041266184
  0
LINE
  5
194
330
1F
100
AcDbEntity
  8
0
  6
Continuous
 62
     7
370
    15
100
AcDbLine
 10
3.4334581664
 20
7.6917593605
 30
0.0
 11
3.4328446301
 21
7.6860509306
 31
0.0
  0
LINE
  5
195
330
1F
100
AcDbEntity
  8
0
  6
Continuous
 62
     7
370
    15
100
AcDbLine
 10
3.5106626812
 20
7.6862505233
 30
0.0
 11
3.4740121679
 21
7.7071642976
 31
0.0
  0
LINE
  5
196
330
1F
100
AcDbEntity
  8
0
  6
Continuous
 62
     7
370
    15
100
AcDbLine
 10
3.5106412314
 20
7.6860509306
 30
0.0
 11
3.5106626812
 21
7.6862505233
 31
0.0
  0
LINE
  5
197
330
1F
100
AcDbEntity
  8
0
  6
Continuous
 62
     7
370
    15
100
AcDbLine
 10
3.5106626812
 20
7.7079911213
 30
0.0
 11
3.5106626812
 21
7.6862505233
 31
0.0
  0
LINE
  5
198
330
1F
100
AcDbEntity
  8
0
  6
Continuous
 62
     7
370
    15
100
AcDbLine
 10
3.5106626812
 20
7.7079911213
 30
0.0
 11
3.4740121679
 21
7.7289048956
 31
0.0
  0
ARC
  5
199
330
1F
100
AcDbEntity
  8
0
  6
Continuous
 62
     7
370
    15
100
AcDbCircle
 10
3.4701086797
 20
7.6596981106
 30
0.0
 40
0.0284537938720024
100
AcDbArc
 50
67.8442178039
 51
112.1557821961
  0
ARC
  5
19A
330
1F
100
AcDbEntity
  8
0
  6
Continuous
 62
     7
370
    15
100
AcDbCircle
 10
3.4701086797
 20
7.6613847653
 30
0.0
 40
0.0291987676131283
100
AcDbArc
 50
57.647017179
 51
122.352982821
  0
LINE
  5
19B
330
1F
100
AcDbEntity
  8
0
  6
Continuous
 62
     7
370
    15
100
AcDbLine
 10
3.4334581664
 20
7.7134999677
 30
0.0
 11
3.4305079638
 21
7.6860509306
 31
0.0
  0
LINE
  5
19C
330
1F
100
AcDbEntity
  8
0
  6
Continuous
 62
     7
370
    15
100
AcDbLine
 10
4.5284533869
 20
7.5207758141
 30
0.0
 11
4.5730011123
 21
7.5169173703
 31
0.0
  0
LINE
  5
19D
330
1F
100
AcDbEntity
  8
0
  6
Continuous
 62
     7
370
    15
100
AcDbLine
 10
4.5264485501
 20
7.5248009334
 30
0.0
 11
4.5284533869
 21
7.5207758141
 31
0.0
  0
LINE
  5
19E
330
1F
100
AcDbEntity
  8
0
  6
Continuous
 62
     7
370
    15
100
AcDbLine
 10
4.5730011123
 20
7.5169173703
 30
0.0
 11
4.5790846653
 21
7.5248009334
 31
0.0
  0
LINE
  5
19F
330
1F
100
AcDbEntity
  8
0
  6
Continuous
 62
     7
370
    15
100
AcDbLine
 10
4.5284533869
 20
7.5060933395
 30
0.0
 11
4.5284533869
 21
7.5207758141
 31
0.0
  0
LINE
  5
1A0
330
1F
100
AcDbEntity
  8
0
  6
Continuous
 62
     7
370
    15
100
AcDbLine
 10
4.5730011123
 20
7.5022349049
 30
0.0
 11
4.5730011123
 21
7.5169173703
 31
0.0
  0
LINE
  5
1A1
330
1F
100
AcDbEntity
  8
0
  6
Continuous
 62
     7
370
    15
100
AcDbLine
 10
4.5284533869
 20
7.5060933395
 30
0.0
 11
4.5730011123
 21
7.5022349049
 31
0.0
  0
LINE
  5
1A2
330
1F
100
AcDbEntity
  8
0
  6
Continuous
 62
     7
370
    15
100
AcDbLine
 10
4.5730011123
 20
7.5022349049
 30
0.0
 11
4.5904147544
 21
7.5248009334
 31
0.0
  0
LINE
  5
1A3
330
1F
100
AcDbEntity
  8
0
  6
Continuous
 62
     7
370
    15
100
AcDbLine
 10
4.5191355412
 20
7.5248009334
 30
0.0
 11
4.5284533869
 21
7.5060933395
 31
0.0
  0
LINE
  5
1A4
330
1F
100
AcDbEntity
  8
0
  6
Continuous
 62
     7
370
    15
100
AcDbLine
 10
3.407608685
 20
7.675054376
 30
0.0
 11
3.407608685
 21
7.6860509306
 31
0.0
  0
LINE
  5
1A5
330
1F
100
AcDbEntity
  8
0
  6
Continuous
 62
     7
370
    15
100
AcDbLine
 10
3.407608685
 20
7.5673009316
 30
0.0
 11
3.407608685
 21
7.675054376
 31
0.0
  0
LINE
  5
1A6
330
1F
100
AcDbEntity
  8
0
  6
Continuous
 62
     7
370
    15
100
AcDbLine
 10
4.616858669
 20
7.529541182
 30
0.0
 11
4.616858669
 21
7.5248009334
 31
0.0
  0
LINE
  5
1A7
330
1F
100
AcDbEntity
  8
0
  6
Continuous
 62
     7
370
    15
100
AcDbLine
 10
4.616858669
 20
7.6435509324
 30
0.0
 11
4.616858669
 21
7.529541182
 31
0.0
  0
LINE
  5
1A8
330
1F
100
AcDbEntity
  8
0
  6
Continuous
 62
     7
370
    15
100
AcDbLine
 10
4.012296177
 20
7.4482510944
 30
0.0
 11
4.012171177
 21
7.4482510944
 31
0.0
  0
LINE
  5
1A9
330
1F
100
AcDbEntity
  8
0
  6
Continuous
 62
     7
370
    15
100
AcDbLine
 10
4.0121728817
 20
7.4462305277
 30
0.0
 11
4.012171177
 21
7.4462305277
 31
0.0
  0
LINE
  5
1AA
330
1F
100
AcDbEntity
  8
0
  6
Continuous
 62
     7
370
    15
100
AcDbLine
 10
4.012296177
 20
7.4462305277
 30
0.0
 11
4.0121728817
 21
7.4462305277
 31
0.0
  0
LINE
  5
1AB
330
1F
100
AcDbEntity
  8
0
  6
Continuous
 62
     7
370
    15
100
AcDbLine
 10
3.879733681
 20
7.3056759297
 30
0.0
 11
3.879733681
 21
7.2431759168
 31
0.0
  0
LINE
  5
1AC
330
1F
100
AcDbEntity
  8
0
  6
Continuous
 62
     7
370
    15
100
AcDbLine
 10
3.879733681
 20
7.2431759168
 30
0.0
 11
4.144733673
 21
7.2431759168
 31
0.0
  0
LINE
  5
1AD
330
1F
100
AcDbEntity
  8
0
  6
Continuous
 62
     7
370
    15
100
AcDbLine
 10
4.144733673
 20
7.3056759297
 30
0.0
 11
4.144733673
 21
7.2431759168
 31
0.0
  0
LINE
  5
1AE
330
1F
100
AcDbEntity
  8
0
  6
Continuous
 62
     7
370
    15
100
AcDbLine
 10
4.460608664
 20
7.605425932
 30
0.0
 11
4.460608664
 21
7.9648009471
 31
0.0
  0
LINE
  5
1AF
330
1F
100
AcDbEntity
  8
0
  6
Continuous
 62
     7
370
    15
100
AcDbLine
 10
4.460608664
 20
7.2460509169
 30
0.0
 11
4.460608664
 21
7.605425932
 31
0.0
  0
LINE
  5
1B0
330
1F
100
AcDbEntity
  8
0
  6
Continuous
 62
     7
370
    15
100
AcDbLine
 10
4.3776086828
 20
7.605425932
 30
0.0
 11
4.3776086828
 21
7.9648009471
 31
0.0
  0
LINE
  5
1B1
330
1F
100
AcDbEntity
  8
0
  6
Continuous
 62
     7
370
    15
100
AcDbLine
 10
4.3776086828
 20
7.2460509169
 30
0.0
 11
4.3776086828
 21
7.605425932
 31
0.0
  0
LINE
  5
1B2
330
1F
100
AcDbEntity
  8
0
  6
Continuous
 62
     7
370
    15
100
AcDbLine
 10
4.4918586796
 20
7.605425932
 30
0.0
 11
4.4918586796
 21
7.9335509315
 31
0.0
  0
LINE
  5
1B3
330
1F
100
AcDbEntity
  8
0
  6
Continuous
 62
     7
370
    15
100
AcDbLine
 10
4.4918586796
 20
7.2773009325
 30
0.0
 11
4.4918586796
 21
7.605425932
 31
0.0
  0
LINE
  5
1B4
330
1F
100
AcDbEntity
  8
0
  6
Continuous
 62
     7
370
    15
100
AcDbLine
 10
4.2639955236
 20
7.951052976
 30
0.0
 11
4.2639955236
 21
7.2597988881
 31
0.0
  0
LINE
  5
1B5
330
1F
100
AcDbEntity
  8
0
  6
Continuous
 62
     7
370
    15
100
AcDbLine
 10
4.2484836861
 20
7.605425932
 30
0.0
 11
4.2484836861
 21
7.9312702545
 31
0.0
  0
LINE
  5
1B6
330
1F
100
AcDbEntity
  8
0
  6
Continuous
 62
     7
370
    15
100
AcDbLine
 10
4.2484836861
 20
7.2795816095
 30
0.0
 11
4.2484836861
 21
7.605425932
 31
0.0
  0
LINE
  5
1B7
330
1F
100
AcDbEntity
  8
0
  6
Continuous
 62
     7
370
    15
100
AcDbLine
 10
3.6468586712
 20
7.605425932
 30
0.0
 11
3.6468586712
 21
7.2460509169
 31
0.0
  0
LINE
  5
1B8
330
1F
100
AcDbEntity
  8
0
  6
Continuous
 62
     7
370
    15
100
AcDbLine
 10
3.6468586712
 20
7.9648009471
 30
0.0
 11
3.6468586712
 21
7.605425932
 31
0.0
  0
LINE
  5
1B9
330
1F
100
AcDbEntity
  8
0
  6
Continuous
 62
     7
370
    15
100
AcDbLine
 10
3.7604718304
 20
7.2597988881
 30
0.0
 11
3.7604718304
 21
7.951052976
 31
0.0
  0
LINE
  5
1BA
330
1F
100
AcDbEntity
  8
0
  6
Continuous
 62
     7
370
    15
100
AcDbLine
 10
3.56385869
 20
7.605425932
 30
0.0
 11
3.56385869
 21
7.2460509169
 31
0.0
  0
LINE
  5
1BB
330
1F
100
AcDbEntity
  8
0
  6
Continuous
 62
     7
370
    15
100
AcDbLine
 10
3.56385869
 20
7.9648009471
 30
0.0
 11
3.56385869
 21
7.605425932
 31
0.0
  0
LINE
  5
1BC
330
1F
100
AcDbEntity
  8
0
  6
Continuous
 62
     7
370
    15
100
AcDbLine
 10
3.5326086743
 20
7.605425932
 30
0.0
 11
3.5326086743
 21
7.2773009325
 31
0.0
  0
LINE
  5
1BD
330
1F
100
AcDbEntity
  8
0
  6
Continuous
 62
     7
370
    15
100
AcDbLine
 10
3.5326086743
 20
7.9335509315
 30
0.0
 11
3.5326086743
 21
7.605425932
 31
0.0
  0
LINE
  5
1BE
330
1F
100
AcDbEntity
  8
0
  6
Continuous
 62
     7
370
    15
100
AcDbLine
 10
3.7759836678
 20
7.605425932
 30
0.0
 11
3.7759836678
 21
7.2795816095
 31
0.0
  0
LINE
  5
1BF
330
1F
100
AcDbEntity
  8
0
  6
Continuous
 62
     7
370
    15
100
AcDbLine
 10
3.7759836678
 20
7.9312702545
 30
0.0
 11
3.7759836678
 21
7.605425932
 31
0.0
  0
LINE
  5
1C0
330
1F
100
AcDbEntity
  8
0
  6
Continuous
 62
     7
370
    15
100
AcDbLine
 10
3.9736744199
 20
7.794425932
 30
0.0
 11
4.050792934
 21
7.794425932
 31
0.0
  0
LINE
  5
1C1
330
1F
100
AcDbEntity
  8
0
  6
Continuous
 62
     7
370
    15
100
AcDbLine
 10
4.0049372201
 20
7.7623009314
 30
0.0
 11
4.0195301339
 21
7.7623009314
 31
0.0
  0
SPLINE
  5
1C2
330
1F
100
AcDbEntity
  8
0
  6
Continuous
 62
     7
370
    15
100
AcDbSpline
210
0.0
220
0.0
230
1.0
 70
     8
 71
     3
 72
    31
 73
    27
 74
     0
 42
0.00000001
 43
0.00000001
 12
1.0
 22
0.0
 32
0.0
 13
1.0
 23
0.0
 33
0.0
 40
0.0
 40
0.0
 40
0.0
 40
0.0
 40
0.0436332182657583
 40
0.0865377766972014
 40
0.1291773360898922
 40
0.1714363236638289
 40
0.2134158945709082
 40
0.2552659545538505
 40
0.2973694811566238
 40
0.3399407478985556
 40
0.382347458751812
 40
0.4239529468152709
 40
0.4648711632610174
 40
0.505572294118273
 40
0.5460025771083161
 40
0.5865679748069133
 40
0.6270647991481679
 40
0.6682706840331738
 40
0.7095492248503336
 40
0.7504281535131893
 40
0.7910961944485935
 40
0.8320271447794345
 40
0.8731359553359672
 40
0.9146107643654495
 40
0.9569559864804374
 40
1.0
 40
1.0
 40
1.0
 40
1.0
 10
3.973017164417598
 20
7.664025868359778
 30
0.0
 10
3.973528140805662
 20
7.664032888729682
 30
0.0
 10
3.974541560450724
 20
7.664046812231712
 30
0.0
 10
3.976048903776087
 20
7.66418705116482
 30
0.0
 10
3.977529091428751
 20
7.664411935235846
 30
0.0
 10
3.978980047269959
 20
7.664735720516445
 30
0.0
 10
3.980400124567216
 20
7.665140952425306
 30
0.0
 10
3.981795250499033
 20
7.665622374528467
 30
0.0
 10
3.983150564983
 20
7.666222993825243
 30
0.0
 10
3.98448316567814
 20
7.666886607598307
 30
0.0
 10
3.985758724049834
 20
7.667643119810288
 30
0.0
 10
3.98697639687465
 20
7.668455705765258
 30
0.0
 10
3.988105492011521
 20
7.669355849487194
 30
0.0
 10
3.989174247830788
 20
7.670305440842485
 30
0.0
 10
3.990172706365144
 20
7.671323626492192
 30
0.0
 10
3.99109411568503
 20
7.672409082672113
 30
0.0
 10
3.991935373165236
 20
7.673568660807586
 30
0.0
 10
3.992709978558347
 20
7.674783526594637
 30
0.0
 10
3.993400984237092
 20
7.676053179508928
 30
0.0
 10
3.994003048865877
 20
7.677360236038703
 30
0.0
 10
3.994513827625633
 20
7.67870147771209
 30
0.0
 10
3.994926165447818
 20
7.680078839072749
 30
0.0
 10
3.995249283483069
 20
7.681489704155188
 30
0.0
 10
3.995471924164036
 20
7.68293596205053
 30
0.0
 10
3.995627661832262
 20
7.684414719520946
 30
0.0
 10
3.995639400391044
 20
7.685414893150162
 30
0.0
 10
3.995645317702273
 20
7.685919072475553
 30
0.0
  0
SPLINE
  5
1C3
330
1F
100
AcDbEntity
  8
0
  6
Continuous
 62
     7
370
    15
100
AcDbSpline
210
0.0
220
0.0
230
1.0
 70
     8
 71
     3
 72
    31
 73
    27
 74
     0
 42
0.00000001
 43
0.00000001
 12
1.0
 22
0.0
 32
0.0
 13
1.0
 23
0.0
 33
0.0
 40
0.0
 40
0.0
 40
0.0
 40
0.0
 40
0.0420233285259235
 40
0.0836449111687117
 40
0.1249837954173945
 40
0.1662474611728949
 40
0.2077015560969879
 40
0.2496310707996493
 40
0.2917417703321306
 40
0.3347428753531984
 40
0.3774601685508653
 40
0.4195563188419398
 40
0.4610441763330335
 40
0.5020962839443965
 40
0.5428907140755996
 40
0.583800818626505
 40
0.6248635833101931
 40
0.6662246890691707
 40
0.7073991864779363
 40
0.7485566775366932
 40
0.7896545909521799
 40
0.8307397264898321
 40
0.8720701422586047
 40
0.9139933952421326
 40
0.9564981300675881
 40
1.0
 40
1.0
 40
1.0
 40
1.0
 10
3.973017164417598
 20
7.70775016821086
 30
0.0
 10
3.972526781930426
 20
7.707744190391201
 30
0.0
 10
3.971550705046063
 20
7.707732291900243
 30
0.0
 10
3.970099627307452
 20
7.707575560952177
 30
0.0
 10
3.968667633614636
 20
7.707352182525494
 30
0.0
 10
3.967254428232535
 20
7.707033551888951
 30
0.0
 10
3.965865924179644
 20
7.70659942900417
 30
0.0
 10
3.964489178927313
 20
7.706099800167292
 30
0.0
 10
3.963136746923931
 20
7.705491209953527
 30
0.0
 10
3.961813092946572
 20
7.704803608250162
 30
0.0
 10
3.960529874492171
 20
7.704042537442035
 30
0.0
 10
3.959319034924637
 20
7.703201403464799
 30
0.0
 10
3.958177439597122
 20
7.702299931959683
 30
0.0
 10
3.957107883636782
 20
7.70133601910993
 30
0.0
 10
3.95611350761036
 20
7.700304756145475
 30
0.0
 10
3.955174739943362
 20
7.699221777162331
 30
0.0
 10
3.954329209016528
 20
7.698056127550604
 30
0.0
 10
3.953554309372698
 20
7.696839416240759
 30
0.0
 10
3.952860873863311
 20
7.695573228027759
 30
0.0
 10
3.952244248107141
 20
7.694270893272458
 30
0.0
 10
3.951739848996839
 20
7.692921788599907
 30
0.0
 10
3.951328487499753
 20
7.691540550405198
 30
0.0
 10
3.950987440753583
 20
7.690129366258476
 30
0.0
 10
3.950771384776796
 20
7.688677530938221
 30
0.0
 10
3.950612931692787
 20
7.687192339744839
 30
0.0
 10
3.950601713297064
 20
7.68618865230023
 30
0.0
 10
3.950596039067824
 20
7.685680990350417
 30
0.0
  0
SPLINE
  5
1C4
330
1F
100
AcDbEntity
  8
0
  6
Continuous
 62
     7
370
    15
100
AcDbSpline
210
0.0
220
0.0
230
1.0
 70
     8
 71
     3
 72
    31
 73
    27
 74
     0
 42
0.00000001
 43
0.00000001
 12
1.0
 22
0.0
 32
0.0
 13
1.0
 23
0.0
 33
0.0
 40
0.0
 40
0.0
 40
0.0
 40
0.0
 40
0.04291508210105
 40
0.0851299705846994
 40
0.1264733185549989
 40
0.1674530378853887
 40
0.2079763328949879
 40
0.2482493780637604
 40
0.2887499869834431
 40
0.3296698569108729
 40
0.3705372867119747
 40
0.4111285639171174
 40
0.4518189126736378
 40
0.492405876934264
 40
0.533485861742023
 40
0.5752630624415513
 40
0.6174406128021906
 40
0.6606716882923646
 40
0.7039402042434888
 40
0.7468675221598701
 40
0.7890793003947228
 40
0.8311040424574037
 40
0.8732379898547746
 40
0.9151657696593329
 40
0.9573806581429823
 40
1.0
 40
1.0
 40
1.0
 40
1.0
 10
3.995645317702273
 20
7.685919072475553
 30
0.0
 10
3.995639395650489
 20
7.68641980265262
 30
0.0
 10
3.995627648169894
 20
7.687413093196587
 30
0.0
 10
3.995471998554791
 20
7.688881537622328
 30
0.0
 10
3.995249048264891
 20
7.690317388831145
 30
0.0
 10
3.994927742570487
 20
7.69171500988554
 30
0.0
 10
3.994513608717852
 20
7.693074757050116
 30
0.0
 10
3.994002959666822
 20
7.694395353242934
 30
0.0
 10
3.99340080349466
 20
7.695681718210595
 30
0.0
 10
3.992709724562227
 20
7.696930672582029
 30
0.0
 10
3.991932901950442
 20
7.698129140415621
 30
0.0
 10
3.991084054107712
 20
7.699274866259974
 30
0.0
 10
3.990148524983822
 20
7.700346333790545
 30
0.0
 10
3.989153043828458
 20
7.701369994631628
 30
0.0
 10
3.988072745270108
 20
7.702324016339483
 30
0.0
 10
3.986912522878089
 20
7.703208715388673
 30
0.0
 10
3.985686461925535
 20
7.704045442404289
 30
0.0
 10
3.984388299886757
 20
7.704800262719813
 30
0.0
 10
3.98304855168015
 20
7.70549733597927
 30
0.0
 10
3.98167381261409
 20
7.706094556583945
 30
0.0
 10
3.980279656731966
 20
7.706602028249138
 30
0.0
 10
3.978869629309107
 20
7.707034865366483
 30
0.0
 10
3.977431862215948
 20
7.707350934578954
 30
0.0
 10
3.975976070425646
 20
7.707575762257835
 30
0.0
 10
3.974504268061369
 20
7.70773223734967
 30
0.0
 10
3.973514438660115
 20
7.707744172290231
 30
0.0
 10
3.973017164417598
 20
7.70775016821086
 30
0.0
  0
SPLINE
  5
1C5
330
1F
100
AcDbEntity
  8
0
  6
Continuous
 62
     7
370
    15
100
AcDbSpline
210
0.0
220
0.0
230
1.0
 70
     8
 71
     3
 72
    23
 73
    19
 74
     0
 42
0.00000001
 43
0.00000001
 12
1.0
 22
0.0
 32
0.0
 13
1.0
 23
0.0
 33
0.0
 40
0.0
 40
0.0
 40
0.0
 40
0.0
 40
0.0645039992970557
 40
0.1268993215900402
 40
0.1877465401000115
 40
0.2481497329298263
 40
0.3085860647627419
 40
0.3695830050869942
 40
0.4318269653810495
 40
0.4961797225241575
 40
0.56066785461188
 40
0.6235044551176646
 40
0.6852604113304278
 40
0.7465368217511669
 40
0.8083273517367078
 40
0.8704861878877675
 40
0.934316883359246
 40
0.9999999999999999
 40
0.9999999999999999
 40
0.9999999999999999
 40
0.9999999999999999
 10
3.950596039067824
 20
7.685680990350417
 30
0.0
 10
3.950614861192616
 20
7.684934487229746
 30
0.0
 10
3.9506518901349
 20
7.683465884653
 30
0.0
 10
3.950976072782598
 20
7.68131375659026
 30
0.0
 10
3.951475422080856
 20
7.679245486224273
 30
0.0
 10
3.952211518696914
 20
7.677272390486869
 30
0.0
 10
3.953132066245627
 20
7.675377509167723
 30
0.0
 10
3.954269295051096
 20
7.673577651900004
 30
0.0
 10
3.955616648689544
 20
7.671872332240466
 30
0.0
 10
3.957147142106943
 20
7.670273455550401
 30
0.0
 10
3.95882024413403
 20
7.668814091223473
 30
0.0
 10
3.960596842491149
 20
7.66753311198077
 30
0.0
 10
3.96245790416658
 20
7.666449279433224
 30
0.0
 10
3.964408282364163
 20
7.665566314396144
 30
0.0
 10
3.966437564606607
 20
7.664866649970947
 30
0.0
 10
3.968558827053479
 20
7.664387133859773
 30
0.0
 10
3.970757938982084
 20
7.664071545582903
 30
0.0
 10
3.972256942580366
 20
7.664041238593281
 30
0.0
 10
3.973017164417598
 20
7.664025868359778
 30
0.0
  0
LINE
  5
1C6
330
1F
100
AcDbEntity
  8
0
  6
Continuous
 62
     7
370
    15
100
AcDbLine
 10
4.0101332103
 20
7.5443784064
 30
0.0
 11
4.0101332103
 21
7.5038009293
 31
0.0
  0
LINE
  5
1C7
330
1F
100
AcDbEntity
  8
0
  6
Continuous
 62
     7
370
    15
100
AcDbLine
 10
4.0441893047
 20
7.5038009293
 30
0.0
 11
4.0101332103
 21
7.5443784064
 31
0.0
  0
LINE
  5
1C8
330
1F
100
AcDbEntity
  8
0
  6
Continuous
 62
     7
370
    15
100
AcDbLine
 10
4.0452451481
 20
7.5038009293
 30
0.0
 11
4.0441893047
 21
7.5038009293
 31
0.0
  0
LINE
  5
1C9
330
1F
100
AcDbEntity
  8
0
  6
Continuous
 62
     7
370
    15
100
AcDbLine
 10
4.0452451481
 20
7.5554751057
 30
0.0
 11
4.0452451481
 21
7.5038009293
 31
0.0
  0
LINE
  5
1CA
330
1F
100
AcDbEntity
  8
0
  6
Continuous
 62
     7
370
    15
100
AcDbLine
 10
4.0406077232
 20
7.5554751057
 30
0.0
 11
4.0452451481
 21
7.5554751057
 31
0.0
  0
LINE
  5
1CB
330
1F
100
AcDbEntity
  8
0
  6
Continuous
 62
     7
370
    15
100
AcDbLine
 10
4.0406077232
 20
7.5148044689
 30
0.0
 11
4.0406077232
 21
7.5554751057
 31
0.0
  0
LINE
  5
1CC
330
1F
100
AcDbEntity
  8
0
  6
Continuous
 62
     7
370
    15
100
AcDbLine
 10
4.006468816
 20
7.5554751057
 30
0.0
 11
4.0406077232
 21
7.5148044689
 31
0.0
  0
LINE
  5
1CD
330
1F
100
AcDbEntity
  8
0
  6
Continuous
 62
     7
370
    15
100
AcDbLine
 10
4.0054957844
 20
7.5554751057
 30
0.0
 11
4.006468816
 21
7.5554751057
 31
0.0
  0
LINE
  5
1CE
330
1F
100
AcDbEntity
  8
0
  6
Continuous
 62
     7
370
    15
100
AcDbLine
 10
4.0054957844
 20
7.5038009293
 30
0.0
 11
4.0054957844
 21
7.5554751057
 31
0.0
  0
LINE
  5
1CF
330
1F
100
AcDbEntity
  8
0
  6
Continuous
 62
     7
370
    15
100
AcDbLine
 10
4.0101332103
 20
7.5038009293
 30
0.0
 11
4.0054957844
 21
7.5038009293
 31
0.0
  0
LINE
  5
1D0
330
1F
100
AcDbEntity
  8
0
  6
Continuous
 62
     7
370
    15
100
AcDbLine
 10
4.0625567481
 20
7.6600509297
 30
0.0
 11
4.0625567481
 21
7.7064251886
 31
0.0
  0
LINE
  5
1D1
330
1F
100
AcDbEntity
  8
0
  6
Continuous
 62
     7
370
    15
100
AcDbLine
 10
4.0671941708
 20
7.6600509297
 30
0.0
 11
4.0625567481
 21
7.6600509297
 31
0.0
  0
LINE
  5
1D2
330
1F
100
AcDbEntity
  8
0
  6
Continuous
 62
     7
370
    15
100
AcDbLine
 10
4.0671941708
 20
7.7064251886
 30
0.0
 11
4.0671941708
 21
7.6600509297
 31
0.0
  0
LINE
  5
1D3
330
1F
100
AcDbEntity
  8
0
  6
Continuous
 62
     7
370
    15
100
AcDbLine
 10
4.0784564915
 20
7.7064251886
 30
0.0
 11
4.0671941708
 21
7.7064251886
 31
0.0
  0
LINE
  5
1D4
330
1F
100
AcDbEntity
  8
0
  6
Continuous
 62
     7
370
    15
100
AcDbLine
 10
4.0784564915
 20
7.7117251015
 30
0.0
 11
4.0784564915
 21
7.7064251886
 31
0.0
  0
LINE
  5
1D5
330
1F
100
AcDbEntity
  8
0
  6
Continuous
 62
     7
370
    15
100
AcDbLine
 10
4.0512944274
 20
7.7117251015
 30
0.0
 11
4.0784564915
 21
7.7117251015
 31
0.0
  0
LINE
  5
1D6
330
1F
100
AcDbEntity
  8
0
  6
Continuous
 62
     7
370
    15
100
AcDbLine
 10
4.0512944274
 20
7.7064251886
 30
0.0
 11
4.0512944274
 21
7.7117251015
 31
0.0
  0
LINE
  5
1D7
330
1F
100
AcDbEntity
  8
0
  6
Continuous
 62
     7
370
    15
100
AcDbLine
 10
4.0625567481
 20
7.7064251886
 30
0.0
 11
4.0512944274
 21
7.7064251886
 31
0.0
  0
SPLINE
  5
1D8
330
1F
100
AcDbEntity
  8
0
  6
Continuous
 62
     7
370
    15
100
AcDbSpline
210
0.0
220
0.0
230
1.0
 70
     8
 71
     3
 72
    23
 73
    19
 74
     0
 42
0.00000001
 43
0.00000001
 12
1.0
 22
0.0
 32
0.0
 13
1.0
 23
0.0
 33
0.0
 40
0.0
 40
0.0
 40
0.0
 40
0.0
 40
0.0658188768433069
 40
0.1297465269068315
 40
0.192071954488006
 40
0.2534594242982026
 40
0.3145695877964205
 40
0.3762798811880264
 40
0.4390256536685599
 40
0.5032670288290858
 40
0.567492822879295
 40
0.629704795605245
 40
0.6909996492157556
 40
0.751451650917447
 40
0.8120043642646946
 40
0.8731496810680429
 40
0.9356354837317856
 40
1.0
 40
1.0
 40
1.0
 40
1.0
 10
3.973203489559009
 20
7.658725953226313
 30
0.0
 10
3.972267089786752
 20
7.658748828450214
 30
0.0
 10
3.970421196570801
 20
7.658793921605792
 30
0.0
 10
3.96771144673201
 20
7.659180465157043
 30
0.0
 10
3.965108873431284
 20
7.659784924584785
 30
0.0
 10
3.962620919242166
 20
7.660648760785652
 30
0.0
 10
3.960246196771861
 20
7.661765177308031
 30
0.0
 10
3.957980061623841
 20
7.663126487306257
 30
0.0
 10
3.955831609759818
 20
7.66474177973246
 30
0.0
 10
3.953818653493022
 20
7.66657498116103
 30
0.0
 10
3.951976850180876
 20
7.668570660618999
 30
0.0
 10
3.950371121396269
 20
7.670709000701355
 30
0.0
 10
3.949009505276492
 20
7.672948049339908
 30
0.0
 10
3.947896837320092
 20
7.675294020219614
 30
0.0
 10
3.947015948300847
 20
7.677735572352536
 30
0.0
 10
3.94641498035908
 20
7.680288992200614
 30
0.0
 10
3.946026155064363
 20
7.682939722315826
 30
0.0
 10
3.945981348441288
 20
7.684744522493321
 30
0.0
 10
3.945958613326042
 20
7.685660287556927
 30
0.0
  0
SPLINE
  5
1D9
330
1F
100
AcDbEntity
  8
0
  6
Continuous
 62
     7
370
    15
100
AcDbSpline
210
0.0
220
0.0
230
1.0
 70
     8
 71
     3
 72
    23
 73
    19
 74
     0
 42
0.00000001
 43
0.00000001
 12
1.0
 22
0.0
 32
0.0
 13
1.0
 23
0.0
 33
0.0
 40
0.0
 40
0.0
 40
0.0
 40
0.0
 40
0.0652265038922756
 40
0.1285689957067287
 40
0.1903203781044671
 40
0.251377988624063
 40
0.312387528333694
 40
0.3737887042767234
 40
0.4364311597804503
 40
0.5005667553098538
 40
0.5646867953847439
 40
0.6271355178835134
 40
0.6884554088949797
 40
0.7492457464637473
 40
0.8101551773646785
 40
0.8716709256529234
 40
0.9347734961077241
 40
0.9999999999999999
 40
0.9999999999999999
 40
0.9999999999999999
 40
0.9999999999999999
 10
4.000282743444055
 20
7.685908721078808
 30
0.0
 10
4.000259860163857
 20
7.684979214236975
 30
0.0
 10
4.000214754567543
 20
7.683147048567719
 30
0.0
 10
3.999828397445879
 20
7.680457873778244
 30
0.0
 10
3.999222466098926
 20
7.677872826103344
 30
0.0
 10
3.998357347936188
 20
7.675396221015853
 30
0.0
 10
3.997246715263512
 20
7.673025445947895
 30
0.0
 10
3.995878749749001
 20
7.67076673901847
 30
0.0
 10
3.994267383532903
 20
7.668619359745735
 30
0.0
 10
3.992433587460804
 20
7.666606832836107
 30
0.0
 10
3.990434519801187
 20
7.664761364016367
 30
0.0
 10
3.988290332982114
 20
7.663153280366033
 30
0.0
 10
3.98604924892332
 20
7.661769532769821
 30
0.0
 10
3.983682428488728
 20
7.660665422920536
 30
0.0
 10
3.98122126092665
 20
7.659782947340307
 30
0.0
 10
3.978643718901598
 20
7.659181273501403
 30
0.0
 10
3.975961880222505
 20
7.658793170298869
 30
0.0
 10
3.974133042615478
 20
7.658748604780375
 30
0.0
 10
3.973203489559009
 20
7.658725953226313
 30
0.0
  0
SPLINE
  5
1DA
330
1F
100
AcDbEntity
  8
0
  6
Continuous
 62
     7
370
    15
100
AcDbSpline
210
0.0
220
0.0
230
1.0
 70
     8
 71
     3
 72
    23
 73
    19
 74
     0
 42
0.00000001
 43
0.00000001
 12
1.0
 22
0.0
 32
0.0
 13
1.0
 23
0.0
 33
0.0
 40
0.0
 40
0.0
 40
0.0
 40
0.0
 40
0.0665700352151803
 40
0.130749041482178
 40
0.1934128000295041
 40
0.2549893988897088
 40
0.3161135558759005
 40
0.3772617579089845
 40
0.439400784155553
 40
0.502970589371976
 40
0.5665249763607315
 40
0.6282311025133089
 40
0.6890906105998629
 40
0.7493446689958044
 40
0.8101695933722065
 40
0.8716098243170437
 40
0.9348691840727636
 40
1.0
 40
1.0
 40
1.0
 40
1.0
 10
3.972789433689207
 20
7.713050083344325
 30
0.0
 10
3.973746263759897
 20
7.713025848461965
 30
0.0
 10
3.975625556961404
 20
7.712978249153526
 30
0.0
 10
3.978387539974262
 20
7.712613885651945
 30
0.0
 10
3.981024326765846
 20
7.711983528809572
 30
0.0
 10
3.983557396753587
 20
7.711144000932862
 30
0.0
 10
3.985956451070617
 20
7.710024083047451
 30
0.0
 10
3.988239547303102
 20
7.708670438997255
 30
0.0
 10
3.990401253246668
 20
7.707068887212219
 30
0.0
 10
3.992412432439318
 20
7.705231807972575
 30
0.0
 10
3.994252873798933
 20
7.703232999984719
 30
0.0
 10
3.995874348598268
 20
7.701099920997589
 30
0.0
 10
3.997233265560642
 20
7.698845468352226
 30
0.0
 10
3.998349217848757
 20
7.696476416737854
 30
0.0
 10
3.99922470544572
 20
7.693998123895119
 30
0.0
 10
3.999828836224091
 20
7.691397377514189
 30
0.0
 10
4.00021474116157
 20
7.688691028504878
 30
0.0
 10
4.000259856809865
 20
7.686845125710226
 30
0.0
 10
4.000282743444055
 20
7.685908721078808
 30
0.0
  0
SPLINE
  5
1DB
330
1F
100
AcDbEntity
  8
0
  6
Continuous
 62
     7
370
    15
100
AcDbSpline
210
0.0
220
0.0
230
1.0
 70
     8
 71
     3
 72
    31
 73
    27
 74
     0
 42
0.00000001
 43
0.00000001
 12
1.0
 22
0.0
 32
0.0
 13
1.0
 23
0.0
 33
0.0
 40
0.0
 40
0.0
 40
0.0
 40
0.0
 40
0.0432089861713369
 40
0.0858728716306188
 40
0.128120006696703
 40
0.1701519644541992
 40
0.2119176209878617
 40
0.2537530026191244
 40
0.2960064088559509
 40
0.3384433571447844
 40
0.381015368162034
 40
0.422820479440761
 40
0.4640890557943135
 40
0.5051258486836866
 40
0.5459749706852414
 40
0.5869852111338598
 40
0.6283385916346628
 40
0.6700838015912062
 40
0.7119916023637224
 40
0.7530391548630191
 40
0.7940493953116377
 40
0.8348855427015818
 40
0.8754983129295133
 40
0.9165472998303794
 40
0.9580037786449607
 40
0.9999999999999999
 40
0.9999999999999999
 40
0.9999999999999999
 40
0.9999999999999999
 10
3.945958613326042
 20
7.685660287556927
 30
0.0
 10
3.945966506710997
 20
7.686274954336567
 30
0.0
 10
3.945982193902322
 20
7.687496533599137
 30
0.0
 10
3.946171051080567
 20
7.689310542141154
 30
0.0
 10
3.946445096952281
 20
7.69109537777238
 30
0.0
 10
3.946837848900644
 20
7.692845965093715
 30
0.0
 10
3.947351514787275
 20
7.69455801878878
 30
0.0
 10
3.947957608943545
 20
7.69624334627897
 30
0.0
 10
3.948697876092316
 20
7.697884868257745
 30
0.0
 10
3.949534711974338
 20
7.699490361054058
 30
0.0
 10
3.950468712426817
 20
7.701034797333032
 30
0.0
 10
3.951500361436627
 20
7.702494660373475
 30
0.0
 10
3.952593423266657
 20
7.703882200443267
 30
0.0
 10
3.953791723611566
 20
7.705161461079674
 30
0.0
 10
3.955055769029354
 20
7.706369657217045
 30
0.0
 10
3.95640606503306
 20
7.707488221706261
 30
0.0
 10
3.957834372298301
 20
7.708527240951693
 30
0.0
 10
3.959346836643606
 20
7.709463581994052
 30
0.0
 10
3.960906190060948
 20
7.710310435085346
 30
0.0
 10
3.962513652175748
 20
7.711037148919911
 30
0.0
 10
3.964147391252866
 20
7.711660871854798
 30
0.0
 10
3.965815059243544
 20
7.712166405086093
 30
0.0
 10
3.967512227637751
 20
7.712565507398168
 30
0.0
 10
3.969242600563276
 20
7.712837274475814
 30
0.0
 10
3.971004799489231
 20
7.713026613337349
 30
0.0
 10
3.972191996166516
 20
7.713042226348854
 30
0.0
 10
3.972789433689207
 20
7.713050083344325
 30
0.0
  0
LINE
  5
1DC
330
1F
100
AcDbEntity
  8
0
  6
Continuous
 62
     7
370
    15
100
AcDbLine
 10
3.7869836691
 20
7.3056759297
 30
0.0
 11
4.2374836849
 21
7.3056759297
 31
0.0
  0
LINE
  5
1DD
330
1F
100
AcDbEntity
  8
0
  6
Continuous
 62
     7
370
    15
100
AcDbLine
 10
3.7869836691
 20
7.3056759297
 30
0.0
 11
3.7869836691
 21
7.8989259348
 31
0.0
  0
LINE
  5
1DE
330
1F
100
AcDbEntity
  8
0
  6
Continuous
 62
     7
370
    15
100
AcDbLine
 10
4.2374836849
 20
7.8989259348
 30
0.0
 11
3.7869836691
 21
7.8989259348
 31
0.0
  0
LINE
  5
1DF
330
1F
100
AcDbEntity
  8
0
  6
Continuous
 62
     7
370
    15
100
AcDbLine
 10
4.2374836849
 20
7.3056759297
 30
0.0
 11
4.2374836849
 21
7.8989259348
 31
0.0
  0
SPLINE
  5
1E0
330
1F
100
AcDbEntity
  8
0
  6
Continuous
 62
     7
370
    15
100
AcDbSpline
210
0.0
220
0.0
230
1.0
 70
     8
 71
     3
 72
    15
 73
    11
 74
     0
 42
0.00000001
 43
0.00000001
 12
1.0
 22
0.0
 32
0.0
 13
1.0
 23
0.0
 33
0.0
 40
0.0
 40
0.0
 40
0.0
 40
0.0
 40
0.0781298651584278
 40
0.1694654174977334
 40
0.2743352908540846
 40
0.392110163353921
 40
0.5236873298575195
 40
0.6683654211389637
 40
0.8271319021257836
 40
1.0
 40
1.0
 40
1.0
 40
1.0
 10
4.011803848021294
 20
7.669625973998848
 30
0.0
 10
4.011727412202772
 20
7.669901066246609
 30
0.0
 10
4.011561621210157
 20
7.670497747458368
 30
0.0
 10
4.011384079122879
 20
7.671485262872959
 30
0.0
 10
4.011234828143142
 20
7.672622314914011
 30
0.0
 10
4.011094487612937
 20
7.673908981412056
 30
0.0
 10
4.01101167668114
 20
7.675346259641959
 30
0.0
 10
4.010939075373797
 20
7.676933526576085
 30
0.0
 10
4.010882062243504
 20
7.678672701489902
 30
0.0
 10
4.010882398456394
 20
7.679884158403798
 30
0.0
 10
4.010882573710984
 20
7.680515643374639
 30
0.0
  0
SPLINE
  5
1E1
330
1F
100
AcDbEntity
  8
0
  6
Continuous
 62
     7
370
    15
100
AcDbSpline
210
0.0
220
0.0
230
1.0
 70
     8
 71
     3
 72
    23
 73
    19
 74
     0
 42
0.00000001
 43
0.00000001
 12
1.0
 22
0.0
 32
0.0
 13
1.0
 23
0.0
 33
0.0
 40
0.0
 40
0.0
 40
0.0
 40
0.0
 40
0.0711745037456342
 40
0.1396441217506233
 40
0.2063172239119632
 40
0.2713732401918835
 40
0.3354180839163126
 40
0.3980763446528611
 40
0.4606079146322842
 40
0.5229695111172337
 40
0.5847157240924588
 40
0.6448949403163619
 40
0.7042905608207902
 40
0.7629981899193224
 40
0.8210874309038771
 40
0.8801038914767008
 40
0.9393884881896685
 40
1.0
 40
1.0
 40
1.0
 40
1.0
 10
4.027952026943568
 20
7.658725953226313
 30
0.0
 10
4.027454934652765
 20
7.658737539539361
 30
0.0
 10
4.026479641356358
 20
7.658760271844118
 30
0.0
 10
4.025042537332238
 20
7.658890531361972
 30
0.0
 10
4.023664841937655
 20
7.659135886154933
 30
0.0
 10
4.022332004438624
 20
7.659448292607253
 30
0.0
 10
4.021062170746673
 20
7.659879162743201
 30
0.0
 10
4.019838327847143
 20
7.660382589139687
 30
0.0
 10
4.018681436415994
 20
7.661000867075069
 30
0.0
 10
4.017572728234899
 20
7.661688774226684
 30
0.0
 10
4.016541832092622
 20
7.662462774169162
 30
0.0
 10
4.015595494873116
 20
7.663306394514401
 30
0.0
 10
4.014732154236823
 20
7.66420612125065
 30
0.0
 10
4.013966362246794
 20
7.665171695475116
 30
0.0
 10
4.013285431233074
 20
7.666195607496387
 30
0.0
 10
4.012698852403675
 20
7.667280753896468
 30
0.0
 10
4.012195202785691
 20
7.668426714542782
 30
0.0
 10
4.011935258561637
 20
7.669223282253476
 30
0.0
 10
4.011803848021294
 20
7.669625973998848
 30
0.0
  0
SPLINE
  5
1E2
330
1F
100
AcDbEntity
  8
0
  6
Continuous
 62
     7
370
    15
100
AcDbSpline
210
0.0
220
0.0
230
1.0
 70
     8
 71
     3
 72
    31
 73
    27
 74
     0
 42
0.00000001
 43
0.00000001
 12
1.0
 22
0.0
 32
0.0
 13
1.0
 23
0.0
 33
0.0
 40
0.0
 40
0.0
 40
0.0
 40
0.0
 40
0.0548580354451538
 40
0.107058791542641
 40
0.1569783545765235
 40
0.203992277182977
 40
0.2484915357868489
 40
0.2904833137405231
 40
0.3304890042981893
 40
0.3678859257629635
 40
0.4038581313538711
 40
0.4400093433074117
 40
0.4762950107796839
 40
0.5127922945733487
 40
0.550484824630372
 40
0.5883811157748436
 40
0.6276453271698538
 40
0.6679794644543811
 40
0.7084327575000837
 40
0.7486023022886336
 40
0.789087777195782
 40
0.8294612046317063
 40
0.8703710453051784
 40
0.9122142271494423
 40
0.9555465749316862
 40
1.0
 40
1.0
 40
1.0
 40
1.0
 10
4.044007043295138
 20
7.680515643374639
 30
0.0
 10
4.044003291449253
 20
7.679953157029574
 30
0.0
 10
4.043995969493896
 20
7.678855430727984
 30
0.0
 10
4.043932475570472
 20
7.677246867492012
 30
0.0
 10
4.043831238486603
 20
7.675720958980657
 30
0.0
 10
4.043688203078126
 20
7.6742775000779
 30
0.0
 10
4.043498676930454
 20
7.672921656023371
 30
0.0
 10
4.043287916871151
 20
7.671641542551453
 30
0.0
 10
4.043019513348838
 20
7.670446348577001
 30
0.0
 10
4.042706022366955
 20
7.669326755024316
 30
0.0
 10
4.042347646507045
 20
7.668261004545502
 30
0.0
 10
4.04188344784288
 20
7.667249539981104
 30
0.0
 10
4.041360438779431
 20
7.666261612486061
 30
0.0
 10
4.040740132372504
 20
7.665312164396115
 30
0.0
 10
4.040043101191627
 20
7.664396991869632
 30
0.0
 10
4.039253937941888
 20
7.663521645043215
 30
0.0
 10
4.038398742774767
 20
7.66267213572732
 30
0.0
 10
4.037463299113218
 20
7.661870254940986
 30
0.0
 10
4.036463027018203
 20
7.661134877179832
 30
0.0
 10
4.035400901936671
 20
7.660488244728305
 30
0.0
 10
4.034285082782082
 20
7.659941626214537
 30
0.0
 10
4.033118470036411
 20
7.659491678164204
 30
0.0
 10
4.031900565850106
 20
7.659153365891952
 30
0.0
 10
4.030631339512917
 20
7.658901267450189
 30
0.0
 10
4.029307902043575
 20
7.658758022250989
 30
0.0
 10
4.028407816853888
 20
7.658736733524498
 30
0.0
 10
4.027952026943568
 20
7.658725953226313
 30
0.0
  0
LINE
  5
1E3
330
1F
100
AcDbEntity
  8
0
  6
Continuous
 62
     7
370
    15
100
AcDbLine
 10
4.0440070437
 20
7.7117251015
 30
0.0
 11
4.0440070437
 21
7.6805156433
 31
0.0
  0
LINE
  5
1E4
330
1F
100
AcDbEntity
  8
0
  6
Continuous
 62
     7
370
    15
100
AcDbLine
 10
4.0393696164
 20
7.7117251015
 30
0.0
 11
4.0440070437
 21
7.7117251015
 31
0.0
  0
LINE
  5
1E5
330
1F
100
AcDbEntity
  8
0
  6
Continuous
 62
     7
370
    15
100
AcDbLine
 10
4.0393696164
 20
7.6807640754
 30
0.0
 11
4.0393696164
 21
7.7117251015
 31
0.0
  0
SPLINE
  5
1E6
330
1F
100
AcDbEntity
  8
0
  6
Continuous
 62
     7
370
    15
100
AcDbSpline
210
0.0
220
0.0
230
1.0
 70
     8
 71
     3
 72
    15
 73
    11
 74
     0
 42
0.00000001
 43
0.00000001
 12
1.0
 22
0.0
 32
0.0
 13
1.0
 23
0.0
 33
0.0
 40
0.0
 40
0.0
 40
0.0
 40
0.0
 40
0.0698351039154357
 40
0.1556207549116641
 40
0.2578015566582753
 40
0.3738112340663711
 40
0.5064024926743705
 40
0.6555644581431037
 40
0.8200792824038533
 40
1.0
 40
1.0
 40
1.0
 40
1.0
 10
4.038841696319359
 20
7.672741744419107
 30
0.0
 10
4.038885990317122
 20
7.672924059379493
 30
0.0
 10
4.038984695194519
 20
7.673330330583746
 30
0.0
 10
4.039076926874674
 20
7.674017173211009
 30
0.0
 10
4.039172989536686
 20
7.674827562486683
 30
0.0
 10
4.03923964287075
 20
7.675767320989073
 30
0.0
 10
4.039304622705929
 20
7.676833299708138
 30
0.0
 10
4.039343497522506
 20
7.678031051773178
 30
0.0
 10
4.039361465856599
 20
7.679356227967644
 30
0.0
 10
4.039366820487232
 20
7.680281006112136
 30
0.0
 10
4.039369617553357
 20
7.680764076896519
 30
0.0
  0
SPLINE
  5
1E7
330
1F
100
AcDbEntity
  8
0
  6
Continuous
 62
     7
370
    15
100
AcDbSpline
210
0.0
220
0.0
230
1.0
 70
     8
 71
     3
 72
    19
 73
    15
 74
     0
 42
0.00000001
 43
0.00000001
 12
1.0
 22
0.0
 32
0.0
 13
1.0
 23
0.0
 33
0.0
 40
0.0
 40
0.0
 40
0.0
 40
0.0
 40
0.082890647556869
 40
0.1653025405594704
 40
0.2477618761145889
 40
0.3315277110598006
 40
0.4152798127751556
 40
0.496366230484051
 40
0.5771513480211469
 40
0.6577825401388812
 40
0.7393216419943462
 40
0.8237930816663166
 40
0.9094759533791145
 40
1.0
 40
1.0
 40
1.0
 40
1.0
 10
4.027693242024942
 20
7.664025868359778
 30
0.0
 10
4.028114810855809
 20
7.664041722738276
 30
0.0
 10
4.028955513646978
 20
7.664073339924559
 30
0.0
 10
4.030204647160796
 20
7.664269132346071
 30
0.0
 10
4.031421206427265
 20
7.664622001476088
 30
0.0
 10
4.03261119883906
 20
7.665077321189792
 30
0.0
 10
4.033726637297722
 20
7.665678920633592
 30
0.0
 10
4.034768144153396
 20
7.666373876828171
 30
0.0
 10
4.03569774678249
 20
7.667189012923614
 30
0.0
 10
4.036546059495183
 20
7.668091101422536
 30
0.0
 10
4.037284777754852
 20
7.669108932028009
 30
0.0
 10
4.037925111427673
 20
7.670220342169402
 30
0.0
 10
4.0384496180044
 20
7.671442057606351
 30
0.0
 10
4.038708631470032
 20
7.672300652363482
 30
0.0
 10
4.038841696319359
 20
7.672741744419107
 30
0.0
  0
SPLINE
  5
1E8
330
1F
100
AcDbEntity
  8
0
  6
Continuous
 62
     7
370
    15
100
AcDbSpline
210
0.0
220
0.0
230
1.0
 70
     8
 71
     3
 72
    15
 73
    11
 74
     0
 42
0.00000001
 43
0.00000001
 12
1.0
 22
0.0
 32
0.0
 13
1.0
 23
0.0
 33
0.0
 40
0.0
 40
0.0
 40
0.0
 40
0.0
 40
0.1910785917157194
 40
0.362604556309971
 40
0.5160987502785588
 40
0.6500380260398402
 40
0.7659767209867906
 40
0.8623740257993889
 40
0.9408420582211753
 40
1.0
 40
1.0
 40
1.0
 40
1.0
 10
4.015519999452766
 20
7.680764076896519
 30
0.0
 10
4.015519309322448
 20
7.680325869050713
 30
0.0
 10
4.015517999681239
 20
7.67949429414704
 30
0.0
 10
4.015526747585247
 20
7.678310685405692
 30
0.0
 10
4.015551246582308
 20
7.677258415306493
 30
0.0
 10
4.015566692133603
 20
7.676333427722263
 30
0.0
 10
4.015601053000654
 20
7.675539967149243
 30
0.0
 10
4.015629075858659
 20
7.674873734837612
 30
0.0
 10
4.015665108358228
 20
7.674337885443257
 30
0.0
 10
4.015708413049598
 20
7.674025169206814
 30
0.0
 10
4.015727027387666
 20
7.673890749457808
 30
0.0
  0
LINE
  5
1E9
330
1F
100
AcDbEntity
  8
0
  6
Continuous
 62
     7
370
    15
100
AcDbLine
 10
4.0155199996
 20
7.7117251015
 30
0.0
 11
4.0155199996
 21
7.6807640754
 31
0.0
  0
LINE
  5
1EA
330
1F
100
AcDbEntity
  8
0
  6
Continuous
 62
     7
370
    15
100
AcDbLine
 10
4.0144163245
 20
7.7117251015
 30
0.0
 11
4.0155199996
 21
7.7117251015
 31
0.0
  0
LINE
  5
1EB
330
1F
100
AcDbEntity
  8
0
  6
Continuous
 62
     7
370
    15
100
AcDbLine
 10
4.0108825738
 20
7.6805156433
 30
0.0
 11
4.0108825738
 21
7.7112450121
 31
0.0
  0
LINE
  5
1EC
330
1F
100
AcDbEntity
  8
0
  6
Continuous
 62
     7
370
    15
100
AcDbLine
 10
3.9922459958
 20
7.5038009293
 30
0.0
 11
3.9876085708
 21
7.5038009293
 31
0.0
  0
LINE
  5
1ED
330
1F
100
AcDbEntity
  8
0
  6
Continuous
 62
     7
370
    15
100
AcDbLine
 10
3.9922459958
 20
7.5554751057
 30
0.0
 11
3.9922459958
 21
7.5038009293
 31
0.0
  0
LINE
  5
1EE
330
1F
100
AcDbEntity
  8
0
  6
Continuous
 62
     7
370
    15
100
AcDbLine
 10
3.9876085708
 20
7.5554751057
 30
0.0
 11
3.9922459958
 21
7.5554751057
 31
0.0
  0
LINE
  5
1EF
330
1F
100
AcDbEntity
  8
0
  6
Continuous
 62
     7
370
    15
100
AcDbLine
 10
3.9876085708
 20
7.5038009293
 30
0.0
 11
3.9876085708
 21
7.5554751057
 31
0.0
  0
SPLINE
  5
1F0
330
1F
100
AcDbEntity
  8
0
  6
Continuous
 62
     7
370
    15
100
AcDbSpline
210
0.0
220
0.0
230
1.0
 70
     8
 71
     3
 72
    19
 73
    15
 74
     0
 42
0.00000001
 43
0.00000001
 12
1.0
 22
0.0
 32
0.0
 13
1.0
 23
0.0
 33
0.0
 40
0.0
 40
0.0
 40
0.0
 40
0.0
 40
0.0863150037405918
 40
0.1677664659179407
 40
0.2444326843848595
 40
0.3181346623514537
 40
0.3918841069799638
 40
0.4700680503917553
 40
0.5539041787139101
 40
0.6443394983098204
 40
0.7368746633345102
 40
0.8261683643076472
 40
0.9136785948895817
 40
1.0
 40
1.0
 40
1.0
 40
1.0
 10
4.015727027387666
 20
7.673890749457808
 30
0.0
 10
4.015803467644719
 20
7.673405798224328
 30
0.0
 10
4.015952041023895
 20
7.672463221023871
 30
0.0
 10
4.016330685409758
 20
7.671121046668897
 30
0.0
 10
4.016859496760356
 20
7.669911406579643
 30
0.0
 10
4.017486127935622
 20
7.668796554154932
 30
0.0
 10
4.018311919767097
 20
7.667807519940633
 30
0.0
 10
4.019301163265221
 20
7.666896406056406
 30
0.0
 10
4.020499675841908
 20
7.666099563671842
 30
0.0
 10
4.021832287873949
 20
7.665370945853103
 30
0.0
 10
4.023268611916818
 20
7.664785328621538
 30
0.0
 10
4.024736324754238
 20
7.664342505111733
 30
0.0
 10
4.02621336423064
 20
7.66407263453432
 30
0.0
 10
4.027202203633841
 20
7.664041385848582
 30
0.0
 10
4.027693242024942
 20
7.664025868359778
 30
0.0
  0
LINE
  5
1F1
330
1F
100
AcDbEntity
  8
0
  6
Continuous
 62
     7
370
    15
100
AcDbLine
 10
3.7869836691
 20
7.9301759138
 30
0.0
 11
4.2374836849
 21
7.9301759138
 31
0.0
  0
LINE
  5
1F2
330
1F
100
AcDbEntity
  8
0
  6
Continuous
 62
     7
370
    15
100
AcDbLine
 10
3.7869836691
 20
7.8989259348
 30
0.0
 11
3.7869836691
 21
7.9301759138
 31
0.0
  0
LINE
  5
1F3
330
1F
100
AcDbEntity
  8
0
  6
Continuous
 62
     7
370
    15
100
AcDbLine
 10
4.2374836849
 20
7.9301759138
 30
0.0
 11
4.2374836849
 21
7.8989259348
 31
0.0
  0
LINE
  5
1F4
330
1F
100
AcDbEntity
  8
0
  6
Continuous
 62
     7
370
    15
100
AcDbLine
 10
3.7799099441
 20
7.8923634289
 30
0.0
 11
3.7799099441
 21
7.3184884351
 31
0.0
  0
LINE
  5
1F5
330
1F
100
AcDbEntity
  8
0
  6
Continuous
 62
     7
370
    15
100
AcDbLine
 10
4.2445574098
 20
7.8923634289
 30
0.0
 11
4.2445574098
 21
7.3184884351
 31
0.0
  0
ARC
  5
1F6
330
1F
100
AcDbEntity
  8
0
  6
Continuous
 62
     8
370
    15
100
AcDbCircle
 10
3.4716055204
 20
7.8437122893
 30
0.0
 40
0.0141959354129472
100
AcDbArc
 50
5.6014537502
 51
96.0526040004
  0
ARC
  5
1F7
330
1F
100
AcDbEntity
  8
0
  6
Continuous
 62
     8
370
    15
100
AcDbCircle
 10
3.4686118389
 20
7.8437122893
 30
0.0
 40
0.0141959354129494
100
AcDbArc
 50
83.9473959996
 51
174.3985462498
  0
LINE
  5
1F8
330
1F
100
AcDbEntity
  8
0
  6
Continuous
 62
     8
370
    15
100
AcDbLine
 10
3.6576086636
 20
7.9665321071
 30
0.0
 11
3.6576086636
 21
7.9635001022
 31
0.0
  0
LINE
  5
1F9
330
1F
100
AcDbEntity
  8
0
  6
Continuous
 62
     8
370
    15
100
AcDbLine
 10
3.6576086636
 20
7.9694259171
 30
0.0
 11
3.6576086636
 21
7.9665321071
 31
0.0
  0
ELLIPSE
  5
1FA
330
1F
100
AcDbEntity
  8
0
  6
Continuous
 62
     8
370
    15
100
AcDbEllipse
 10
3.451983677
 20
7.492925932
 30
0.0
 11
0.04615423241982919
 21
0.01338345852469303
 31
0.0
210
0.0
220
0.0
230
1.0
 40
0.6118415739
 41
1.128218132102449
 42
1.395206219394437
  0
ELLIPSE
  5
1FB
330
1F
100
AcDbEntity
  8
0
  6
Continuous
 62
     8
370
    15
100
AcDbEllipse
 10
3.451983677
 20
7.492925932
 30
0.0
 11
0.005318919044114081
 21
0.03114913799316544
 31
0.0
210
0.0
220
0.0
230
1.0
 40
0.4716607284
 41
0.3473537756329845
 42
3.221958341930757
  0
ELLIPSE
  5
1FC
330
1F
100
AcDbEntity
  8
0
  6
Continuous
 62
     8
370
    15
100
AcDbEllipse
 10
3.451983677
 20
7.492925932
 30
0.0
 11
0.02542136994013066
 21
0.02088410915712569
 31
0.0
210
0.0
220
0.0
230
1.0
 40
0.8702602496
 41
0.950117484777993
 42
2.510305605363048
  0
ELLIPSE
  5
1FD
330
1F
100
AcDbEntity
  8
0
  6
Continuous
 62
     8
370
    15
100
AcDbEllipse
 10
3.451983677
 20
7.492925932
 30
0.0
 11
0.02504002307306896
 21
0.02794346504063583
 31
0.0
210
0.0
220
0.0
230
1.0
 40
0.6690836974
 41
0.2532642567419662
 42
0.9294328297815057
  0
ENDSEC
  0
SECTION
  2
OBJECTS
  0
DICTIONARY
  5
C
330
0
100
AcDbDictionary
281
     1
  3
ACAD_GROUP
350
D
  3
ACAD_LAYOUT
350
1A
  3
ACAD_MLINESTYLE
350
17
  3
ACAD_PLOTSETTINGS
350
19
  3
ACAD_PLOTSTYLENAME
350
E
  0
DICTIONARY
  5
D
102
{ACAD_REACTORS
330
C
102
}
330
C
100
AcDbDictionary
281
     1
  0
DICTIONARY
  5
1A
102
{ACAD_REACTORS
330
C
102
}
330
C
100
AcDbDictionary
281
     1
  3
Layout1
350
1E
  3
Layout2
350
26
  3
Model
350
22
  0
DICTIONARY
  5
17
102
{ACAD_REACTORS
330
C
102
}
330
C
100
AcDbDictionary
281
     1
  3
Standard
350
18
  0
DICTIONARY
  5
19
102
{ACAD_REACTORS
330
C
102
}
330
C
100
AcDbDictionary
281
     1
  0
ACDBDICTIONARYWDFLT
  5
E
102
{ACAD_REACTORS
330
C
102
}
330
C
100
AcDbDictionary
281
     1
  3
Normal
350
F
100
AcDbDictionaryWithDefault
340
F
  0
LAYOUT
  5
1E
102
{ACAD_REACTORS
330
1A
102
}
330
1A
100
AcDbPlotSettings
  1

  2
none_device
  4

  6

 40
0.0
 41
0.0
 42
0.0
 43
0.0
 44
0.0
 45
0.0
 46
0.0
 47
0.0
 48
0.0
 49
0.0
140
0.0
141
0.0
142
1.0
143
1.0
 70
   688
 72
     0
 73
     0
 74
     5
  7

 75
    16
147
1.0
148
0.0
149
0.0
100
AcDbLayout
  1
Layout1
 70
     1
 71
     1
 10
0.0
 20
0.0
 11
12.0
 21
9.0
 12
0.0
 22
0.0
 32
0.0
 14
1.0000000000E+20
 24
1.0000000000E+20
 34
1.0000000000E+20
 15
-1.0000000000E+20
 25
-1.0000000000E+20
 35
-1.0000000000E+20
146
0.0
 13
0.0
 23
0.0
 33
0.0
 16
1.0
 26
0.0
 36
0.0
 17
0.0
 27
1.0
 37
0.0
 76
     0
330
1B
  0
LAYOUT
  5
26
102
{ACAD_REACTORS
330
1A
102
}
330
1A
100
AcDbPlotSettings
  1

  2
none_device
  4

  6

 40
0.0
 41
0.0
 42
0.0
 43
0.0
 44
0.0
 45
0.0
 46
0.0
 47
0.0
 48
0.0
 49
0.0
140
0.0
141
0.0
142
1.0
143
1.0
 70
   688
 72
     0
 73
     0
 74
     5
  7

 75
    16
147
1.0
148
0.0
149
0.0
100
AcDbLayout
  1
Layout2
 70
     1
 71
     2
 10
0.0
 20
0.0
 11
0.0
 21
0.0
 12
0.0
 22
0.0
 32
0.0
 14
0.0
 24
0.0
 34
0.0
 15
0.0
 25
0.0
 35
0.0
146
0.0
 13
0.0
 23
0.0
 33
0.0
 16
1.0
 26
0.0
 36
0.0
 17
0.0
 27
1.0
 37
0.0
 76
     0
330
23
  0
LAYOUT
  5
22
102
{ACAD_REACTORS
330
1A
102
}
330
1A
100
AcDbPlotSettings
  1

  2
none_device
  4

  6

 40
0.0
 41
0.0
 42
0.0
 43
0.0
 44
0.0
 45
0.0
 46
0.0
 47
0.0
 48
0.0
 49
0.0
140
0.0
141
0.0
142
1.0
143
1.0
 70
  1712
 72
     0
 73
     0
 74
     0
  7

 75
     0
147
1.0
148
0.0
149
0.0
100
AcDbLayout
  1
Model
 70
     1
 71
     0
 10
0.0
 20
0.0
 11
8.5
 21
11.0
 12
0.0
 22
0.0
 32
0.0
 14
0.0
 24
0.0
 34
0.0
 15
8.5
 25
11.0
 35
0.0
146
0.0
 13
0.0
 23
0.0
 33
0.0
 16
1.0
 26
0.0
 36
0.0
 17
0.0
 27
1.0
 37
0.0
 76
     0
330
1F
331
29
  0
MLINESTYLE
  5
18
102
{ACAD_REACTORS
330
17
102
}
330
17
100
AcDbMlineStyle
  2
Standard
 70
     0
  3

 62
   256
 51
90.0
 52
90.0
 71
     2
 49
0.5
 62
   256
  6
BYLAYER
 49
-0.5
 62
   256
  6
BYLAYER
  0
ACDBPLACEHOLDER
  5
F
102
{ACAD_REACTORS
330
E
102
}
330
E
  0
ENDSEC
  0
EOF
