  0
SECTION
  2
HEADER
  9
$ACADVER
  1
AC1015
  9
$ACADMAINTVER
 70
     6
  9
$DWGCODEPAGE
  3
ANSI_1252
  9
$INSBASE
 10
0.0
 20
0.0
 30
0.0
  9
$EXTMIN
 10
0.0
 20
0.0
 30
0.0
  9
$EXTMAX
 10
8.5
 20
11.0
 30
0.0
  9
$LIMMIN
 10
0.0
 20
0.0
  9
$LIMMAX
 10
8.5
 20
11.0
  9
$ORTHOMODE
 70
     0
  9
$REGENMODE
 70
     1
  9
$FILLMODE
 70
     1
  9
$QTEXTMODE
 70
     0
  9
$MIRRTEXT
 70
     1
  9
$LTSCALE
 40
1.0
  9
$ATTMODE
 70
     1
  9
$TEXTSIZE
 40
0.125
  9
$TRACEWID
 40
0.05
  9
$TEXTSTYLE
  7
Standard
  9
$CLAYER
  8
0
  9
$CELTYPE
  6
ByLayer
  9
$CECOLOR
 62
   256
  9
$CELTSCALE
 40
1.0
  9
$DISPSILH
 70
     0
  9
$DIMSCALE
 40
1.0
  9
$DIMASZ
 40
0.13
  9
$DIMEXO
 40
0.05
  9
$DIMDLI
 40
0.38
  9
$DIMRND
 40
0.0
  9
$DIMDLE
 40
0.0
  9
$DIMEXE
 40
0.125
  9
$DIMTP
 40
0.0
  9
$DIMTM
 40
0.0
  9
$DIMTXT
 40
0.1527777778
  9
$DIMCEN
 40
0.09
  9
$DIMTSZ
 40
0.0
  9
$DIMTOL
 70
     0
  9
$DIMLIM
 70
     0
  9
$DIMTIH
 70
     1
  9
$DIMTOH
 70
     1
  9
$DIMSE1
 70
     0
  9
$DIMSE2
 70
     0
  9
$DIMTAD
 70
     1
  9
$DIMZIN
 70
     0
  9
$DIMBLK
  1

  9
$DIMASO
 70
     1
  9
$DIMSHO
 70
     1
  9
$DIMPOST
  1

  9
$DIMAPOST
  1

  9
$DIMALT
 70
     0
  9
$DIMALTD
 70
     2
  9
$DIMALTF
 40
25.4
  9
$DIMLFAC
 40
8.0
  9
$DIMTOFL
 70
     0
  9
$DIMTVP
 40
0.0
  9
$DIMTIX
 70
     0
  9
$DIMSOXD
 70
     0
  9
$DIMSAH
 70
     0
  9
$DIMBLK1
  1

  9
$DIMBLK2
  1

  9
$DIMSTYLE
  2
Standard
  9
$DIMCLRD
 70
     0
  9
$DIMCLRE
 70
     0
  9
$DIMCLRT
 70
     0
  9
$DIMTFAC
 40
1.0
  9
$DIMGAP
 40
0.06
  9
$DIMJUST
 70
     0
  9
$DIMSD1
 70
     0
  9
$DIMSD2
 70
     0
  9
$DIMTOLJ
 70
     1
  9
$DIMTZIN
 70
     0
  9
$DIMALTZ
 70
     0
  9
$DIMALTTZ
 70
     0
  9
$DIMUPT
 70
     0
  9
$DIMDEC
 70
     2
  9
$DIMTDEC
 70
     2
  9
$DIMALTU
 70
     2
  9
$DIMALTTD
 70
     2
  9
$DIMTXSTY
  7
Standard
  9
$DIMAUNIT
 70
     0
  9
$DIMADEC
 70
     2
  9
$DIMALTRND
 40
0.0
  9
$DIMAZIN
 70
     0
  9
$DIMDSEP
 70
    46
  9
$DIMATFIT
 70
     3
  9
$DIMFRAC
 70
     0
  9
$DIMLDRBLK
  1

  9
$DIMLUNIT
 70
     2
  9
$DIMLWD
 70
    -2
  9
$DIMLWE
 70
    -2
  9
$DIMTMOVE
 70
     0
  9
$LUNITS
 70
     2
  9
$LUPREC
 70
     3
  9
$SKETCHINC
 40
0.1
  9
$FILLETRAD
 40
0.5
  9
$AUNITS
 70
     0
  9
$AUPREC
 70
     2
  9
$MENU
  1
.
  9
$ELEVATION
 40
0.0
  9
$PELEVATION
 40
0.0
  9
$THICKNESS
 40
0.0
  9
$LIMCHECK
 70
     0
  9
$CHAMFERA
 40
0.5
  9
$CHAMFERB
 40
0.5
  9
$CHAMFERC
 40
1.0
  9
$CHAMFERD
 40
0.0
  9
$SKPOLY
 70
     0
  9
$TDCREATE
 40
2456051.444408276
  9
$TDUCREATE
 40
2456051.694408276
  9
$TDUPDATE
 40
2456051.444408438
  9
$TDUUPDATE
 40
2456051.694408438
  9
$TDINDWG
 40
0.0000000116
  9
$TDUSRTIMER
 40
0.0000000116
  9
$USRTIMER
 70
     1
  9
$ANGBASE
 50
0.0
  9
$ANGDIR
 70
     0
  9
$PDMODE
 70
     0
  9
$PDSIZE
 40
-1.0
  9
$PLINEWID
 40
0.0
  9
$SPLFRAME
 70
     0
  9
$SPLINETYPE
 70
     6
  9
$SPLINESEGS
 70
     8
  9
$HANDSEED
  5
119
  9
$SURFTAB1
 70
     6
  9
$SURFTAB2
 70
     6
  9
$SURFTYPE
 70
     6
  9
$SURFU
 70
     6
  9
$SURFV
 70
     6
  9
$UCSBASE
  2

  9
$UCSNAME
  2

  9
$UCSORG
 10
0.0
 20
0.0
 30
0.0
  9
$UCSXDIR
 10
1.0
 20
0.0
 30
0.0
  9
$UCSYDIR
 10
0.0
 20
1.0
 30
0.0
  9
$UCSORTHOREF
  2

  9
$UCSORTHOVIEW
 70
     0
  9
$UCSORGTOP
 10
0.0
 20
0.0
 30
0.0
  9
$UCSORGBOTTOM
 10
0.0
 20
0.0
 30
0.0
  9
$UCSORGLEFT
 10
0.0
 20
0.0
 30
0.0
  9
$UCSORGRIGHT
 10
0.0
 20
0.0
 30
0.0
  9
$UCSORGFRONT
 10
0.0
 20
0.0
 30
0.0
  9
$UCSORGBACK
 10
0.0
 20
0.0
 30
0.0
  9
$PUCSBASE
  2

  9
$PUCSNAME
  2

  9
$PUCSORG
 10
0.0
 20
0.0
 30
0.0
  9
$PUCSXDIR
 10
1.0
 20
0.0
 30
0.0
  9
$PUCSYDIR
 10
0.0
 20
1.0
 30
0.0
  9
$PUCSORTHOREF
  2

  9
$PUCSORTHOVIEW
 70
     0
  9
$PUCSORGTOP
 10
0.0
 20
0.0
 30
0.0
  9
$PUCSORGBOTTOM
 10
0.0
 20
0.0
 30
0.0
  9
$PUCSORGLEFT
 10
0.0
 20
0.0
 30
0.0
  9
$PUCSORGRIGHT
 10
0.0
 20
0.0
 30
0.0
  9
$PUCSORGFRONT
 10
0.0
 20
0.0
 30
0.0
  9
$PUCSORGBACK
 10
0.0
 20
0.0
 30
0.0
  9
$USERI1
 70
     0
  9
$USERI2
 70
     0
  9
$USERI3
 70
     0
  9
$USERI4
 70
     0
  9
$USERI5
 70
     0
  9
$USERR1
 40
0.0
  9
$USERR2
 40
0.0
  9
$USERR3
 40
0.0
  9
$USERR4
 40
0.0
  9
$USERR5
 40
0.0
  9
$WORLDVIEW
 70
     1
  9
$SHADEDGE
 70
     3
  9
$SHADEDIF
 70
    70
  9
$TILEMODE
 70
     1
  9
$MAXACTVP
 70
    64
  9
$PINSBASE
 10
0.0
 20
0.0
 30
0.0
  9
$PLIMCHECK
 70
     0
  9
$PEXTMIN
 10
1.0000000000E+20
 20
1.0000000000E+20
 30
1.0000000000E+20
  9
$PEXTMAX
 10
-1.0000000000E+20
 20
-1.0000000000E+20
 30
-1.0000000000E+20
  9
$PLIMMIN
 10
0.0
 20
0.0
  9
$PLIMMAX
 10
12.0
 20
9.0
  9
$UNITMODE
 70
     0
  9
$VISRETAIN
 70
     1
  9
$PLINEGEN
 70
     0
  9
$PSLTSCALE
 70
     1
  9
$TREEDEPTH
 70
  3020
  9
$CMLSTYLE
  2
Standard
  9
$CMLJUST
 70
     0
  9
$CMLSCALE
 40
1.0
  9
$PROXYGRAPHICS
 70
     1
  9
$MEASUREMENT
 70
     0
  9
$CELWEIGHT
370
    -1
  9
$ENDCAPS
280
     0
  9
$JOINSTYLE
280
     0
  9
$LWDISPLAY
290
     1
  9
$INSUNITS
 70
     1
  9
$HYPERLINKBASE
  1

  9
$STYLESHEET
  1

  9
$XEDIT
290
     1
  9
$CEPSNTYPE
380
     0
  9
$PSTYLEMODE
290
     1
  9
$FINGERPRINTGUID
  2
{55D8EF45-EEAC-43FD-BCD0-9C51CDD265AE}
  9
$VERSIONGUID
  2
{FAEB1C32-E019-11D5-929B-00C0DF256EC4}
  9
$EXTNAMES
290
     1
  9
$PSVPSCALE
 40
0.0
  9
$OLESTARTUP
290
     0
  0
ENDSEC
  0
SECTION
  2
CLASSES
  0
CLASS
  1
ACDBDICTIONARYWDFLT
  2
AcDbDictionaryWithDefault
  3
ObjectDBX Classes
 90
        0
280
     0
281
     0
  0
CLASS
  1
VISUALSTYLE
  2
AcDbVisualStyle
  3
ObjectDBX Classes
 90
     4095
280
     0
281
     0
  0
CLASS
  1
MATERIAL
  2
AcDbMaterial
  3
ObjectDBX Classes
 90
     1153
280
     0
281
     0
  0
CLASS
  1
ACDBPLACEHOLDER
  2
AcDbPlaceHolder
  3
ObjectDBX Classes
 90
        0
280
     0
281
     0
  0
CLASS
  1
LAYOUT
  2
AcDbLayout
  3
ObjectDBX Classes
 90
        0
280
     0
281
     0
  0
ENDSEC
  0
SECTION
  2
TABLES
  0
TABLE
  2
VPORT
  5
8
330
0
100
AcDbSymbolTable
 70
     1
  0
VPORT
  5
29
330
8
100
AcDbSymbolTableRecord
100
AcDbViewportTableRecord
  2
*Active
 70
     0
 10
0.0
 20
0.0
 11
1.0
 21
1.0
 12
4.25
 22
5.5
 13
0.0
 23
0.0
 14
0.5
 24
0.5
 15
0.5
 25
0.5
 16
0.0
 26
0.0
 36
1.0
 17
0.0
 27
0.0
 37
0.0
 40
11.0
 41
0.7727272727
 42
50.0
 43
0.0
 44
0.0
 50
0.0
 51
0.0
 71
     0
 72
  2000
 73
     1
 74
     3
 75
     0
 76
     0
 77
     0
 78
     0
281
     0
 65
     1
110
0.0
120
0.0
130
0.0
111
1.0
121
0.0
131
0.0
112
0.0
122
1.0
132
0.0
 79
     0
146
0.0
  0
ENDTAB
  0
TABLE
  2
LTYPE
  5
5
330
0
100
AcDbSymbolTable
 70
     6
  0
LTYPE
  5
14
330
5
100
AcDbSymbolTableRecord
100
AcDbLinetypeTableRecord
  2
ByBlock
 70
     0
  3

 72
    65
 73
     0
 40
0.0
  0
LTYPE
  5
15
330
5
100
AcDbSymbolTableRecord
100
AcDbLinetypeTableRecord
  2
ByLayer
 70
     0
  3

 72
    65
 73
     0
 40
0.0
  0
LTYPE
  5
16
330
5
100
AcDbSymbolTableRecord
100
AcDbLinetypeTableRecord
  2
Continuous
 70
     0
  3
Solid line
 72
    65
 73
     0
 40
0.0
  0
LTYPE
  5
3F
330
5
100
AcDbSymbolTableRecord
100
AcDbLinetypeTableRecord
  2
HIDDEN
 70
     0
  3
Hidden __ __ __ __ __ __ __ __ __ __ __ __ __ __
 72
    65
 73
     2
 40
0.075
 49
0.05
 74
     0
 49
-0.025
 74
     0
  0
LTYPE
  5
40
330
5
100
AcDbSymbolTableRecord
100
AcDbLinetypeTableRecord
  2
PHANTOM
 70
     0
  3
Phantom ______  __  __  ______  __  __  ______
 72
    65
 73
     6
 40
0.5
 49
0.25
 74
     0
 49
-0.05
 74
     0
 49
0.05
 74
     0
 49
-0.05
 74
     0
 49
0.05
 74
     0
 49
-0.05
 74
     0
  0
LTYPE
  5
41
330
5
100
AcDbSymbolTableRecord
100
AcDbLinetypeTableRecord
  2
CENTER
 70
     0
  3
Center ____ _ ____ _ ____ _ ____ _ ____ _ ____
 72
    65
 73
     4
 40
0.4
 49
0.25
 74
     0
 49
-0.05
 74
     0
 49
0.05
 74
     0
 49
-0.05
 74
     0
  0
LTYPE
  5
42
330
5
100
AcDbSymbolTableRecord
100
AcDbLinetypeTableRecord
  2
CENTERX2
 70
     0
  3
Center (2x) ________  __  ________  __  _____
 72
    65
 73
     4
 40
0.8
 49
0.5
 74
     0
 49
-0.1
 74
     0
 49
0.1
 74
     0
 49
-0.1
 74
     0
  0
LTYPE
  5
43
330
5
100
AcDbSymbolTableRecord
100
AcDbLinetypeTableRecord
  2
DOT2
 70
     0
  3
Dot (.5x) ........................................
 72
    65
 73
     2
 40
0.025
 49
0.0
 74
     0
 49
-0.025
 74
     0
  0
ENDTAB
  0
TABLE
  2
LAYER
  5
2
330
0
100
AcDbSymbolTable
 70
     1
  0
LAYER
  5
10
330
2
100
AcDbSymbolTableRecord
100
AcDbLayerTableRecord
  2
0
 70
     0
 62
     7
  6
Continuous
370
    -3
390
F
  0
ENDTAB
  0
TABLE
  2
STYLE
  5
3
330
0
100
AcDbSymbolTable
 70
     1
  0
STYLE
  5
11
330
3
100
AcDbSymbolTableRecord
100
AcDbTextStyleTableRecord
  2
Standard
 70
     0
 40
0.0
 41
1.0
 50
0.0
 71
     0
 42
0.125
  3
txt
  4

  0
ENDTAB
  0
TABLE
  2
VIEW
  5
6
330
0
100
AcDbSymbolTable
 70
     0
  0
ENDTAB
  0
TABLE
  2
UCS
  5
7
330
0
100
AcDbSymbolTable
 70
     0
  0
ENDTAB
  0
TABLE
  2
APPID
  5
9
330
0
100
AcDbSymbolTable
 70
     1
  0
APPID
  5
12
330
9
100
AcDbSymbolTableRecord
100
AcDbRegAppTableRecord
  2
ACAD
 70
     0
  0
ENDTAB
  0
TABLE
  2
DIMSTYLE
  5
A
330
0
100
AcDbSymbolTable
 70
     1
100
AcDbDimStyleTable
  0
DIMSTYLE
105
27
330
A
100
AcDbSymbolTableRecord
100
AcDbDimStyleTableRecord
  2
Standard
 70
     0
178
     0
340
11
  0
ENDTAB
  0
TABLE
  2
BLOCK_RECORD
  5
1
330
0
100
AcDbSymbolTable
 70
     1
  0
BLOCK_RECORD
  5
1F
330
1
100
AcDbSymbolTableRecord
100
AcDbBlockTableRecord
  2
*Model_Space
340
22
  0
BLOCK_RECORD
  5
1B
330
1
100
AcDbSymbolTableRecord
100
AcDbBlockTableRecord
  2
*Paper_Space
340
1E
  0
BLOCK_RECORD
  5
23
330
1
100
AcDbSymbolTableRecord
100
AcDbBlockTableRecord
  2
*Paper_Space0
340
26
  0
ENDTAB
  0
ENDSEC
  0
SECTION
  2
BLOCKS
  0
BLOCK
  5
20
330
1F
100
AcDbEntity
  8
0
100
AcDbBlockBegin
  2
*Model_Space
 70
     0
 10
0.0
 20
0.0
 30
0.0
  3
*Model_Space
  1

  0
ENDBLK
  5
21
330
1F
100
AcDbEntity
  8
0
100
AcDbBlockEnd
  0
BLOCK
  5
1C
330
1B
100
AcDbEntity
 67
     1
  8
0
100
AcDbBlockBegin
  2
*Paper_Space
 70
     0
 10
0.0
 20
0.0
 30
0.0
  3
*Paper_Space
  1

  0
ENDBLK
  5
1D
330
1B
100
AcDbEntity
 67
     1
  8
0
100
AcDbBlockEnd
  0
BLOCK
  5
24
330
23
100
AcDbEntity
  8
0
100
AcDbBlockBegin
  2
*Paper_Space0
 70
     0
 10
0.0
 20
0.0
 30
0.0
  3
*Paper_Space0
  1

  0
ENDBLK
  5
25
330
23
100
AcDbEntity
  8
0
100
AcDbBlockEnd
  0
ENDSEC
  0
SECTION
  2
ENTITIES
  0
LINE
  5
44
330
1F
100
AcDbEntity
  8
0
  6
Continuous
 62
     7
370
    15
100
AcDbLine
 10
3.6950489587
 20
7.3381563356
 30
0.0
 11
3.6950489587
 21
7.3535881123
 31
0.0
  0
LINE
  5
45
330
1F
100
AcDbEntity
  8
0
  6
Continuous
 62
     7
370
    15
100
AcDbLine
 10
3.6481739902
 20
7.3535881123
 30
0.0
 11
3.6481739902
 21
7.3381563356
 31
0.0
  0
SPLINE
  5
46
330
1F
100
AcDbEntity
  8
0
  6
Continuous
 62
     7
370
    15
100
AcDbSpline
210
0.0
220
0.0
230
1.0
 70
     8
 71
     3
 72
    13
 73
     9
 74
     0
 42
0.00000001
 43
0.00000001
 12
1.0
 22
0.0
 32
0.0
 13
1.0
 23
0.0
 33
0.0
 40
0.0
 40
0.0
 40
0.0
 40
0.0
 40
0.0717698099920779
 40
0.265473337975556
 40
0.4708667935848172
 40
0.6868499880420109
 40
0.911607698443982
 40
1.0
 40
1.0
 40
1.0
 40
1.0
 10
3.695048958715188
 20
7.348093299941673
 30
0.0
 10
3.695302675830968
 20
7.348261947521618
 30
0.0
 10
3.696241164167987
 20
7.348885767425761
 30
0.0
 10
3.699182717494566
 20
7.350403905983049
 30
0.0
 10
3.703888894909462
 20
7.352425368521495
 30
0.0
 10
3.710119014572531
 20
7.354582256698486
 30
0.0
 10
3.715878722418529
 20
7.356303760457408
 30
0.0
 10
3.719862095933159
 20
7.357213719822822
 30
0.0
 10
3.720986475749445
 20
7.357470572447954
 30
0.0
  0
SPLINE
  5
47
330
1F
100
AcDbEntity
  8
0
  6
Continuous
 62
     7
370
    15
100
AcDbSpline
210
0.0
220
0.0
230
1.0
 70
     8
 71
     3
 72
    18
 73
    14
 74
     0
 42
0.00000001
 43
0.00000001
 12
1.0
 22
0.0
 32
0.0
 13
1.0
 23
0.0
 33
0.0
 40
0.0
 40
0.0
 40
0.0
 40
0.0
 40
0.091186323441634
 40
0.1966803437271711
 40
0.3043380509196205
 40
0.4151923352802514
 40
0.5305469088091018
 40
0.6308359059139527
 40
0.7172747266828698
 40
0.7943721749816159
 40
0.8659037136106535
 40
0.9344295953525376
 40
1.0
 40
1.0
 40
1.0
 40
1.0
 10
3.720986475749445
 20
7.405437056043375
 30
0.0
 10
3.717475165804699
 20
7.404725040936776
 30
0.0
 10
3.709901599717158
 20
7.403189291159621
 30
0.0
 10
3.699213802092671
 20
7.400318898026964
 30
0.0
 10
3.688715806190091
 20
7.396874596455336
 30
0.0
 10
3.678951813018003
 20
7.392818188847812
 30
0.0
 10
3.670408794658241
 20
7.38823606298855
 30
0.0
 10
3.663341130130971
 20
7.383213913755135
 30
0.0
 10
3.65782740596059
 20
7.377961699307482
 30
0.0
 10
3.653574850992688
 20
7.372387768250948
 30
0.0
 10
3.650502115022835
 20
7.366402322869718
 30
0.0
 10
3.648539313999895
 20
7.360079803214274
 30
0.0
 10
3.648293962298433
 20
7.355719979151097
 30
0.0
 10
3.648173990218824
 20
7.353588112298465
 30
0.0
  0
LINE
  5
48
330
1F
100
AcDbEntity
  8
0
  6
Continuous
 62
     7
370
    15
100
AcDbLine
 10
4.7647989942
 20
7.536232844
 30
0.0
 11
4.7647989942
 21
7.5262320896
 31
0.0
  0
LINE
  5
49
330
1F
100
AcDbEntity
  8
0
  6
Continuous
 62
     7
370
    15
100
AcDbLine
 10
4.8116739627
 20
7.5262320896
 30
0.0
 11
4.8116739627
 21
7.5376252263
 31
0.0
  0
SPLINE
  5
4A
330
1F
100
AcDbEntity
  8
0
  6
Continuous
 62
     7
370
    15
100
AcDbSpline
210
0.0
220
0.0
230
1.0
 70
     8
 71
     3
 72
    12
 73
     8
 74
     0
 42
0.00000001
 43
0.00000001
 12
1.0
 22
0.0
 32
0.0
 13
1.0
 23
0.0
 33
0.0
 40
0.0
 40
0.0
 40
0.0
 40
0.0
 40
0.1552485102007757
 40
0.3647932194644584
 40
0.5867040174830755
 40
0.8188581331457145
 40
1.0
 40
1.0
 40
1.0
 40
1.0
 10
4.764798994204826
 20
7.532811636059691
 30
0.0
 10
4.764069211216365
 20
7.532419927668818
 30
0.0
 10
4.762354412887372
 20
7.53149951584127
 30
0.0
 10
4.758165548057941
 20
7.529744149771382
 30
0.0
 10
4.752405094190816
 20
7.527762306182445
 30
0.0
 10
4.745946769202505
 20
7.525891974279368
 30
0.0
 10
4.741020564158773
 20
7.524791134509726
 30
0.0
 10
4.73886147717057
 20
7.524308651786892
 30
0.0
  0
SPLINE
  5
4B
330
1F
100
AcDbEntity
  8
0
  6
Continuous
 62
     7
370
    15
100
AcDbSpline
210
0.0
220
0.0
230
1.0
 70
     8
 71
     3
 72
    18
 73
    14
 74
     0
 42
0.00000001
 43
0.00000001
 12
1.0
 22
0.0
 32
0.0
 13
1.0
 23
0.0
 33
0.0
 40
0.0
 40
0.0
 40
0.0
 40
0.0
 40
0.0885646080788168
 40
0.1940189665867735
 40
0.3016460290063437
 40
0.412589931579001
 40
0.5285206526748338
 40
0.6303967455959214
 40
0.7160136583191762
 40
0.7915658005949544
 40
0.8613103030909017
 40
0.927934968721525
 40
1.0
 40
1.0
 40
1.0
 40
1.0
 10
4.73886147717057
 20
7.476511444777638
 30
0.0
 10
4.742253103204961
 20
7.477149221486597
 30
0.0
 10
4.749683156727649
 20
7.478546402377127
 30
0.0
 10
4.760208394691125
 20
7.481168619283398
 30
0.0
 10
4.770636522799244
 20
7.484339296747421
 30
0.0
 10
4.780346533928411
 20
7.488080252521847
 30
0.0
 10
4.788889623021859
 20
7.492334226652518
 30
0.0
 10
4.795973903537351
 20
7.497023626267991
 30
0.0
 10
4.801528447457777
 20
7.501969124758599
 30
0.0
 10
4.805837030241897
 20
7.507231307672662
 30
0.0
 10
4.809016397865159
 20
7.512944923638369
 30
0.0
 10
4.811224154476268
 20
7.519310752106712
 30
0.0
 10
4.811520156216861
 20
7.523865421901559
 30
0.0
 10
4.81167396270119
 20
7.526232089567173
 30
0.0
  0
LINE
  5
4C
330
1F
100
AcDbEntity
  8
0
  6
Continuous
 62
     7
370
    15
100
AcDbLine
 10
3.6872364823
 20
7.6165879608
 30
0.0
 11
3.6872364823
 21
7.6764136297
 31
0.0
  0
LINE
  5
4D
330
1F
100
AcDbEntity
  8
0
  6
Continuous
 62
     7
370
    15
100
AcDbLine
 10
3.6559864666
 20
7.6764136297
 30
0.0
 11
3.6559864666
 21
7.6211877776
 31
0.0
  0
SPLINE
  5
4E
330
1F
100
AcDbEntity
  8
0
  6
Continuous
 62
     7
370
    15
100
AcDbSpline
210
0.0
220
0.0
230
1.0
 70
     8
 71
     3
 72
    16
 73
    12
 74
     0
 42
0.00000001
 43
0.00000001
 12
1.0
 22
0.0
 32
0.0
 13
1.0
 23
0.0
 33
0.0
 40
0.0
 40
0.0
 40
0.0
 40
0.0
 40
0.0645168206771874
 40
0.1852836945966539
 40
0.2978731530589929
 40
0.418119711161232
 40
0.5329425363340098
 40
0.6476372481532073
 40
0.7638847868350739
 40
0.8822870270146954
 40
1.0
 40
1.0
 40
1.0
 40
1.0
 10
3.687236482298916
 20
7.676413629657207
 30
0.0
 10
3.687241409520494
 20
7.676530084817085
 30
0.0
 10
3.687255559842976
 20
7.676864528486974
 30
0.0
 10
3.687459095830898
 20
7.677700339889677
 30
0.0
 10
3.68845628612137
 20
7.679576602056101
 30
0.0
 10
3.690631096841976
 20
7.682181155980383
 30
0.0
 10
3.694199761716095
 20
7.685262945825776
 30
0.0
 10
3.699030327861183
 20
7.688498407930208
 30
0.0
 10
3.705162230768641
 20
7.691763905381037
 30
0.0
 10
3.712419639268632
 20
7.69494871827681
 30
0.0
 10
3.718136426401462
 20
7.696875099826927
 30
0.0
 10
3.720986475749445
 20
7.697835478856843
 30
0.0
  0
SPLINE
  5
4F
330
1F
100
AcDbEntity
  8
0
  6
Continuous
 62
     7
370
    15
100
AcDbSpline
210
0.0
220
0.0
230
1.0
 70
     8
 71
     3
 72
    18
 73
    14
 74
     0
 42
0.00000001
 43
0.00000001
 12
1.0
 22
0.0
 32
0.0
 13
1.0
 23
0.0
 33
0.0
 40
0.0
 40
0.0
 40
0.0
 40
0.0
 40
0.0885300497262158
 40
0.1973421526189803
 40
0.3074046245346187
 40
0.4190040541764877
 40
0.5321762218187547
 40
0.6341075126420792
 40
0.7295826949504349
 40
0.818670863412053
 40
0.9032534110660526
 40
0.9855957174146961
 40
1.0
 40
1.0
 40
1.0
 40
1.0
 10
3.720986475749445
 20
7.730324171878023
 30
0.0
 10
3.717757895220656
 20
7.72944148729525
 30
0.0
 10
3.71056107297301
 20
7.727473896898693
 30
0.0
 10
3.700379373103621
 20
7.723791234053924
 30
0.0
 10
3.690327982344705
 20
7.719373580489472
 30
0.0
 10
3.681241280242033
 20
7.714339745682598
 30
0.0
 10
3.673481135065721
 20
7.708847050758429
 30
0.0
 10
3.667176178699589
 20
7.70300008752741
 30
0.0
 10
3.662359869386587
 20
7.696977586978764
 30
0.0
 10
3.658868095863673
 20
7.690703583649485
 30
0.0
 10
3.656683098870274
 20
7.684217980921336
 30
0.0
 10
3.656018995015423
 20
7.679386524419074
 30
0.0
 10
3.655990682058475
 20
7.676798893539182
 30
0.0
 10
3.655986466635097
 20
7.676413629657207
 30
0.0
  0
LINE
  5
50
330
1F
100
AcDbEntity
  8
0
  6
Continuous
 62
     7
370
    15
100
AcDbLine
 10
4.7726114706
 20
7.2585616217
 30
0.0
 11
4.7726114706
 21
7.2036688092
 31
0.0
  0
LINE
  5
51
330
1F
100
AcDbEntity
  8
0
  6
Continuous
 62
     7
370
    15
100
AcDbLine
 10
4.8038614863
 20
7.2036688092
 30
0.0
 11
4.8038614863
 21
7.2519865577
 31
0.0
  0
SPLINE
  5
52
330
1F
100
AcDbEntity
  8
0
  6
Continuous
 62
     7
370
    15
100
AcDbSpline
210
0.0
220
0.0
230
1.0
 70
     8
 71
     3
 72
    17
 73
    13
 74
     0
 42
0.00000001
 43
0.00000001
 12
1.0
 22
0.0
 32
0.0
 13
1.0
 23
0.0
 33
0.0
 40
0.0
 40
0.0
 40
0.0
 40
0.0
 40
0.0645623873990903
 40
0.1831919504005187
 40
0.2927489050625324
 40
0.4093917187664535
 40
0.5216961735169036
 40
0.6343803964338558
 40
0.7491364486634817
 40
0.866396370212836
 40
0.9859560780116357
 40
1.0
 40
1.0
 40
1.0
 40
1.0
 10
4.772611470621099
 20
7.203668809179048
 30
0.0
 10
4.772610328179516
 20
7.203635934780156
 30
0.0
 10
4.772607086569188
 20
7.203542655620355
 30
0.0
 10
4.772507780387921
 20
7.203051695085356
 30
0.0
 10
4.771672019143113
 20
7.201507805675474
 30
0.0
 10
4.769681425931358
 20
7.199187922953296
 30
0.0
 10
4.766313503502976
 20
7.196354902666106
 30
0.0
 10
4.7616592122936
 20
7.19332910529093
 30
0.0
 10
4.755729112452294
 20
7.190227580220894
 30
0.0
 10
4.748438270979723
 20
7.187205860115058
 30
0.0
 10
4.742729473938144
 20
7.185117327394872
 30
0.0
 10
4.739229392819707
 20
7.184155026019112
 30
0.0
 10
4.73886147717057
 20
7.184053872439137
 30
0.0
  0
SPLINE
  5
53
330
1F
100
AcDbEntity
  8
0
  6
Continuous
 62
     7
370
    15
100
AcDbSpline
210
0.0
220
0.0
230
1.0
 70
     8
 71
     3
 72
    18
 73
    14
 74
     0
 42
0.00000001
 43
0.00000001
 12
1.0
 22
0.0
 32
0.0
 13
1.0
 23
0.0
 33
0.0
 40
0.0
 40
0.0
 40
0.0
 40
0.0
 40
0.0872282771365031
 40
0.1961962489242883
 40
0.3064854192882159
 40
0.4184637193274802
 40
0.5323101887908459
 40
0.6351228282048441
 40
0.7306554475340341
 40
0.8190470866761741
 40
0.9025095425694474
 40
0.9835131381382419
 40
0.9999999999999999
 40
0.9999999999999999
 40
0.9999999999999999
 40
0.9999999999999999
 10
4.73886147717057
 20
7.151663701613154
 30
0.0
 10
4.742031216935194
 20
7.152488644055033
 30
0.0
 10
4.749160683116353
 20
7.154344127368337
 30
0.0
 10
4.759272293914833
 20
7.15782680096725
 30
0.0
 10
4.769308954057903
 20
7.162026120145629
 30
0.0
 10
4.778397301167303
 20
7.16682277421851
 30
0.0
 10
4.786183764850047
 20
7.172079697950191
 30
0.0
 10
4.792523825953737
 20
7.177700990417129
 30
0.0
 10
4.797373836120919
 20
7.183513460142261
 30
0.0
 10
4.800897339472075
 20
7.189583176849604
 30
0.0
 10
4.803117927575294
 20
7.19587886800639
 30
0.0
 10
4.803822172316416
 20
7.200648561234312
 30
0.0
 10
4.803855799504671
 20
7.203231929184305
 30
0.0
 10
4.803861486284918
 20
7.203668809179048
 30
0.0
  0
ARC
  5
54
330
1F
100
AcDbEntity
  8
0
  6
Continuous
 62
     7
370
    15
100
AcDbCircle
 10
3.6457364765
 20
7.1690239863
 30
0.0
 40
0.0235000000000003
100
AcDbArc
 50
180.0
 51
270.0
  0
LINE
  5
55
330
1F
100
AcDbEntity
  8
0
  6
Continuous
 62
     7
370
    15
100
AcDbLine
 10
3.6457364917
 20
7.1455239942
 30
0.0
 11
3.7209864757
 21
7.1455239942
 31
0.0
  0
LINE
  5
56
330
1F
100
AcDbEntity
  8
0
  6
Continuous
 62
     7
370
    15
100
AcDbLine
 10
4.8141114612
 20
7.7225462351
 30
0.0
 11
4.7388614772
 21
7.7225462351
 31
0.0
  0
ARC
  5
57
330
1F
100
AcDbEntity
  8
0
  6
Continuous
 62
     7
370
    15
100
AcDbCircle
 10
4.8141114765
 20
7.6990462377
 30
0.0
 40
0.0235000000000003
100
AcDbArc
 50
0.0
 51
90.0
  0
LINE
  5
58
330
1F
100
AcDbEntity
  8
0
  6
Continuous
 62
     7
370
    15
100
AcDbLine
 10
4.8141114612
 20
7.4519729099
 30
0.0
 11
4.7388614772
 21
7.4519729099
 31
0.0
  0
ARC
  5
59
330
1F
100
AcDbEntity
  8
0
  6
Continuous
 62
     7
370
    15
100
AcDbCircle
 10
4.8141114765
 20
7.4284729094
 30
0.0
 40
0.0235000000000012
100
AcDbArc
 50
0.0
 51
90.0
  0
LINE
  5
5A
330
1F
100
AcDbEntity
  8
0
  6
Continuous
 62
     7
370
    15
100
AcDbLine
 10
3.6457364917
 20
7.4164891406
 30
0.0
 11
3.7209864757
 21
7.4164891406
 31
0.0
  0
ARC
  5
5B
330
1F
100
AcDbEntity
  8
0
  6
Continuous
 62
     7
370
    15
100
AcDbCircle
 10
3.6457364765
 20
7.4399891403
 30
0.0
 40
0.0235000000000003
100
AcDbArc
 50
180.0
 51
270.0
  0
LINE
  5
5C
330
1F
100
AcDbEntity
  8
0
  6
Continuous
 62
     7
370
    15
100
AcDbLine
 10
3.622861486
 20
7.2971314845
 30
0.0
 11
3.622861486
 21
7.2969735813
 31
0.0
  0
LINE
  5
5D
330
1F
100
AcDbEntity
  8
0
  6
Continuous
 62
     7
370
    15
100
AcDbLine
 10
4.1908614752
 20
7.7558292106
 30
0.0
 11
4.1921114756
 21
7.7545792217
 31
0.0
  0
LINE
  5
5E
330
1F
100
AcDbEntity
  8
0
  6
Continuous
 62
     7
370
    15
100
AcDbLine
 10
4.2677364774
 20
7.7545792217
 30
0.0
 11
4.2689864777
 21
7.7558292106
 31
0.0
  0
LINE
  5
5F
330
1F
100
AcDbEntity
  8
0
  6
Continuous
 62
     7
370
    15
100
AcDbLine
 10
4.2689864777
 20
7.7558292106
 30
0.0
 11
4.2689864777
 21
7.7987403749
 31
0.0
  0
LINE
  5
60
330
1F
100
AcDbEntity
  8
0
  6
Continuous
 62
     7
370
    15
100
AcDbLine
 10
4.1908614752
 20
7.7987403749
 30
0.0
 11
4.1908614752
 21
7.7558292106
 31
0.0
  0
ARC
  5
61
330
1F
100
AcDbEntity
  8
0
  6
Continuous
 62
     7
370
    15
100
AcDbCircle
 10
4.0166114765
 20
7.9333292289
 30
0.0
 40
0.0235000000000003
100
AcDbArc
 50
0.0
 51
90.0
  0
ARC
  5
62
330
1F
100
AcDbEntity
  8
0
  6
Continuous
 62
     7
370
    15
100
AcDbCircle
 10
4.0166114765
 20
6.9345792289
 30
0.0
 40
0.0235000000000003
100
AcDbArc
 50
270.0
 51
0.0
  0
LINE
  5
63
330
1F
100
AcDbEntity
  8
0
  6
Continuous
 62
     7
370
    15
100
AcDbLine
 10
3.7522364914
 20
6.9110792292
 30
0.0
 11
4.0166114707
 21
6.9110792292
 31
0.0
  0
LINE
  5
64
330
1F
100
AcDbEntity
  8
0
  6
Continuous
 62
     7
370
    15
100
AcDbLine
 10
4.0166114707
 20
7.9568292286
 30
0.0
 11
3.7522364914
 21
7.9568292286
 31
0.0
  0
LINE
  5
65
330
1F
100
AcDbEntity
  8
0
  6
Continuous
 62
     7
370
    15
100
AcDbLine
 10
3.7522364914
 20
7.9568292286
 30
0.0
 11
3.7209864757
 21
7.9255792129
 31
0.0
  0
LINE
  5
66
330
1F
100
AcDbEntity
  8
0
  6
Continuous
 62
     7
370
    15
100
AcDbLine
 10
3.7209864757
 20
6.9423292449
 30
0.0
 11
3.7522364914
 21
6.9110792292
 31
0.0
  0
LINE
  5
67
330
1F
100
AcDbEntity
  8
0
  6
Continuous
 62
     7
370
    15
100
AcDbLine
 10
4.7076114615
 20
7.9568292286
 30
0.0
 11
4.4432364823
 21
7.9568292286
 31
0.0
  0
LINE
  5
68
330
1F
100
AcDbEntity
  8
0
  6
Continuous
 62
     7
370
    15
100
AcDbLine
 10
4.4432364823
 20
6.9110792292
 30
0.0
 11
4.7076114615
 21
6.9110792292
 31
0.0
  0
ARC
  5
69
330
1F
100
AcDbEntity
  8
0
  6
Continuous
 62
     7
370
    15
100
AcDbCircle
 10
4.4432364765
 20
6.9345792289
 30
0.0
 40
0.0234999999999994
100
AcDbArc
 50
180.0
 51
270.0
  0
ARC
  5
6A
330
1F
100
AcDbEntity
  8
0
  6
Continuous
 62
     7
370
    15
100
AcDbCircle
 10
4.4432364765
 20
7.9333292289
 30
0.0
 40
0.0234999999999994
100
AcDbArc
 50
90.0
 51
180.0
  0
LINE
  5
6B
330
1F
100
AcDbEntity
  8
0
  6
Continuous
 62
     7
370
    15
100
AcDbLine
 10
4.7076114615
 20
6.9110792292
 30
0.0
 11
4.7388614772
 21
6.9423292449
 31
0.0
  0
LINE
  5
6C
330
1F
100
AcDbEntity
  8
0
  6
Continuous
 62
     7
370
    15
100
AcDbLine
 10
4.7388614772
 20
7.9255792129
 30
0.0
 11
4.7076114615
 21
7.9568292286
 31
0.0
  0
LINE
  5
6D
330
1F
100
AcDbEntity
  8
0
  6
Continuous
 62
     7
370
    15
100
AcDbLine
 10
4.0470633905
 20
7.8987042134
 30
0.0
 11
4.0401114709
 21
7.8866631658
 31
0.0
  0
LINE
  5
6E
330
1F
100
AcDbEntity
  8
0
  6
Continuous
 62
     7
370
    15
100
AcDbLine
 10
4.0401114709
 20
6.981245292
 30
0.0
 11
4.0470633905
 21
6.9692042444
 31
0.0
  0
LINE
  5
6F
330
1F
100
AcDbEntity
  8
0
  6
Continuous
 62
     7
370
    15
100
AcDbLine
 10
4.0552364795
 20
7.8987042134
 30
0.0
 11
4.0470633905
 21
7.8987042134
 31
0.0
  0
LINE
  5
70
330
1F
100
AcDbEntity
  8
0
  6
Continuous
 62
     7
370
    15
100
AcDbLine
 10
4.0470633905
 20
6.9692042444
 30
0.0
 11
4.0552364795
 21
6.9692042444
 31
0.0
  0
LINE
  5
71
330
1F
100
AcDbEntity
  8
0
  6
Continuous
 62
     7
370
    15
100
AcDbLine
 10
4.4127845624
 20
7.8987042134
 30
0.0
 11
4.4046114735
 21
7.8987042134
 31
0.0
  0
LINE
  5
72
330
1F
100
AcDbEntity
  8
0
  6
Continuous
 62
     7
370
    15
100
AcDbLine
 10
4.4197364821
 20
7.8866631658
 30
0.0
 11
4.4127845624
 21
7.8987042134
 31
0.0
  0
ARC
  5
73
330
1F
100
AcDbEntity
  8
0
  6
Continuous
 62
     7
370
    15
100
AcDbCircle
 10
4.4825861261
 20
7.0521964119
 30
0.0
 40
0.0250000000000007
100
AcDbArc
 50
320.7133536329
 51
140.7133536329
  0
LINE
  5
74
330
1F
100
AcDbEntity
  8
0
  6
Continuous
 62
     7
370
    15
100
AcDbLine
 10
4.413969872
 20
6.9288418973
 30
0.0
 11
4.5019358192
 21
7.0363663885
 31
0.0
  0
ARC
  5
75
330
1F
100
AcDbEntity
  8
0
  6
Continuous
 62
     7
370
    15
100
AcDbCircle
 10
4.3484974471
 20
6.9824049768
 30
0.0
 40
0.0845910310529081
100
AcDbArc
 50
294.572371674
 51
320.7133536329
  0
ARC
  5
76
330
1F
100
AcDbEntity
  8
0
  6
Continuous
 62
     7
370
    15
100
AcDbCircle
 10
4.3715691068
 20
6.9831214201
 30
0.0
 40
0.0234374999999995
100
AcDbArc
 50
301.0960594433
 51
3.5467816989
  0
LINE
  5
77
330
1F
100
AcDbEntity
  8
0
  6
Continuous
 62
     7
370
    15
100
AcDbLine
 10
4.4632364329
 20
7.0680264061
 30
0.0
 11
4.3949617066
 21
6.9845713602
 31
0.0
  0
CIRCLE
  5
78
330
1F
100
AcDbEntity
  8
0
  6
Continuous
 62
     7
370
    15
100
AcDbCircle
 10
4.4825861261
 20
7.0521964119
 30
0.0
 40
0.0120624999999997
  0
LINE
  5
79
330
1F
100
AcDbEntity
  8
0
  6
Continuous
 62
     7
370
    15
100
AcDbLine
 10
4.0761739768
 20
6.9692042444
 30
0.0
 11
4.0761739768
 21
6.8754542341
 31
0.0
  0
LINE
  5
7A
330
1F
100
AcDbEntity
  8
0
  6
Continuous
 62
     7
370
    15
100
AcDbLine
 10
4.3836739762
 20
6.9692042444
 30
0.0
 11
4.3836739762
 21
6.8754542341
 31
0.0
  0
LINE
  5
7B
330
1F
100
AcDbEntity
  8
0
  6
Continuous
 62
     7
370
    15
100
AcDbLine
 10
4.0761739768
 20
6.8754542341
 30
0.0
 11
4.3836739762
 21
6.8754542341
 31
0.0
  0
CIRCLE
  5
7C
330
1F
100
AcDbEntity
  8
0
  6
Continuous
 62
     7
370
    15
100
AcDbCircle
 10
4.3601739765
 20
6.9302042289
 30
0.0
 40
0.0120624999999999
  0
LINE
  5
7D
330
1F
100
AcDbEntity
  8
0
  6
Continuous
 62
     7
370
    15
100
AcDbLine
 10
4.0761739768
 20
6.9692042444
 30
0.0
 11
4.3836739762
 21
6.9692042444
 31
0.0
  0
CIRCLE
  5
7E
330
1F
100
AcDbEntity
  8
0
  6
Continuous
 62
     7
370
    15
100
AcDbCircle
 10
4.2299239765
 20
7.0950792289
 30
0.0
 40
0.0608726291492561
  0
CIRCLE
  5
7F
330
1F
100
AcDbEntity
  8
0
  6
Continuous
 62
     7
370
    15
100
AcDbCircle
 10
4.2299239765
 20
7.0950792289
 30
0.0
 40
0.0685578333233927
  0
CIRCLE
  5
80
330
1F
100
AcDbEntity
  8
0
  6
Continuous
 62
     7
370
    15
100
AcDbCircle
 10
4.2299239765
 20
7.0950792289
 30
0.0
 40
0.0543749999999994
  0
CIRCLE
  5
81
330
1F
100
AcDbEntity
  8
0
  6
Continuous
 62
     7
370
    15
100
AcDbCircle
 10
4.2299239765
 20
7.0950792289
 30
0.0
 40
0.0703125
  0
CIRCLE
  5
82
330
1F
100
AcDbEntity
  8
0
  6
Continuous
 62
     7
370
    15
100
AcDbCircle
 10
4.2299239765
 20
7.0950792289
 30
0.0
 40
0.0740625000000001
  0
CIRCLE
  5
83
330
1F
100
AcDbEntity
  8
0
  6
Continuous
 62
     7
370
    15
100
AcDbCircle
 10
4.2299239765
 20
7.0950792289
 30
0.0
 40
0.0794312499999998
  0
CIRCLE
  5
84
330
1F
100
AcDbEntity
  8
0
  6
Continuous
 62
     7
370
    15
100
AcDbCircle
 10
4.2299239765
 20
7.0950792289
 30
0.0
 40
0.08984375
  0
LINE
  5
85
330
1F
100
AcDbEntity
  8
0
  6
Continuous
 62
     7
370
    15
100
AcDbLine
 10
4.2299239765
 20
7.2040540981
 30
0.0
 11
4.3242989721
 21
7.1495666675
 31
0.0
  0
LINE
  5
86
330
1F
100
AcDbEntity
  8
0
  6
Continuous
 62
     7
370
    15
100
AcDbLine
 10
4.3242989721
 20
7.0405918064
 30
0.0
 11
4.2299239765
 21
6.9861043758
 31
0.0
  0
LINE
  5
87
330
1F
100
AcDbEntity
  8
0
  6
Continuous
 62
     7
370
    15
100
AcDbLine
 10
4.1355489809
 20
7.1495666675
 30
0.0
 11
4.2299239765
 21
7.2040540981
 31
0.0
  0
LINE
  5
88
330
1F
100
AcDbEntity
  8
0
  6
Continuous
 62
     7
370
    15
100
AcDbLine
 10
4.1355489809
 20
7.0405918064
 30
0.0
 11
4.1355489809
 21
7.1495666675
 31
0.0
  0
LINE
  5
89
330
1F
100
AcDbEntity
  8
0
  6
Continuous
 62
     7
370
    15
100
AcDbLine
 10
4.3242989721
 20
7.1495666675
 30
0.0
 11
4.3242989721
 21
7.0405918064
 31
0.0
  0
LINE
  5
8A
330
1F
100
AcDbEntity
  8
0
  6
Continuous
 62
     7
370
    15
100
AcDbLine
 10
4.2299239765
 20
6.9861043758
 30
0.0
 11
4.1355489809
 21
7.0405918064
 31
0.0
  0
LWPOLYLINE
  5
8B
330
1F
100
AcDbEntity
  8
0
  6
Continuous
 62
     7
370
    15
100
AcDbPolyline
 90
        3
 70
   128
 43
0.0
 10
4.3253614773
 20
7.0950792369
 10
4.3245449934
 20
7.1075363364
 10
4.3242989721
 20
7.1092804762
  0
ARC
  5
8C
330
1F
100
AcDbEntity
  8
0
  6
Continuous
 62
     7
370
    15
100
AcDbCircle
 10
4.2299239765
 20
7.0950792289
 30
0.0
 40
0.0954375
100
AcDbArc
 50
51.442511743
 51
68.557488257
  0
ARC
  5
8D
330
1F
100
AcDbEntity
  8
0
  6
Continuous
 62
     7
370
    15
100
AcDbCircle
 10
4.2299239765
 20
7.0950792289
 30
0.0
 40
0.0954374999999998
100
AcDbArc
 50
111.4425117431
 51
128.557488257
  0
ARC
  5
8E
330
1F
100
AcDbEntity
  8
0
  6
Continuous
 62
     7
370
    15
100
AcDbCircle
 10
4.2299239765
 20
7.0950792289
 30
0.0
 40
0.0954374999999996
100
AcDbArc
 50
171.4425117431
 51
188.557488257
  0
ARC
  5
8F
330
1F
100
AcDbEntity
  8
0
  6
Continuous
 62
     7
370
    15
100
AcDbCircle
 10
4.2299239765
 20
7.0950792289
 30
0.0
 40
0.0954375000000004
100
AcDbArc
 50
231.4425117431
 51
248.5574882569
  0
ARC
  5
90
330
1F
100
AcDbEntity
  8
0
  6
Continuous
 62
     7
370
    15
100
AcDbCircle
 10
4.2299239765
 20
7.0950792289
 30
0.0
 40
0.0954375000000006
100
AcDbArc
 50
291.4425117431
 51
308.5574882569
  0
LWPOLYLINE
  5
91
330
1F
100
AcDbEntity
  8
0
  6
Continuous
 62
     7
370
    15
100
AcDbPolyline
 90
        3
 70
   128
 43
0.0
 10
4.3242989721
 20
7.080877961
 10
4.3245449934
 20
7.0826221375
 10
4.3253614773
 20
7.0950792369
  0
CIRCLE
  5
92
330
1F
100
AcDbEntity
  8
0
  6
Continuous
 62
     7
370
    15
100
AcDbCircle
 10
4.2299239765
 20
7.7728292289
 30
0.0
 40
0.0608726291492558
  0
CIRCLE
  5
93
330
1F
100
AcDbEntity
  8
0
  6
Continuous
 62
     7
370
    15
100
AcDbCircle
 10
4.2299239765
 20
7.7728292289
 30
0.0
 40
0.0685578333233924
  0
CIRCLE
  5
94
330
1F
100
AcDbEntity
  8
0
  6
Continuous
 62
     7
370
    15
100
AcDbCircle
 10
4.2299239765
 20
7.7728292289
 30
0.0
 40
0.0543749999999995
  0
CIRCLE
  5
95
330
1F
100
AcDbEntity
  8
0
  6
Continuous
 62
     7
370
    15
100
AcDbCircle
 10
4.2299239765
 20
7.7728292289
 30
0.0
 40
0.0703125000000006
  0
CIRCLE
  5
96
330
1F
100
AcDbEntity
  8
0
  6
Continuous
 62
     7
370
    15
100
AcDbCircle
 10
4.2299239765
 20
7.7728292289
 30
0.0
 40
0.0740624999999994
  0
CIRCLE
  5
97
330
1F
100
AcDbEntity
  8
0
  6
Continuous
 62
     7
370
    15
100
AcDbCircle
 10
4.2299239765
 20
7.7728292289
 30
0.0
 40
0.0794312499999992
  0
CIRCLE
  5
98
330
1F
100
AcDbEntity
  8
0
  6
Continuous
 62
     7
370
    15
100
AcDbCircle
 10
4.2299239765
 20
7.7728292289
 30
0.0
 40
0.0898437499999988
  0
LINE
  5
99
330
1F
100
AcDbEntity
  8
0
  6
Continuous
 62
     7
370
    15
100
AcDbLine
 10
4.2917861618
 20
7.8625431578
 30
0.0
 11
4.3385496191
 21
7.7641119682
 31
0.0
  0
LINE
  5
9A
330
1F
100
AcDbEntity
  8
0
  6
Continuous
 62
     7
370
    15
100
AcDbLine
 10
4.3385496191
 20
7.7641119682
 30
0.0
 11
4.2766874337
 21
7.6743980313
 31
0.0
  0
LINE
  5
9B
330
1F
100
AcDbEntity
  8
0
  6
Continuous
 62
     7
370
    15
100
AcDbLine
 10
4.2766874337
 20
7.6743980313
 30
0.0
 11
4.1680617911
 21
7.6831152839
 31
0.0
  0
LINE
  5
9C
330
1F
100
AcDbEntity
  8
0
  6
Continuous
 62
     7
370
    15
100
AcDbLine
 10
4.1680617911
 20
7.6831152839
 30
0.0
 11
4.1212983338
 21
7.7815464735
 31
0.0
  0
LINE
  5
9D
330
1F
100
AcDbEntity
  8
0
  6
Continuous
 62
     7
370
    15
100
AcDbLine
 10
4.1831605192
 20
7.8712604104
 30
0.0
 11
4.2917861618
 21
7.8625431578
 31
0.0
  0
LINE
  5
9E
330
1F
100
AcDbEntity
  8
0
  6
Continuous
 62
     7
370
    15
100
AcDbLine
 10
4.1212983338
 20
7.7815464735
 30
0.0
 11
4.1831605192
 21
7.8712604104
 31
0.0
  0
LWPOLYLINE
  5
9F
330
1F
100
AcDbEntity
  8
0
  6
Continuous
 62
     7
370
    15
100
AcDbPolyline
 90
        3
 70
   128
 43
0.0
 10
4.3084932363
 20
7.7186518584
 10
4.3148926324
 20
7.7293707029
 10
4.3155615897
 20
7.7307042358
  0
ARC
  5
A0
330
1F
100
AcDbEntity
  8
0
  6
Continuous
 62
     7
370
    15
100
AcDbCircle
 10
4.2299239765
 20
7.7728292289
 30
0.0
 40
0.0954375000000003
100
AcDbArc
 50
16.8543345343
 51
33.9693110482
  0
ARC
  5
A1
330
1F
100
AcDbEntity
  8
0
  6
Continuous
 62
     7
370
    15
100
AcDbCircle
 10
4.2299239765
 20
7.7728292289
 30
0.0
 40
0.0954375000000008
100
AcDbArc
 50
76.8543345343
 51
93.9693110482
  0
ARC
  5
A2
330
1F
100
AcDbEntity
  8
0
  6
Continuous
 62
     7
370
    15
100
AcDbCircle
 10
4.2299239765
 20
7.7728292289
 30
0.0
 40
0.0954375000000008
100
AcDbArc
 50
136.8543345343
 51
153.9693110482
  0
ARC
  5
A3
330
1F
100
AcDbEntity
  8
0
  6
Continuous
 62
     7
370
    15
100
AcDbCircle
 10
4.2299239765
 20
7.7728292289
 30
0.0
 40
0.0954374999999996
100
AcDbArc
 50
196.8543345343
 51
213.9693110482
  0
ARC
  5
A4
330
1F
100
AcDbEntity
  8
0
  6
Continuous
 62
     7
370
    15
100
AcDbCircle
 10
4.2299239765
 20
7.7728292289
 30
0.0
 40
0.0954374999999996
100
AcDbArc
 50
256.8543345343
 51
273.9693110482
  0
LWPOLYLINE
  5
A5
330
1F
100
AcDbEntity
  8
0
  6
Continuous
 62
     7
370
    15
100
AcDbPolyline
 90
        3
 70
   128
 43
0.0
 10
4.2995568433
 20
7.7075637665
 10
4.3007494954
 20
7.7088600098
 10
4.3084932363
 20
7.7186518584
  0
LINE
  5
A6
330
1F
100
AcDbEntity
  8
0
  6
Continuous
 62
     7
370
    15
100
AcDbLine
 10
3.6222364732
 20
7.1690239944
 30
0.0
 11
3.6222364732
 21
7.2454534031
 31
0.0
  0
ARC
  5
A7
330
1F
100
AcDbEntity
  8
0
  6
Continuous
 62
     7
370
    15
100
AcDbCircle
 10
3.6452728255
 20
7.2449702771
 30
0.0
 40
0.0230414178537303
100
AcDbArc
 50
88.846949742
 51
178.7985499877
  0
LINE
  5
A8
330
1F
100
AcDbEntity
  8
0
  6
Continuous
 62
     7
370
    15
100
AcDbLine
 10
3.7209864757
 20
7.2680070293
 30
0.0
 11
3.6457364917
 21
7.2680070293
 31
0.0
  0
ARC
  5
A9
330
1F
100
AcDbEntity
  8
0
  6
Continuous
 62
     7
370
    15
100
AcDbCircle
 10
3.6452728163
 20
7.2913235587
 30
0.0
 40
0.0230414085025022
100
AcDbArc
 50
88.8469265085
 51
178.7985732212
  0
LINE
  5
AA
330
1F
100
AcDbEntity
  8
0
  6
Continuous
 62
     7
370
    15
100
AcDbLine
 10
3.6457364917
 20
7.3143603013
 30
0.0
 11
3.6457364917
 21
7.2680070293
 31
0.0
  0
LINE
  5
AB
330
1F
100
AcDbEntity
  8
0
  6
Continuous
 62
     7
370
    15
100
AcDbLine
 10
3.6222364732
 20
7.2454534031
 30
0.0
 11
3.6222364732
 21
7.2918066752
 31
0.0
  0
LINE
  5
AC
330
1F
100
AcDbEntity
  8
0
  6
Continuous
 62
     7
370
    15
100
AcDbLine
 10
3.7209864757
 20
7.3143603013
 30
0.0
 11
3.6457364917
 21
7.3143603013
 31
0.0
  0
LINE
  5
AD
330
1F
100
AcDbEntity
  8
0
  6
Continuous
 62
     7
370
    15
100
AcDbLine
 10
4.7388614772
 20
7.5996994525
 30
0.0
 11
4.8141114612
 21
7.5996994525
 31
0.0
  0
LINE
  5
AE
330
1F
100
AcDbEntity
  8
0
  6
Continuous
 62
     7
370
    15
100
AcDbLine
 10
4.8376114797
 20
7.6990462349
 30
0.0
 11
4.8376114797
 21
7.6223898437
 31
0.0
  0
ARC
  5
AF
330
1F
100
AcDbEntity
  8
0
  6
Continuous
 62
     7
370
    15
100
AcDbCircle
 10
4.8145093168
 20
7.6228018638
 30
0.0
 40
0.0231058367767809
100
AcDbArc
 50
269.0133846907
 51
358.9782556284
  0
LINE
  5
B0
330
1F
100
AcDbEntity
  8
0
  6
Continuous
 62
     7
370
    15
100
AcDbLine
 10
4.8141114612
 20
7.5567626769
 30
0.0
 11
4.8141114612
 21
7.5996994525
 31
0.0
  0
LINE
  5
B1
330
1F
100
AcDbEntity
  8
0
  6
Continuous
 62
     7
370
    15
100
AcDbLine
 10
4.7388614772
 20
7.5567626769
 30
0.0
 11
4.8141114612
 21
7.5567626769
 31
0.0
  0
ARC
  5
B2
330
1F
100
AcDbEntity
  8
0
  6
Continuous
 62
     7
370
    15
100
AcDbCircle
 10
4.814509313
 20
7.579865092
 30
0.0
 40
0.0231058406086682
100
AcDbArc
 50
269.0133941868
 51
358.9782461322
  0
LINE
  5
B3
330
1F
100
AcDbEntity
  8
0
  6
Continuous
 62
     7
370
    15
100
AcDbLine
 10
4.8376114797
 20
7.6223898437
 30
0.0
 11
4.8376114797
 21
7.5794530681
 31
0.0
  0
LINE
  5
B4
330
1F
100
AcDbEntity
  8
0
  6
Continuous
 62
     7
370
    15
100
AcDbLine
 10
4.7388614772
 20
7.3311806928
 30
0.0
 11
4.8141114612
 21
7.3311806928
 31
0.0
  0
LINE
  5
B5
330
1F
100
AcDbEntity
  8
0
  6
Continuous
 62
     7
370
    15
100
AcDbLine
 10
4.8376114797
 20
7.4284729091
 30
0.0
 11
4.8376114797
 21
7.353098563
 31
0.0
  0
ARC
  5
B6
330
1F
100
AcDbEntity
  8
0
  6
Continuous
 62
     7
370
    15
100
AcDbCircle
 10
4.8148759166
 20
7.3539181774
 30
0.0
 40
0.022750331801287
100
AcDbArc
 50
268.0743878035
 51
357.9353877952
  0
LINE
  5
B7
330
1F
100
AcDbEntity
  8
0
  6
Continuous
 62
     7
370
    15
100
AcDbLine
 10
4.8141114612
 20
7.277524101
 30
0.0
 11
4.8141114612
 21
7.3311806928
 31
0.0
  0
LINE
  5
B8
330
1F
100
AcDbEntity
  8
0
  6
Continuous
 62
     7
370
    15
100
AcDbLine
 10
4.7388614772
 20
7.277524101
 30
0.0
 11
4.8141114612
 21
7.277524101
 31
0.0
  0
ARC
  5
B9
330
1F
100
AcDbEntity
  8
0
  6
Continuous
 62
     7
370
    15
100
AcDbCircle
 10
4.8148759309
 20
7.3002615703
 30
0.0
 40
0.0227503170139787
100
AcDbArc
 50
268.0743506524
 51
357.9354249462
  0
LINE
  5
BA
330
1F
100
AcDbEntity
  8
0
  6
Continuous
 62
     7
370
    15
100
AcDbLine
 10
4.8376114797
 20
7.353098563
 30
0.0
 11
4.8376114797
 21
7.2994419711
 31
0.0
  0
LINE
  5
BB
330
1F
100
AcDbEntity
  8
0
  6
Continuous
 62
     7
370
    15
100
AcDbLine
 10
3.7209864757
 20
7.5368181198
 30
0.0
 11
3.6457364917
 21
7.5368181198
 31
0.0
  0
LINE
  5
BC
330
1F
100
AcDbEntity
  8
0
  6
Continuous
 62
     7
370
    15
100
AcDbLine
 10
3.6222364732
 20
7.4399891402
 30
0.0
 11
3.6222364732
 21
7.5150744235
 31
0.0
  0
ARC
  5
BD
330
1F
100
AcDbEntity
  8
0
  6
Continuous
 62
     7
370
    15
100
AcDbCircle
 10
3.6448911423
 20
7.5141608003
 30
0.0
 40
0.0226730840664938
100
AcDbArc
 50
87.8632734462
 51
177.6906129262
  0
LINE
  5
BE
330
1F
100
AcDbEntity
  8
0
  6
Continuous
 62
     7
370
    15
100
AcDbLine
 10
3.6457364917
 20
7.5932426738
 30
0.0
 11
3.6457364917
 21
7.5368181198
 31
0.0
  0
LINE
  5
BF
330
1F
100
AcDbEntity
  8
0
  6
Continuous
 62
     7
370
    15
100
AcDbLine
 10
3.7209864757
 20
7.5932426738
 30
0.0
 11
3.6457364917
 21
7.5932426738
 31
0.0
  0
ARC
  5
C0
330
1F
100
AcDbEntity
  8
0
  6
Continuous
 62
     7
370
    15
100
AcDbCircle
 10
3.6448911244
 20
7.5705853737
 30
0.0
 40
0.0226730653626314
100
AcDbArc
 50
87.863226323
 51
177.6906600494
  0
LINE
  5
C1
330
1F
100
AcDbEntity
  8
0
  6
Continuous
 62
     7
370
    15
100
AcDbLine
 10
3.6222364732
 20
7.5150744235
 30
0.0
 11
3.6222364732
 21
7.5714989775
 31
0.0
  0
LINE
  5
C2
330
1F
100
AcDbEntity
  8
0
  6
Continuous
 62
     7
370
    15
100
AcDbLine
 10
4.7982937173
 20
7.531448541
 30
0.0
 11
4.7982937173
 21
7.5567626769
 31
0.0
  0
ARC
  5
C3
330
1F
100
AcDbEntity
  8
0
  6
Continuous
 62
     7
370
    15
100
AcDbCircle
 10
4.7882379668
 20
7.580666615
 30
0.0
 40
0.0502348179070726
100
AcDbArc
 50
240.8013469065
 51
281.5471878206
  0
LINE
  5
C4
330
1F
100
AcDbEntity
  8
0
  6
Continuous
 62
     7
370
    15
100
AcDbLine
 10
4.7637314565
 20
7.5567626769
 30
0.0
 11
4.7637314565
 21
7.5368149573
 31
0.0
  0
LINE
  5
C5
330
1F
100
AcDbEntity
  8
0
  6
Continuous
 62
     7
370
    15
100
AcDbLine
 10
4.7519545526
 20
7.5460677571
 30
0.0
 11
4.7519545526
 21
7.5567626769
 31
0.0
  0
ARC
  5
C6
330
1F
100
AcDbEntity
  8
0
  6
Continuous
 62
     7
370
    15
100
AcDbCircle
 10
4.7863698318
 20
7.5780962759
 30
0.0
 40
0.0470131625867086
100
AcDbArc
 50
206.9864183291
 51
222.9427346403
  0
LINE
  5
C7
330
1F
100
AcDbEntity
  8
0
  6
Continuous
 62
     7
370
    15
100
AcDbLine
 10
4.8345756248
 20
7.5628872503
 30
0.0
 11
4.8345756248
 21
7.5682982344
 31
0.0
  0
ARC
  5
C8
330
1F
100
AcDbEntity
  8
0
  6
Continuous
 62
     7
370
    15
100
AcDbCircle
 10
4.7896887556
 20
7.5782965545
 30
0.0
 40
0.047458167737482
100
AcDbArc
 50
298.7026984255
 51
341.0530625586
  0
LINE
  5
C9
330
1F
100
AcDbEntity
  8
0
  6
Continuous
 62
     7
370
    15
100
AcDbLine
 10
4.8124812434
 20
7.5567626769
 30
0.0
 11
4.8124812434
 21
7.5366698782
 31
0.0
  0
ARC
  5
CA
330
1F
100
AcDbEntity
  8
0
  6
Continuous
 62
     7
370
    15
100
AcDbCircle
 10
4.806066376
 20
7.5321119676
 30
0.0
 40
0.0078692485163281
100
AcDbArc
 50
35.3946682942
 51
171.0136814986
  0
ARC
  5
CB
330
1F
100
AcDbEntity
  8
0
  6
Continuous
 62
     7
370
    15
100
AcDbCircle
 10
4.7566735753
 20
7.5397019345
 30
0.0
 40
0.0079241954303972
100
AcDbArc
 50
27.0418345016
 51
126.5497633874
  0
LINE
  5
CC
330
1F
100
AcDbEntity
  8
0
  6
Continuous
 62
     7
370
    15
100
AcDbLine
 10
3.6700928503
 20
7.3438955468
 30
0.0
 11
3.6700928503
 21
7.3143603013
 31
0.0
  0
ARC
  5
CD
330
1F
100
AcDbEntity
  8
0
  6
Continuous
 62
     7
370
    15
100
AcDbCircle
 10
3.6717128002
 20
7.2939015179
 30
0.0
 40
0.0500202675287439
100
AcDbArc
 50
51.0750210179
 51
91.8558981392
  0
LINE
  5
CE
330
1F
100
AcDbEntity
  8
0
  6
Continuous
 62
     7
370
    15
100
AcDbLine
 10
3.7031406486
 20
7.3143603013
 30
0.0
 11
3.7031406486
 21
7.3328157506
 31
0.0
  0
LINE
  5
CF
330
1F
100
AcDbEntity
  8
0
  6
Continuous
 62
     7
370
    15
100
AcDbLine
 10
3.7130503974
 20
7.3217757281
 30
0.0
 11
3.7130503974
 21
7.3143603013
 31
0.0
  0
LWPOLYLINE
  5
D0
330
1F
100
AcDbEntity
  8
0
  6
Continuous
 62
     7
370
    15
100
AcDbPolyline
 90
        3
 70
   128
 43
0.0
 10
3.7130503974
 20
7.3217757281
 10
3.7152300956
 20
7.318025789
 10
3.7169358459
 20
7.3143603013
  0
LWPOLYLINE
  5
D1
330
1F
100
AcDbEntity
  8
0
  6
Continuous
 62
     7
370
    15
100
AcDbPolyline
 90
        3
 70
   128
 43
0.0
 10
3.622861486
 20
7.2971314845
 10
3.6230497305
 20
7.3012392495
 10
3.6236466569
 20
7.3054948162
  0
LINE
  5
D2
330
1F
100
AcDbEntity
  8
0
  6
Continuous
 62
     7
370
    15
100
AcDbLine
 10
3.6236466569
 20
7.2995018654
 30
0.0
 11
3.6236466569
 21
7.3054948162
 31
0.0
  0
LINE
  5
D3
330
1F
100
AcDbEntity
  8
0
  6
Continuous
 62
     7
370
    15
100
AcDbLine
 10
3.628653909
 20
7.3192513123
 30
0.0
 11
3.628653909
 21
7.3072948079
 31
0.0
  0
ARC
  5
D4
330
1F
100
AcDbEntity
  8
0
  6
Continuous
 62
     7
370
    15
100
AcDbCircle
 10
3.6706233625
 20
7.2954918908
 30
0.0
 40
0.0482280533720733
100
AcDbArc
 50
108.6811534307
 51
150.4852683919
  0
LINE
  5
D5
330
1F
100
AcDbEntity
  8
0
  6
Continuous
 62
     7
370
    15
100
AcDbLine
 10
3.6551758493
 20
7.3143603013
 30
0.0
 11
3.6551758493
 21
7.3411790823
 31
0.0
  0
ARC
  5
D6
330
1F
100
AcDbEntity
  8
0
  6
Continuous
 62
     7
370
    15
100
AcDbCircle
 10
3.6622581749
 20
7.344603015
 30
0.0
 40
0.0078665526345149
100
AcDbArc
 50
205.8013290966
 51
354.8402070528
  0
ARC
  5
D7
330
1F
100
AcDbEntity
  8
0
  6
Continuous
 62
     7
370
    15
100
AcDbCircle
 10
3.7094907144
 20
7.3289138032
 30
0.0
 40
0.0079764314619638
100
AcDbArc
 50
217.2403817387
 51
296.5049504969
  0
LWPOLYLINE
  5
D8
330
1F
100
AcDbEntity
  8
0
  6
Continuous
 62
     7
370
    15
100
AcDbPolyline
 90
        3
 70
   128
 43
0.0
 10
3.6275520884
 20
7.3060927235
 10
3.6262308937
 20
7.3056658367
 10
3.6236466569
 20
7.3054948162
  0
LINE
  5
D9
330
1F
100
AcDbEntity
  8
0
  6
Continuous
 62
     7
370
    15
100
AcDbLine
 10
4.7628847597
 20
7.2565872729
 30
0.0
 11
4.7628847597
 21
7.277524101
 31
0.0
  0
ARC
  5
DA
330
1F
100
AcDbEntity
  8
0
  6
Continuous
 62
     7
370
    15
100
AcDbCircle
 10
4.785372371
 20
7.2932899597
 30
0.0
 40
0.0430439297260124
100
AcDbArc
 50
201.4859884123
 51
238.5043401034
  0
ARC
  5
DB
330
1F
100
AcDbEntity
  8
0
  6
Continuous
 62
     7
370
    15
100
AcDbCircle
 10
4.7924791415
 20
7.2923867848
 30
0.0
 40
0.0414214724158348
100
AcDbArc
 50
312.9630301648
 51
352.7373615121
  0
LINE
  5
DC
330
1F
100
AcDbEntity
  8
0
  6
Continuous
 62
     7
370
    15
100
AcDbLine
 10
4.820708965
 20
7.2784055758
 30
0.0
 11
4.820708965
 21
7.2620748161
 31
0.0
  0
LINE
  5
DD
330
1F
100
AcDbEntity
  8
0
  6
Continuous
 62
     7
370
    15
100
AcDbLine
 10
4.8084118037
 20
7.2537999051
 30
0.0
 11
4.8084118037
 21
7.277524101
 31
0.0
  0
ARC
  5
DE
330
1F
100
AcDbEntity
  8
0
  6
Continuous
 62
     7
370
    15
100
AcDbCircle
 10
4.78822683
 20
7.2980022037
 30
0.0
 40
0.0485929662238434
100
AcDbArc
 50
256.2985329518
 51
294.5438031353
  0
LINE
  5
DF
330
1F
100
AcDbEntity
  8
0
  6
Continuous
 62
     7
370
    15
100
AcDbLine
 10
4.7767169532
 20
7.277524101
 30
0.0
 11
4.7767169532
 21
7.2507920448
 31
0.0
  0
ARC
  5
E0
330
1F
100
AcDbEntity
  8
0
  6
Continuous
 62
     7
370
    15
100
AcDbCircle
 10
4.7689961618
 20
7.2515126576
 30
0.0
 40
0.0079436110238723
100
AcDbArc
 50
13.6027199407
 51
140.2953854722
  0
ARC
  5
E1
330
1F
100
AcDbEntity
  8
0
  6
Continuous
 62
     7
370
    15
100
AcDbCircle
 10
4.8156816471
 20
7.2558124719
 30
0.0
 40
0.0080306214505338
100
AcDbArc
 50
51.2430156717
 51
154.8590460102
  0
LINE
  5
E2
330
1F
100
AcDbEntity
  8
0
  6
Continuous
 62
     7
370
    15
100
AcDbLine
 10
3.6550328877
 20
7.6208549581
 30
0.0
 11
3.6550328877
 21
7.5932426738
 31
0.0
  0
ARC
  5
E3
330
1F
100
AcDbEntity
  8
0
  6
Continuous
 62
     7
370
    15
100
AcDbCircle
 10
3.6716140626
 20
7.5746933639
 30
0.0
 40
0.049049242071234
100
AcDbArc
 50
71.8567273424
 51
109.7582116306
  0
LINE
  5
E4
330
1F
100
AcDbEntity
  8
0
  6
Continuous
 62
     7
370
    15
100
AcDbLine
 10
3.686887713
 20
7.5932426738
 30
0.0
 11
3.686887713
 21
7.621303918
 31
0.0
  0
LINE
  5
E5
330
1F
100
AcDbEntity
  8
0
  6
Continuous
 62
     7
370
    15
100
AcDbLine
 10
3.7001337966
 20
7.6144746102
 30
0.0
 11
3.7001337966
 21
7.5932426738
 31
0.0
  0
ARC
  5
E6
330
1F
100
AcDbEntity
  8
0
  6
Continuous
 62
     7
370
    15
100
AcDbCircle
 10
3.6753731962
 20
7.5804843051
 30
0.0
 40
0.0420526833160097
100
AcDbArc
 50
17.6613359422
 51
53.928134142
  0
LINE
  5
E7
330
1F
100
AcDbEntity
  8
0
  6
Continuous
 62
     7
370
    15
100
AcDbLine
 10
3.6265105838
 20
7.5879057188
 30
0.0
 11
3.6265105838
 21
7.5840025514
 31
0.0
  0
ARC
  5
E8
330
1F
100
AcDbEntity
  8
0
  6
Continuous
 62
     7
370
    15
100
AcDbCircle
 10
3.6674319018
 20
7.5808061563
 30
0.0
 40
0.0415326142976266
100
AcDbArc
 50
127.7275887829
 51
170.1575545446
  0
LINE
  5
E9
330
1F
100
AcDbEntity
  8
0
  6
Continuous
 62
     7
370
    15
100
AcDbLine
 10
3.6420177647
 20
7.5929687036
 30
0.0
 11
3.6420177647
 21
7.6136555046
 31
0.0
  0
ARC
  5
EA
330
1F
100
AcDbEntity
  8
0
  6
Continuous
 62
     7
370
    15
100
AcDbCircle
 10
3.6944469859
 20
7.6200688946
 30
0.0
 40
0.007977207212693
100
AcDbArc
 50
198.6286240365
 51
315.4699230455
  0
ARC
  5
EB
330
1F
100
AcDbEntity
  8
0
  6
Continuous
 62
     7
370
    15
100
AcDbCircle
 10
3.6475231855
 20
7.6195098243
 30
0.0
 40
0.0080363372948779
100
AcDbArc
 50
226.7592082266
 51
339.1424084499
  0
LINE
  5
EC
330
1F
100
AcDbEntity
  8
0
  6
Continuous
 62
     7
370
    15
100
AcDbLine
 10
4.1908614752
 20
7.7558292106
 30
0.0
 11
4.2689864777
 21
7.7558292106
 31
0.0
  0
LINE
  5
ED
330
1F
100
AcDbEntity
  8
0
  6
Continuous
 62
     7
370
    15
100
AcDbLine
 10
4.2677364774
 20
7.7545792217
 30
0.0
 11
4.1921114756
 21
7.7545792217
 31
0.0
  0
LINE
  5
EE
330
1F
100
AcDbEntity
  8
0
  6
Continuous
 62
     7
370
    15
100
AcDbLine
 10
4.0401114709
 20
7.4339542289
 30
0.0
 11
4.0401114709
 21
6.9345792111
 31
0.0
  0
LINE
  5
EF
330
1F
100
AcDbEntity
  8
0
  6
Continuous
 62
     7
370
    15
100
AcDbLine
 10
4.0401114709
 20
7.9333292467
 30
0.0
 11
4.0401114709
 21
7.4339542289
 31
0.0
  0
LINE
  5
F0
330
1F
100
AcDbEntity
  8
0
  6
Continuous
 62
     7
370
    15
100
AcDbLine
 10
3.7522364914
 20
6.9110792292
 30
0.0
 11
3.7522364914
 21
7.9568292286
 31
0.0
  0
LINE
  5
F1
330
1F
100
AcDbEntity
  8
0
  6
Continuous
 62
     7
370
    15
100
AcDbLine
 10
3.7209864757
 20
6.9423292449
 30
0.0
 11
3.7209864757
 21
7.9255792129
 31
0.0
  0
LINE
  5
F2
330
1F
100
AcDbEntity
  8
0
  6
Continuous
 62
     7
370
    15
100
AcDbLine
 10
4.7076114615
 20
7.9568292286
 30
0.0
 11
4.7076114615
 21
6.9110792292
 31
0.0
  0
LINE
  5
F3
330
1F
100
AcDbEntity
  8
0
  6
Continuous
 62
     7
370
    15
100
AcDbLine
 10
4.4197364821
 20
7.4339542289
 30
0.0
 11
4.4197364821
 21
7.9333292467
 31
0.0
  0
LINE
  5
F4
330
1F
100
AcDbEntity
  8
0
  6
Continuous
 62
     7
370
    15
100
AcDbLine
 10
4.4197364821
 20
6.9345792111
 30
0.0
 11
4.4197364821
 21
6.9358906526
 31
0.0
  0
LINE
  5
F5
330
1F
100
AcDbEntity
  8
0
  6
Continuous
 62
     7
370
    15
100
AcDbLine
 10
4.4197364821
 20
7.014854597
 30
0.0
 11
4.4197364821
 21
7.4339542289
 31
0.0
  0
LINE
  5
F6
330
1F
100
AcDbEntity
  8
0
  6
Continuous
 62
     7
370
    15
100
AcDbLine
 10
4.7388614772
 20
7.9255792129
 30
0.0
 11
4.7388614772
 21
6.9423292449
 31
0.0
  0
LINE
  5
F7
330
1F
100
AcDbEntity
  8
0
  6
Continuous
 62
     7
370
    15
100
AcDbLine
 10
4.0552364795
 20
6.9692042444
 30
0.0
 11
4.0761739768
 21
6.9692042444
 31
0.0
  0
LINE
  5
F8
330
1F
100
AcDbEntity
  8
0
  6
Continuous
 62
     7
370
    15
100
AcDbLine
 10
4.3836739762
 20
6.9692042444
 30
0.0
 11
4.3904272106
 21
6.9692042444
 31
0.0
  0
LINE
  5
F9
330
1F
100
AcDbEntity
  8
0
  6
Continuous
 62
     7
370
    15
100
AcDbLine
 10
4.0552364795
 20
6.9692042444
 30
0.0
 11
4.0552364795
 21
7.8924542323
 31
0.0
  0
LINE
  5
FA
330
1F
100
AcDbEntity
  8
0
  6
Continuous
 62
     7
370
    15
100
AcDbLine
 10
4.4046114735
 20
7.8924542323
 30
0.0
 11
4.0552364795
 21
7.8924542323
 31
0.0
  0
LINE
  5
FB
330
1F
100
AcDbEntity
  8
0
  6
Continuous
 62
     7
370
    15
100
AcDbLine
 10
4.4046114735
 20
6.9963666706
 30
0.0
 11
4.4046114735
 21
7.8924542323
 31
0.0
  0
LINE
  5
FC
330
1F
100
AcDbEntity
  8
0
  6
Continuous
 62
     7
370
    15
100
AcDbLine
 10
4.0552364795
 20
7.9237042113
 30
0.0
 11
4.4046114735
 21
7.9237042113
 31
0.0
  0
LINE
  5
FD
330
1F
100
AcDbEntity
  8
0
  6
Continuous
 62
     7
370
    15
100
AcDbLine
 10
4.4046114735
 20
7.9237042113
 30
0.0
 11
4.4046114735
 21
7.8924542323
 31
0.0
  0
LINE
  5
FE
330
1F
100
AcDbEntity
  8
0
  6
Continuous
 62
     7
370
    15
100
AcDbLine
 10
4.0552364795
 20
7.8924542323
 30
0.0
 11
4.0552364795
 21
7.9237042113
 31
0.0
  0
LINE
  5
FF
330
1F
100
AcDbEntity
  8
0
  6
Continuous
 62
     7
370
    15
100
AcDbLine
 10
4.0470633905
 20
7.4339542289
 30
0.0
 11
4.0470633905
 21
7.8987042134
 31
0.0
  0
LINE
  5
100
330
1F
100
AcDbEntity
  8
0
  6
Continuous
 62
     7
370
    15
100
AcDbLine
 10
4.0470633905
 20
6.9692042444
 30
0.0
 11
4.0470633905
 21
7.4339542289
 31
0.0
  0
LINE
  5
101
330
1F
100
AcDbEntity
  8
0
  6
Continuous
 62
     7
370
    15
100
AcDbLine
 10
4.4127845624
 20
7.4339542289
 30
0.0
 11
4.4127845624
 21
7.8987042134
 31
0.0
  0
LINE
  5
102
330
1F
100
AcDbEntity
  8
0
  6
Continuous
 62
     7
370
    15
100
AcDbLine
 10
4.4127845624
 20
7.0063569752
 30
0.0
 11
4.4127845624
 21
7.4339542289
 31
0.0
  0
CIRCLE
  5
103
330
1F
100
AcDbEntity
  8
0
  6
Continuous
 62
     7
370
    15
100
AcDbCircle
 10
4.2299239765
 20
7.0950792289
 30
0.0
 40
0.046875
  0
CIRCLE
  5
104
330
1F
100
AcDbEntity
  8
0
  6
Continuous
 62
     7
370
    15
100
AcDbCircle
 10
4.2299239765
 20
7.7728292289
 30
0.0
 40
0.046875
  0
LINE
  5
105
330
1F
100
AcDbEntity
  8
0
  6
Continuous
 62
     7
370
    15
100
AcDbLine
 10
4.2505339182
 20
7.7307042358
 30
0.0
 11
4.2092141788
 21
7.7307042358
 31
0.0
  0
LINE
  5
106
330
1F
100
AcDbEntity
  8
0
  6
Continuous
 62
     7
370
    15
100
AcDbLine
 10
4.1831268779
 20
7.0923778882
 30
0.0
 11
4.1831268779
 21
7.0977805857
 31
0.0
  0
LINE
  5
107
330
1F
100
AcDbEntity
  8
0
  6
Continuous
 62
     7
370
    15
100
AcDbLine
 10
4.276721075
 20
7.0977805857
 30
0.0
 11
4.276721075
 21
7.0923778882
 31
0.0
  0
ARC
  5
108
330
1F
100
AcDbEntity
  8
0
  6
Continuous
 62
     8
370
    15
100
AcDbCircle
 10
3.6720739463
 20
7.3531063385
 30
0.0
 40
0.0229800630941159
100
AcDbArc
 50
1.2012860411
 51
91.1531049551
  0
ARC
  5
109
330
1F
100
AcDbEntity
  8
0
  6
Continuous
 62
     8
370
    15
100
AcDbCircle
 10
3.6711490038
 20
7.353106338
 30
0.0
 40
0.0229800642934274
100
AcDbArc
 50
88.8468066334
 51
178.798712811
  0
ARC
  5
10A
330
1F
100
AcDbEntity
  8
0
  6
Continuous
 62
     8
370
    15
100
AcDbCircle
 10
4.7878396653
 20
7.5266429596
 30
0.0
 40
0.0230443342114009
100
AcDbArc
 50
181.021611973
 51
270.9866109048
  0
ARC
  5
10B
330
1F
100
AcDbEntity
  8
0
  6
Continuous
 62
     8
370
    15
100
AcDbCircle
 10
4.7886332906
 20
7.52664296
 30
0.0
 40
0.0230443352391546
100
AcDbArc
 50
269.0133004992
 51
358.9783870431
  0
ARC
  5
10C
330
1F
100
AcDbEntity
  8
0
  6
Continuous
 62
     8
370
    15
100
AcDbCircle
 10
3.6722471832
 20
7.6758857589
 30
0.0
 40
0.0149985911403211
100
AcDbArc
 50
2.0169236927
 51
92.429114025
  0
ARC
  5
10D
330
1F
100
AcDbEntity
  8
0
  6
Continuous
 62
     8
370
    15
100
AcDbCircle
 10
3.6710629235
 20
7.6757915626
 30
0.0
 40
0.0150892848872199
100
AcDbArc
 50
87.9165590263
 51
177.6372692082
  0
ARC
  5
10E
330
1F
100
AcDbEntity
  8
0
  6
Continuous
 62
     8
370
    15
100
AcDbCircle
 10
4.7876616301
 20
7.2041423883
 30
0.0
 40
0.0150576085789908
100
AcDbArc
 50
181.8023152752
 51
272.1878202992
  0
ARC
  5
10F
330
1F
100
AcDbEntity
  8
0
  6
Continuous
 62
     8
370
    15
100
AcDbCircle
 10
4.7887325103
 20
7.2042268928
 30
0.0
 40
0.0151392658662642
100
AcDbArc
 50
268.1223216919
 51
357.8874086072
  0
LINE
  5
110
330
1F
100
AcDbEntity
  8
0
  6
Continuous
 62
     8
370
    15
100
AcDbLine
 10
3.6457364917
 20
7.2680070293
 30
0.0
 11
3.6457364917
 21
7.1455239942
 31
0.0
  0
LINE
  5
111
330
1F
100
AcDbEntity
  8
0
  6
Continuous
 62
     8
370
    15
100
AcDbLine
 10
4.8141114612
 20
7.5996994525
 30
0.0
 11
4.8141114612
 21
7.7225462351
 31
0.0
  0
LINE
  5
112
330
1F
100
AcDbEntity
  8
0
  6
Continuous
 62
     8
370
    15
100
AcDbLine
 10
4.8141114612
 20
7.3311806928
 30
0.0
 11
4.8141114612
 21
7.4519729099
 31
0.0
  0
LINE
  5
113
330
1F
100
AcDbEntity
  8
0
  6
Continuous
 62
     8
370
    15
100
AcDbLine
 10
3.6457364917
 20
7.5368181198
 30
0.0
 11
3.6457364917
 21
7.4164891406
 31
0.0
  0
LINE
  5
114
330
1F
100
AcDbEntity
  8
0
  6
Continuous
 62
     8
370
    15
100
AcDbLine
 10
4.0166114707
 20
7.4339542289
 30
0.0
 11
4.0166114707
 21
7.9568292286
 31
0.0
  0
LINE
  5
115
330
1F
100
AcDbEntity
  8
0
  6
Continuous
 62
     8
370
    15
100
AcDbLine
 10
4.0166114707
 20
6.9110792292
 30
0.0
 11
4.0166114707
 21
7.4339542289
 31
0.0
  0
LINE
  5
116
330
1F
100
AcDbEntity
  8
0
  6
Continuous
 62
     8
370
    15
100
AcDbLine
 10
4.4432364823
 20
7.4339542289
 30
0.0
 11
4.4432364823
 21
7.0435796285
 31
0.0
  0
LINE
  5
117
330
1F
100
AcDbEntity
  8
0
  6
Continuous
 62
     8
370
    15
100
AcDbLine
 10
4.4432364823
 20
6.9646157207
 30
0.0
 11
4.4432364823
 21
6.9110792292
 31
0.0
  0
LINE
  5
118
330
1F
100
AcDbEntity
  8
0
  6
Continuous
 62
     8
370
    15
100
AcDbLine
 10
4.4432364823
 20
7.9568292286
 30
0.0
 11
4.4432364823
 21
7.4339542289
 31
0.0
  0
ENDSEC
  0
SECTION
  2
OBJECTS
  0
DICTIONARY
  5
C
330
0
100
AcDbDictionary
281
     1
  3
ACAD_GROUP
350
D
  3
ACAD_LAYOUT
350
1A
  3
ACAD_MLINESTYLE
350
17
  3
ACAD_PLOTSETTINGS
350
19
  3
ACAD_PLOTSTYLENAME
350
E
  0
DICTIONARY
  5
D
102
{ACAD_REACTORS
330
C
102
}
330
C
100
AcDbDictionary
281
     1
  0
DICTIONARY
  5
1A
102
{ACAD_REACTORS
330
C
102
}
330
C
100
AcDbDictionary
281
     1
  3
Layout1
350
1E
  3
Layout2
350
26
  3
Model
350
22
  0
DICTIONARY
  5
17
102
{ACAD_REACTORS
330
C
102
}
330
C
100
AcDbDictionary
281
     1
  3
Standard
350
18
  0
DICTIONARY
  5
19
102
{ACAD_REACTORS
330
C
102
}
330
C
100
AcDbDictionary
281
     1
  0
ACDBDICTIONARYWDFLT
  5
E
102
{ACAD_REACTORS
330
C
102
}
330
C
100
AcDbDictionary
281
     1
  3
Normal
350
F
100
AcDbDictionaryWithDefault
340
F
  0
LAYOUT
  5
1E
102
{ACAD_REACTORS
330
1A
102
}
330
1A
100
AcDbPlotSettings
  1

  2
none_device
  4

  6

 40
0.0
 41
0.0
 42
0.0
 43
0.0
 44
0.0
 45
0.0
 46
0.0
 47
0.0
 48
0.0
 49
0.0
140
0.0
141
0.0
142
1.0
143
1.0
 70
   688
 72
     0
 73
     0
 74
     5
  7

 75
    16
147
1.0
148
0.0
149
0.0
100
AcDbLayout
  1
Layout1
 70
     1
 71
     1
 10
0.0
 20
0.0
 11
12.0
 21
9.0
 12
0.0
 22
0.0
 32
0.0
 14
1.0000000000E+20
 24
1.0000000000E+20
 34
1.0000000000E+20
 15
-1.0000000000E+20
 25
-1.0000000000E+20
 35
-1.0000000000E+20
146
0.0
 13
0.0
 23
0.0
 33
0.0
 16
1.0
 26
0.0
 36
0.0
 17
0.0
 27
1.0
 37
0.0
 76
     0
330
1B
  0
LAYOUT
  5
26
102
{ACAD_REACTORS
330
1A
102
}
330
1A
100
AcDbPlotSettings
  1

  2
none_device
  4

  6

 40
0.0
 41
0.0
 42
0.0
 43
0.0
 44
0.0
 45
0.0
 46
0.0
 47
0.0
 48
0.0
 49
0.0
140
0.0
141
0.0
142
1.0
143
1.0
 70
   688
 72
     0
 73
     0
 74
     5
  7

 75
    16
147
1.0
148
0.0
149
0.0
100
AcDbLayout
  1
Layout2
 70
     1
 71
     2
 10
0.0
 20
0.0
 11
0.0
 21
0.0
 12
0.0
 22
0.0
 32
0.0
 14
0.0
 24
0.0
 34
0.0
 15
0.0
 25
0.0
 35
0.0
146
0.0
 13
0.0
 23
0.0
 33
0.0
 16
1.0
 26
0.0
 36
0.0
 17
0.0
 27
1.0
 37
0.0
 76
     0
330
23
  0
LAYOUT
  5
22
102
{ACAD_REACTORS
330
1A
102
}
330
1A
100
AcDbPlotSettings
  1

  2
none_device
  4

  6

 40
0.0
 41
0.0
 42
0.0
 43
0.0
 44
0.0
 45
0.0
 46
0.0
 47
0.0
 48
0.0
 49
0.0
140
0.0
141
0.0
142
1.0
143
1.0
 70
  1712
 72
     0
 73
     0
 74
     0
  7

 75
     0
147
1.0
148
0.0
149
0.0
100
AcDbLayout
  1
Model
 70
     1
 71
     0
 10
0.0
 20
0.0
 11
8.5
 21
11.0
 12
0.0
 22
0.0
 32
0.0
 14
0.0
 24
0.0
 34
0.0
 15
8.5
 25
11.0
 35
0.0
146
0.0
 13
0.0
 23
0.0
 33
0.0
 16
1.0
 26
0.0
 36
0.0
 17
0.0
 27
1.0
 37
0.0
 76
     0
330
1F
331
29
  0
MLINESTYLE
  5
18
102
{ACAD_REACTORS
330
17
102
}
330
17
100
AcDbMlineStyle
  2
Standard
 70
     0
  3

 62
   256
 51
90.0
 52
90.0
 71
     2
 49
0.5
 62
   256
  6
BYLAYER
 49
-0.5
 62
   256
  6
BYLAYER
  0
ACDBPLACEHOLDER
  5
F
102
{ACAD_REACTORS
330
E
102
}
330
E
  0
ENDSEC
  0
EOF
