  0
SECTION
  2
HEADER
  9
$ACADVER
  1
AC1015
  9
$ACADMAINTVER
 70
     6
  9
$DWGCODEPAGE
  3
ANSI_1252
  9
$INSBASE
 10
0.0
 20
0.0
 30
0.0
  9
$EXTMIN
 10
0.0
 20
0.0
 30
0.0
  9
$EXTMAX
 10
8.5
 20
11.0
 30
0.0
  9
$LIMMIN
 10
0.0
 20
0.0
  9
$LIMMAX
 10
8.5
 20
11.0
  9
$ORTHOMODE
 70
     0
  9
$REGENMODE
 70
     1
  9
$FILLMODE
 70
     1
  9
$QTEXTMODE
 70
     0
  9
$MIRRTEXT
 70
     1
  9
$LTSCALE
 40
1.0
  9
$ATTMODE
 70
     1
  9
$TEXTSIZE
 40
0.125
  9
$TRACEWID
 40
0.05
  9
$TEXTSTYLE
  7
Standard
  9
$CLAYER
  8
0
  9
$CELTYPE
  6
ByLayer
  9
$CECOLOR
 62
   256
  9
$CELTSCALE
 40
1.0
  9
$DISPSILH
 70
     0
  9
$DIMSCALE
 40
1.0
  9
$DIMASZ
 40
0.13
  9
$DIMEXO
 40
0.05
  9
$DIMDLI
 40
0.38
  9
$DIMRND
 40
0.0
  9
$DIMDLE
 40
0.0
  9
$DIMEXE
 40
0.125
  9
$DIMTP
 40
0.0
  9
$DIMTM
 40
0.0
  9
$DIMTXT
 40
0.1527777778
  9
$DIMCEN
 40
0.09
  9
$DIMTSZ
 40
0.0
  9
$DIMTOL
 70
     0
  9
$DIMLIM
 70
     0
  9
$DIMTIH
 70
     1
  9
$DIMTOH
 70
     1
  9
$DIMSE1
 70
     0
  9
$DIMSE2
 70
     0
  9
$DIMTAD
 70
     1
  9
$DIMZIN
 70
     0
  9
$DIMBLK
  1

  9
$DIMASO
 70
     1
  9
$DIMSHO
 70
     1
  9
$DIMPOST
  1

  9
$DIMAPOST
  1

  9
$DIMALT
 70
     0
  9
$DIMALTD
 70
     2
  9
$DIMALTF
 40
25.4
  9
$DIMLFAC
 40
8.0
  9
$DIMTOFL
 70
     0
  9
$DIMTVP
 40
0.0
  9
$DIMTIX
 70
     0
  9
$DIMSOXD
 70
     0
  9
$DIMSAH
 70
     0
  9
$DIMBLK1
  1

  9
$DIMBLK2
  1

  9
$DIMSTYLE
  2
Standard
  9
$DIMCLRD
 70
     0
  9
$DIMCLRE
 70
     0
  9
$DIMCLRT
 70
     0
  9
$DIMTFAC
 40
1.0
  9
$DIMGAP
 40
0.06
  9
$DIMJUST
 70
     0
  9
$DIMSD1
 70
     0
  9
$DIMSD2
 70
     0
  9
$DIMTOLJ
 70
     1
  9
$DIMTZIN
 70
     0
  9
$DIMALTZ
 70
     0
  9
$DIMALTTZ
 70
     0
  9
$DIMUPT
 70
     0
  9
$DIMDEC
 70
     2
  9
$DIMTDEC
 70
     2
  9
$DIMALTU
 70
     2
  9
$DIMALTTD
 70
     2
  9
$DIMTXSTY
  7
Standard
  9
$DIMAUNIT
 70
     0
  9
$DIMADEC
 70
     2
  9
$DIMALTRND
 40
0.0
  9
$DIMAZIN
 70
     0
  9
$DIMDSEP
 70
    46
  9
$DIMATFIT
 70
     3
  9
$DIMFRAC
 70
     0
  9
$DIMLDRBLK
  1

  9
$DIMLUNIT
 70
     2
  9
$DIMLWD
 70
    -2
  9
$DIMLWE
 70
    -2
  9
$DIMTMOVE
 70
     0
  9
$LUNITS
 70
     2
  9
$LUPREC
 70
     3
  9
$SKETCHINC
 40
0.1
  9
$FILLETRAD
 40
0.5
  9
$AUNITS
 70
     0
  9
$AUPREC
 70
     2
  9
$MENU
  1
.
  9
$ELEVATION
 40
0.0
  9
$PELEVATION
 40
0.0
  9
$THICKNESS
 40
0.0
  9
$LIMCHECK
 70
     0
  9
$CHAMFERA
 40
0.5
  9
$CHAMFERB
 40
0.5
  9
$CHAMFERC
 40
1.0
  9
$CHAMFERD
 40
0.0
  9
$SKPOLY
 70
     0
  9
$TDCREATE
 40
2456051.440368345
  9
$TDUCREATE
 40
2456051.690368345
  9
$TDUPDATE
 40
2456051.440368484
  9
$TDUUPDATE
 40
2456051.690368484
  9
$TDINDWG
 40
0.0000000116
  9
$TDUSRTIMER
 40
0.0000000116
  9
$USRTIMER
 70
     1
  9
$ANGBASE
 50
0.0
  9
$ANGDIR
 70
     0
  9
$PDMODE
 70
     0
  9
$PDSIZE
 40
-1.0
  9
$PLINEWID
 40
0.0
  9
$SPLFRAME
 70
     0
  9
$SPLINETYPE
 70
     6
  9
$SPLINESEGS
 70
     8
  9
$HANDSEED
  5
101
  9
$SURFTAB1
 70
     6
  9
$SURFTAB2
 70
     6
  9
$SURFTYPE
 70
     6
  9
$SURFU
 70
     6
  9
$SURFV
 70
     6
  9
$UCSBASE
  2

  9
$UCSNAME
  2

  9
$UCSORG
 10
0.0
 20
0.0
 30
0.0
  9
$UCSXDIR
 10
1.0
 20
0.0
 30
0.0
  9
$UCSYDIR
 10
0.0
 20
1.0
 30
0.0
  9
$UCSORTHOREF
  2

  9
$UCSORTHOVIEW
 70
     0
  9
$UCSORGTOP
 10
0.0
 20
0.0
 30
0.0
  9
$UCSORGBOTTOM
 10
0.0
 20
0.0
 30
0.0
  9
$UCSORGLEFT
 10
0.0
 20
0.0
 30
0.0
  9
$UCSORGRIGHT
 10
0.0
 20
0.0
 30
0.0
  9
$UCSORGFRONT
 10
0.0
 20
0.0
 30
0.0
  9
$UCSORGBACK
 10
0.0
 20
0.0
 30
0.0
  9
$PUCSBASE
  2

  9
$PUCSNAME
  2

  9
$PUCSORG
 10
0.0
 20
0.0
 30
0.0
  9
$PUCSXDIR
 10
1.0
 20
0.0
 30
0.0
  9
$PUCSYDIR
 10
0.0
 20
1.0
 30
0.0
  9
$PUCSORTHOREF
  2

  9
$PUCSORTHOVIEW
 70
     0
  9
$PUCSORGTOP
 10
0.0
 20
0.0
 30
0.0
  9
$PUCSORGBOTTOM
 10
0.0
 20
0.0
 30
0.0
  9
$PUCSORGLEFT
 10
0.0
 20
0.0
 30
0.0
  9
$PUCSORGRIGHT
 10
0.0
 20
0.0
 30
0.0
  9
$PUCSORGFRONT
 10
0.0
 20
0.0
 30
0.0
  9
$PUCSORGBACK
 10
0.0
 20
0.0
 30
0.0
  9
$USERI1
 70
     0
  9
$USERI2
 70
     0
  9
$USERI3
 70
     0
  9
$USERI4
 70
     0
  9
$USERI5
 70
     0
  9
$USERR1
 40
0.0
  9
$USERR2
 40
0.0
  9
$USERR3
 40
0.0
  9
$USERR4
 40
0.0
  9
$USERR5
 40
0.0
  9
$WORLDVIEW
 70
     1
  9
$SHADEDGE
 70
     3
  9
$SHADEDIF
 70
    70
  9
$TILEMODE
 70
     1
  9
$MAXACTVP
 70
    64
  9
$PINSBASE
 10
0.0
 20
0.0
 30
0.0
  9
$PLIMCHECK
 70
     0
  9
$PEXTMIN
 10
1.0000000000E+20
 20
1.0000000000E+20
 30
1.0000000000E+20
  9
$PEXTMAX
 10
-1.0000000000E+20
 20
-1.0000000000E+20
 30
-1.0000000000E+20
  9
$PLIMMIN
 10
0.0
 20
0.0
  9
$PLIMMAX
 10
12.0
 20
9.0
  9
$UNITMODE
 70
     0
  9
$VISRETAIN
 70
     1
  9
$PLINEGEN
 70
     0
  9
$PSLTSCALE
 70
     1
  9
$TREEDEPTH
 70
  3020
  9
$CMLSTYLE
  2
Standard
  9
$CMLJUST
 70
     0
  9
$CMLSCALE
 40
1.0
  9
$PROXYGRAPHICS
 70
     1
  9
$MEASUREMENT
 70
     0
  9
$CELWEIGHT
370
    -1
  9
$ENDCAPS
280
     0
  9
$JOINSTYLE
280
     0
  9
$LWDISPLAY
290
     1
  9
$INSUNITS
 70
     1
  9
$HYPERLINKBASE
  1

  9
$STYLESHEET
  1

  9
$XEDIT
290
     1
  9
$CEPSNTYPE
380
     0
  9
$PSTYLEMODE
290
     1
  9
$FINGERPRINTGUID
  2
{FB6A0932-4701-4571-AE1B-55B139848189}
  9
$VERSIONGUID
  2
{FAEB1C32-E019-11D5-929B-00C0DF256EC4}
  9
$EXTNAMES
290
     1
  9
$PSVPSCALE
 40
0.0
  9
$OLESTARTUP
290
     0
  0
ENDSEC
  0
SECTION
  2
CLASSES
  0
CLASS
  1
ACDBDICTIONARYWDFLT
  2
AcDbDictionaryWithDefault
  3
ObjectDBX Classes
 90
        0
280
     0
281
     0
  0
CLASS
  1
VISUALSTYLE
  2
AcDbVisualStyle
  3
ObjectDBX Classes
 90
     4095
280
     0
281
     0
  0
CLASS
  1
MATERIAL
  2
AcDbMaterial
  3
ObjectDBX Classes
 90
     1153
280
     0
281
     0
  0
CLASS
  1
ACDBPLACEHOLDER
  2
AcDbPlaceHolder
  3
ObjectDBX Classes
 90
        0
280
     0
281
     0
  0
CLASS
  1
LAYOUT
  2
AcDbLayout
  3
ObjectDBX Classes
 90
        0
280
     0
281
     0
  0
ENDSEC
  0
SECTION
  2
TABLES
  0
TABLE
  2
VPORT
  5
8
330
0
100
AcDbSymbolTable
 70
     1
  0
VPORT
  5
29
330
8
100
AcDbSymbolTableRecord
100
AcDbViewportTableRecord
  2
*Active
 70
     0
 10
0.0
 20
0.0
 11
1.0
 21
1.0
 12
4.25
 22
5.5
 13
0.0
 23
0.0
 14
0.5
 24
0.5
 15
0.5
 25
0.5
 16
0.0
 26
0.0
 36
1.0
 17
0.0
 27
0.0
 37
0.0
 40
11.0
 41
0.7727272727
 42
50.0
 43
0.0
 44
0.0
 50
0.0
 51
0.0
 71
     0
 72
  2000
 73
     1
 74
     3
 75
     0
 76
     0
 77
     0
 78
     0
281
     0
 65
     1
110
0.0
120
0.0
130
0.0
111
1.0
121
0.0
131
0.0
112
0.0
122
1.0
132
0.0
 79
     0
146
0.0
  0
ENDTAB
  0
TABLE
  2
LTYPE
  5
5
330
0
100
AcDbSymbolTable
 70
     6
  0
LTYPE
  5
14
330
5
100
AcDbSymbolTableRecord
100
AcDbLinetypeTableRecord
  2
ByBlock
 70
     0
  3

 72
    65
 73
     0
 40
0.0
  0
LTYPE
  5
15
330
5
100
AcDbSymbolTableRecord
100
AcDbLinetypeTableRecord
  2
ByLayer
 70
     0
  3

 72
    65
 73
     0
 40
0.0
  0
LTYPE
  5
16
330
5
100
AcDbSymbolTableRecord
100
AcDbLinetypeTableRecord
  2
Continuous
 70
     0
  3
Solid line
 72
    65
 73
     0
 40
0.0
  0
LTYPE
  5
3F
330
5
100
AcDbSymbolTableRecord
100
AcDbLinetypeTableRecord
  2
HIDDEN
 70
     0
  3
Hidden __ __ __ __ __ __ __ __ __ __ __ __ __ __
 72
    65
 73
     2
 40
0.075
 49
0.05
 74
     0
 49
-0.025
 74
     0
  0
LTYPE
  5
40
330
5
100
AcDbSymbolTableRecord
100
AcDbLinetypeTableRecord
  2
PHANTOM
 70
     0
  3
Phantom ______  __  __  ______  __  __  ______
 72
    65
 73
     6
 40
0.5
 49
0.25
 74
     0
 49
-0.05
 74
     0
 49
0.05
 74
     0
 49
-0.05
 74
     0
 49
0.05
 74
     0
 49
-0.05
 74
     0
  0
LTYPE
  5
41
330
5
100
AcDbSymbolTableRecord
100
AcDbLinetypeTableRecord
  2
CENTER
 70
     0
  3
Center ____ _ ____ _ ____ _ ____ _ ____ _ ____
 72
    65
 73
     4
 40
0.4
 49
0.25
 74
     0
 49
-0.05
 74
     0
 49
0.05
 74
     0
 49
-0.05
 74
     0
  0
LTYPE
  5
42
330
5
100
AcDbSymbolTableRecord
100
AcDbLinetypeTableRecord
  2
CENTERX2
 70
     0
  3
Center (2x) ________  __  ________  __  _____
 72
    65
 73
     4
 40
0.8
 49
0.5
 74
     0
 49
-0.1
 74
     0
 49
0.1
 74
     0
 49
-0.1
 74
     0
  0
LTYPE
  5
43
330
5
100
AcDbSymbolTableRecord
100
AcDbLinetypeTableRecord
  2
DOT2
 70
     0
  3
Dot (.5x) ........................................
 72
    65
 73
     2
 40
0.025
 49
0.0
 74
     0
 49
-0.025
 74
     0
  0
ENDTAB
  0
TABLE
  2
LAYER
  5
2
330
0
100
AcDbSymbolTable
 70
     1
  0
LAYER
  5
10
330
2
100
AcDbSymbolTableRecord
100
AcDbLayerTableRecord
  2
0
 70
     0
 62
     7
  6
Continuous
370
    -3
390
F
  0
ENDTAB
  0
TABLE
  2
STYLE
  5
3
330
0
100
AcDbSymbolTable
 70
     1
  0
STYLE
  5
11
330
3
100
AcDbSymbolTableRecord
100
AcDbTextStyleTableRecord
  2
Standard
 70
     0
 40
0.0
 41
1.0
 50
0.0
 71
     0
 42
0.125
  3
txt
  4

  0
ENDTAB
  0
TABLE
  2
VIEW
  5
6
330
0
100
AcDbSymbolTable
 70
     0
  0
ENDTAB
  0
TABLE
  2
UCS
  5
7
330
0
100
AcDbSymbolTable
 70
     0
  0
ENDTAB
  0
TABLE
  2
APPID
  5
9
330
0
100
AcDbSymbolTable
 70
     1
  0
APPID
  5
12
330
9
100
AcDbSymbolTableRecord
100
AcDbRegAppTableRecord
  2
ACAD
 70
     0
  0
ENDTAB
  0
TABLE
  2
DIMSTYLE
  5
A
330
0
100
AcDbSymbolTable
 70
     1
100
AcDbDimStyleTable
  0
DIMSTYLE
105
27
330
A
100
AcDbSymbolTableRecord
100
AcDbDimStyleTableRecord
  2
Standard
 70
     0
178
     0
340
11
  0
ENDTAB
  0
TABLE
  2
BLOCK_RECORD
  5
1
330
0
100
AcDbSymbolTable
 70
     1
  0
BLOCK_RECORD
  5
1F
330
1
100
AcDbSymbolTableRecord
100
AcDbBlockTableRecord
  2
*Model_Space
340
22
  0
BLOCK_RECORD
  5
1B
330
1
100
AcDbSymbolTableRecord
100
AcDbBlockTableRecord
  2
*Paper_Space
340
1E
  0
BLOCK_RECORD
  5
23
330
1
100
AcDbSymbolTableRecord
100
AcDbBlockTableRecord
  2
*Paper_Space0
340
26
  0
ENDTAB
  0
ENDSEC
  0
SECTION
  2
BLOCKS
  0
BLOCK
  5
20
330
1F
100
AcDbEntity
  8
0
100
AcDbBlockBegin
  2
*Model_Space
 70
     0
 10
0.0
 20
0.0
 30
0.0
  3
*Model_Space
  1

  0
ENDBLK
  5
21
330
1F
100
AcDbEntity
  8
0
100
AcDbBlockEnd
  0
BLOCK
  5
1C
330
1B
100
AcDbEntity
 67
     1
  8
0
100
AcDbBlockBegin
  2
*Paper_Space
 70
     0
 10
0.0
 20
0.0
 30
0.0
  3
*Paper_Space
  1

  0
ENDBLK
  5
1D
330
1B
100
AcDbEntity
 67
     1
  8
0
100
AcDbBlockEnd
  0
BLOCK
  5
24
330
23
100
AcDbEntity
  8
0
100
AcDbBlockBegin
  2
*Paper_Space0
 70
     0
 10
0.0
 20
0.0
 30
0.0
  3
*Paper_Space0
  1

  0
ENDBLK
  5
25
330
23
100
AcDbEntity
  8
0
100
AcDbBlockEnd
  0
ENDSEC
  0
SECTION
  2
ENTITIES
  0
LINE
  5
44
330
1F
100
AcDbEntity
  8
0
  6
Continuous
 62
     7
370
    15
100
AcDbLine
 10
4.4710711647
 20
7.4676263812
 30
0.0
 11
4.4710711647
 21
7.4451080005
 31
0.0
  0
LINE
  5
45
330
1F
100
AcDbEntity
  8
0
  6
Continuous
 62
     7
370
    15
100
AcDbLine
 10
4.5179461331
 20
7.4451080005
 30
0.0
 11
4.5179461331
 21
7.4676263812
 31
0.0
  0
SPLINE
  5
46
330
1F
100
AcDbEntity
  8
0
  6
Continuous
 62
     7
370
    15
100
AcDbSpline
210
0.0
220
0.0
230
1.0
 70
     8
 71
     3
 72
    13
 73
     9
 74
     0
 42
0.00000001
 43
0.00000001
 12
1.0
 22
0.0
 32
0.0
 13
1.0
 23
0.0
 33
0.0
 40
0.0
 40
0.0
 40
0.0
 40
0.0
 40
0.094918365612937
 40
0.285832860528516
 40
0.4877110297904175
 40
0.6996501909460009
 40
0.9200056839200201
 40
1.0
 40
1.0
 40
1.0
 40
1.0
 10
4.47107116465208
 20
7.450167550194258
 30
0.0
 10
4.470734915225021
 20
7.449935282529161
 30
0.0
 10
4.469722348953295
 20
7.449235842218592
 30
0.0
 10
4.46666288105606
 20
7.447603495302885
 30
0.0
 10
4.461943992853806
 20
7.445519354066602
 30
0.0
 10
4.455723609433051
 20
7.443305717788284
 30
0.0
 10
4.450054650608736
 20
7.441559446402868
 30
0.0
 10
4.446168637361774
 20
7.440645221116548
 30
0.0
 10
4.445133647617824
 20
7.440401728947358
 30
0.0
  0
SPLINE
  5
47
330
1F
100
AcDbEntity
  8
0
  6
Continuous
 62
     7
370
    15
100
AcDbSpline
210
0.0
220
0.0
230
1.0
 70
     8
 71
     3
 72
     9
 73
     5
 74
     0
 42
0.00000001
 43
0.00000001
 12
1.0
 22
0.0
 32
0.0
 13
1.0
 23
0.0
 33
0.0
 40
0.0
 40
0.0
 40
0.0
 40
0.0
 40
0.2508877024139059
 40
1.0
 40
1.0
 40
1.0
 40
1.0
 10
4.516815969537524
 20
7.436944616696714
 30
0.0
 10
4.517018725399343
 20
7.437597621889181
 30
0.0
 10
4.517826879246134
 20
7.440200400686964
 30
0.0
 10
4.517895058917888
 20
7.44300616669605
 30
0.0
 10
4.517946133148445
 20
7.445108000517607
 30
0.0
  0
SPLINE
  5
48
330
1F
100
AcDbEntity
  8
0
  6
Continuous
 62
     7
370
    15
100
AcDbSpline
210
0.0
220
0.0
230
1.0
 70
     8
 71
     3
 72
    12
 73
     8
 74
     0
 42
0.00000001
 43
0.00000001
 12
1.0
 22
0.0
 32
0.0
 13
1.0
 23
0.0
 33
0.0
 40
0.0
 40
0.0
 40
0.0
 40
0.0
 40
0.1354935848754702
 40
0.3568336361136867
 40
0.5806487215846926
 40
0.8086956636924186
 40
1.0
 40
1.0
 40
1.0
 40
1.0
 10
3.427258646196699
 20
7.324865277488471
 30
0.0
 10
3.42494016619741
 20
7.324698243407209
 30
0.0
 10
3.418834256097213
 20
7.324258345247995
 30
0.0
 10
3.40987600408949
 20
7.323404040856003
 30
0.0
 10
3.400379385071484
 20
7.322305525362787
 30
0.0
 10
3.392251411194736
 20
7.321152083471728
 30
0.0
 10
3.387759726322666
 20
7.32026320361509
 30
0.0
 10
3.38571065949592
 20
7.319857704503048
 30
0.0
  0
LINE
  5
49
330
1F
100
AcDbEntity
  8
0
  6
Continuous
 62
     7
370
    15
100
AcDbLine
 10
3.3935086527
 20
7.5744694165
 30
0.0
 11
3.3935086527
 21
7.6045575156
 31
0.0
  0
LINE
  5
4A
330
1F
100
AcDbEntity
  8
0
  6
Continuous
 62
     7
370
    15
100
AcDbLine
 10
3.3622586371
 20
7.6045575156
 30
0.0
 11
3.3622586371
 21
7.5792479447
 31
0.0
  0
SPLINE
  5
4B
330
1F
100
AcDbEntity
  8
0
  6
Continuous
 62
     7
370
    15
100
AcDbSpline
210
0.0
220
0.0
230
1.0
 70
     8
 71
     3
 72
    15
 73
    11
 74
     0
 42
0.00000001
 43
0.00000001
 12
1.0
 22
0.0
 32
0.0
 13
1.0
 23
0.0
 33
0.0
 40
0.0
 40
0.0
 40
0.0
 40
0.0
 40
0.0637625272672343
 40
0.186096677337423
 40
0.3090895798136087
 40
0.4369152168404937
 40
0.5708534814509276
 40
0.7104025608616361
 40
0.8545143281510832
 40
1.0
 40
1.0
 40
1.0
 40
1.0
 10
3.393033824898088
 20
7.602255645551268
 30
0.0
 10
3.393019743614863
 20
7.602235721737378
 30
0.0
 10
3.392978646121818
 20
7.602177572292497
 30
0.0
 10
3.393910080116862
 20
7.603213241208268
 30
0.0
 10
3.396128410578831
 20
7.604866755980383
 30
0.0
 10
3.399687921405292
 20
7.606945042812633
 30
0.0
 10
3.4045971484854
 20
7.609221046777375
 30
0.0
 10
3.410894900892811
 20
7.6115772020813
 30
0.0
 10
3.418402732876159
 20
7.613903022765797
 30
0.0
 10
3.424297353361518
 20
7.615309688595109
 30
0.0
 10
3.427258646196699
 20
7.616016358253008
 30
0.0
  0
SPLINE
  5
4C
330
1F
100
AcDbEntity
  8
0
  6
Continuous
 62
     7
370
    15
100
AcDbSpline
210
0.0
220
0.0
230
1.0
 70
     8
 71
     3
 72
    18
 73
    14
 74
     0
 42
0.00000001
 43
0.00000001
 12
1.0
 22
0.0
 32
0.0
 13
1.0
 23
0.0
 33
0.0
 40
0.0
 40
0.0
 40
0.0
 40
0.0
 40
0.0796472168555244
 40
0.1889482872451748
 40
0.299737520093641
 40
0.4127268673892753
 40
0.528909689048291
 40
0.649024473870609
 40
0.7431190932622413
 40
0.8259560199030843
 40
0.9022257118685797
 40
0.9752508242964641
 40
1.0
 40
1.0
 40
1.0
 40
1.0
 10
3.427258646196699
 20
7.647901249916019
 30
0.0
 10
3.42441390550086
 20
7.647333499905906
 30
0.0
 10
3.41766528447735
 20
7.645986618040734
 30
0.0
 10
3.40796563576562
 20
7.643421763327773
 30
0.0
 10
3.398063066778398
 20
7.640250407704519
 30
0.0
 10
3.389049544402763
 20
7.636600129960878
 30
0.0
 10
3.38090567300835
 20
7.632365611767711
 30
0.0
 10
3.374262529345189
 20
7.627716762452208
 30
0.0
 10
3.369168134331941
 20
7.622715892675568
 30
0.0
 10
3.365588510263119
 20
7.617641725835599
 30
0.0
 10
3.36323655282663
 20
7.612235637589656
 30
0.0
 10
3.362335098251817
 20
7.607761441035747
 30
0.0
 10
3.362274081886622
 20
7.605204693811118
 30
0.0
 10
3.362258637082351
 20
7.604557515626536
 30
0.0
  0
LINE
  5
4D
330
1F
100
AcDbEntity
  8
0
  6
Continuous
 62
     7
370
    15
100
AcDbLine
 10
4.4788836411
 20
7.2232679853
 30
0.0
 11
4.4788836411
 21
7.1287810752
 31
0.0
  0
LINE
  5
4E
330
1F
100
AcDbEntity
  8
0
  6
Continuous
 62
     7
370
    15
100
AcDbLine
 10
4.5101336567
 20
7.1287810752
 30
0.0
 11
4.5101336567
 21
7.2170191958
 31
0.0
  0
SPLINE
  5
4F
330
1F
100
AcDbEntity
  8
0
  6
Continuous
 62
     7
370
    15
100
AcDbSpline
210
0.0
220
0.0
230
1.0
 70
     8
 71
     3
 72
    16
 73
    12
 74
     0
 42
0.00000001
 43
0.00000001
 12
1.0
 22
0.0
 32
0.0
 13
1.0
 23
0.0
 33
0.0
 40
0.0
 40
0.0
 40
0.0
 40
0.0
 40
0.0647357493136839
 40
0.1995701266415532
 40
0.3203151771122384
 40
0.4355447456757628
 40
0.5578802505102444
 40
0.6785691107357412
 40
0.799468852584686
 40
0.9214795241656887
 40
1.0
 40
1.0
 40
1.0
 40
1.0
 10
4.478883641068353
 20
7.128781075169909
 30
0.0
 10
4.478869553503238
 20
7.128415992216307
 30
0.0
 10
4.478826123757174
 20
7.127290498929252
 30
0.0
 10
4.478313240219631
 20
7.125280615358567
 30
0.0
 10
4.476806994593682
 20
7.122304094575573
 30
0.0
 10
4.474205264681278
 20
7.118906487620759
 30
0.0
 10
4.470326199900617
 20
7.115178468791307
 30
0.0
 10
4.465068688014925
 20
7.111268649252446
 30
0.0
 10
4.458537500030602
 20
7.107435807905635
 30
0.0
 10
4.451888641707922
 20
7.104172241822934
 30
0.0
 10
4.447034390369419
 20
7.102357528833076
 30
0.0
 10
4.445133647617824
 20
7.101646955292243
 30
0.0
  0
SPLINE
  5
50
330
1F
100
AcDbEntity
  8
0
  6
Continuous
 62
     7
370
    15
100
AcDbSpline
210
0.0
220
0.0
230
1.0
 70
     8
 71
     3
 72
    17
 73
    13
 74
     0
 42
0.00000001
 43
0.00000001
 12
1.0
 22
0.0
 32
0.0
 13
1.0
 23
0.0
 33
0.0
 40
0.0
 40
0.0
 40
0.0
 40
0.0
 40
0.0915603651259743
 40
0.1996365409802925
 40
0.3086837771612685
 40
0.4187567131019683
 40
0.5295620875061456
 40
0.6394817090676093
 40
0.7342619098324071
 40
0.8246887442580956
 40
0.9214605946740877
 40
1.0
 40
1.0
 40
1.0
 40
1.0
 10
4.445133647617824
 20
7.068644293208479
 30
0.0
 10
4.448510350917474
 20
7.069709849560073
 30
0.0
 10
4.455872852866124
 20
7.072033169087678
 30
0.0
 10
4.466221997630453
 20
7.076347380476942
 30
0.0
 10
4.476290953381705
 20
7.081448079759054
 30
0.0
 10
4.485343895127469
 20
7.087210772484133
 30
0.0
 10
4.493262199494215
 20
7.093620108891477
 30
0.0
 10
4.499610439014452
 20
7.100392299988897
 30
0.0
 10
4.504388380509642
 20
7.10734336384937
 30
0.0
 10
4.507771068237968
 20
7.114516422307131
 30
0.0
 10
4.509790499087005
 20
7.121708310139303
 30
0.0
 10
4.510027486445788
 20
7.126592817092593
 30
0.0
 10
4.510133656732171
 20
7.128781075169909
 30
0.0
  0
LINE
  5
51
330
1F
100
AcDbEntity
  8
0
  6
Continuous
 62
     7
370
    15
100
AcDbLine
 10
4.5432586374
 20
7.5085409998
 30
0.0
 11
4.5432586374
 21
7.5101318564
 31
0.0
  0
ARC
  5
52
330
1F
100
AcDbEntity
  8
0
  6
Continuous
 62
     7
370
    15
100
AcDbCircle
 10
4.5203836469
 20
7.6393964931
 30
0.0
 40
0.0235000000000003
100
AcDbArc
 50
0.0
 51
90.0
  0
LINE
  5
53
330
1F
100
AcDbEntity
  8
0
  6
Continuous
 62
     7
370
    15
100
AcDbLine
 10
4.5203836317
 20
7.6628964967
 30
0.0
 11
4.4451336476
 21
7.6628964967
 31
0.0
  0
ARC
  5
54
330
1F
100
AcDbEntity
  8
0
  6
Continuous
 62
     7
370
    15
100
AcDbCircle
 10
3.3520086469
 20
7.2019328518
 30
0.0
 40
0.0235000000000003
100
AcDbArc
 50
180.0
 51
270.0
  0
LINE
  5
55
330
1F
100
AcDbEntity
  8
0
  6
Continuous
 62
     7
370
    15
100
AcDbLine
 10
3.3520086622
 20
7.1784328516
 30
0.0
 11
3.4272586462
 21
7.1784328516
 31
0.0
  0
ARC
  5
56
330
1F
100
AcDbEntity
  8
0
  6
Continuous
 62
     7
370
    15
100
AcDbCircle
 10
3.3520086469
 20
7.4244893212
 30
0.0
 40
0.0235000000000003
100
AcDbArc
 50
180.0
 51
270.0
  0
LINE
  5
57
330
1F
100
AcDbEntity
  8
0
  6
Continuous
 62
     7
370
    15
100
AcDbLine
 10
3.3520086622
 20
7.4009893206
 30
0.0
 11
3.4272586462
 21
7.4009893206
 31
0.0
  0
LINE
  5
58
330
1F
100
AcDbEntity
  8
0
  6
Continuous
 62
     7
370
    15
100
AcDbLine
 10
4.5203836317
 20
7.4369446167
 30
0.0
 11
4.4451336476
 21
7.4369446167
 31
0.0
  0
ARC
  5
59
330
1F
100
AcDbEntity
  8
0
  6
Continuous
 62
     7
370
    15
100
AcDbCircle
 10
4.5203836469
 20
7.4134446165
 30
0.0
 40
0.0235000000000003
100
AcDbArc
 50
0.0
 51
90.0
  0
LINE
  5
5A
330
1F
100
AcDbEntity
  8
0
  6
Continuous
 62
     7
370
    15
100
AcDbLine
 10
3.5661336552
 20
6.8672839193
 30
0.0
 11
3.7237011883
 21
6.8946014804
 31
0.0
  0
LINE
  5
5B
330
1F
100
AcDbEntity
  8
0
  6
Continuous
 62
     7
370
    15
100
AcDbLine
 10
3.7237011883
 20
7.948216389
 30
0.0
 11
3.5661336552
 21
7.9755339501
 31
0.0
  0
LINE
  5
5C
330
1F
100
AcDbEntity
  8
0
  6
Continuous
 62
     7
370
    15
100
AcDbLine
 10
3.4741336514
 20
6.8672839193
 30
0.0
 11
3.5661336552
 21
6.8672839193
 31
0.0
  0
LINE
  5
5D
330
1F
100
AcDbEntity
  8
0
  6
Continuous
 62
     7
370
    15
100
AcDbLine
 10
3.5661336552
 20
7.9755339501
 30
0.0
 11
3.4741336514
 21
7.9755339501
 31
0.0
  0
LINE
  5
5E
330
1F
100
AcDbEntity
  8
0
  6
Continuous
 62
     7
370
    15
100
AcDbLine
 10
3.4741336514
 20
7.9755339501
 30
0.0
 11
3.4272586462
 21
7.9286589449
 31
0.0
  0
LINE
  5
5F
330
1F
100
AcDbEntity
  8
0
  6
Continuous
 62
     7
370
    15
100
AcDbLine
 10
3.4272586462
 20
6.9141589245
 30
0.0
 11
3.4741336514
 21
6.8672839193
 31
0.0
  0
LINE
  5
60
330
1F
100
AcDbEntity
  8
0
  6
Continuous
 62
     7
370
    15
100
AcDbLine
 10
3.7237011883
 20
6.8946014804
 30
0.0
 11
3.7463836413
 21
6.9172839517
 31
0.0
  0
LINE
  5
61
330
1F
100
AcDbEntity
  8
0
  6
Continuous
 62
     7
370
    15
100
AcDbLine
 10
3.7463836413
 20
7.9255339177
 30
0.0
 11
3.7237011883
 21
7.948216389
 31
0.0
  0
LINE
  5
62
330
1F
100
AcDbEntity
  8
0
  6
Continuous
 62
     7
370
    15
100
AcDbLine
 10
4.3062586386
 20
7.9755339501
 30
0.0
 11
4.1486911055
 21
7.948216389
 31
0.0
  0
LINE
  5
63
330
1F
100
AcDbEntity
  8
0
  6
Continuous
 62
     7
370
    15
100
AcDbLine
 10
4.1486911055
 20
6.8946014804
 30
0.0
 11
4.3062586386
 21
6.8672839193
 31
0.0
  0
LINE
  5
64
330
1F
100
AcDbEntity
  8
0
  6
Continuous
 62
     7
370
    15
100
AcDbLine
 10
4.3982586425
 20
7.9755339501
 30
0.0
 11
4.3062586386
 21
7.9755339501
 31
0.0
  0
LINE
  5
65
330
1F
100
AcDbEntity
  8
0
  6
Continuous
 62
     7
370
    15
100
AcDbLine
 10
4.3062586386
 20
6.8672839193
 30
0.0
 11
4.3982586425
 21
6.8672839193
 31
0.0
  0
LINE
  5
66
330
1F
100
AcDbEntity
  8
0
  6
Continuous
 62
     7
370
    15
100
AcDbLine
 10
4.3982586425
 20
6.8672839193
 30
0.0
 11
4.4451336476
 21
6.9141589245
 31
0.0
  0
LINE
  5
67
330
1F
100
AcDbEntity
  8
0
  6
Continuous
 62
     7
370
    15
100
AcDbLine
 10
4.4451336476
 20
7.9286589449
 30
0.0
 11
4.3982586425
 21
7.9755339501
 31
0.0
  0
LINE
  5
68
330
1F
100
AcDbEntity
  8
0
  6
Continuous
 62
     7
370
    15
100
AcDbLine
 10
4.1486911055
 20
7.948216389
 30
0.0
 11
4.1260086525
 21
7.9255339177
 31
0.0
  0
LINE
  5
69
330
1F
100
AcDbEntity
  8
0
  6
Continuous
 62
     7
370
    15
100
AcDbLine
 10
4.1260086525
 20
6.9172839517
 30
0.0
 11
4.1486911055
 21
6.8946014804
 31
0.0
  0
LINE
  5
6A
330
1F
100
AcDbEntity
  8
0
  6
Continuous
 62
     7
370
    15
100
AcDbLine
 10
3.753335561
 20
7.8861589192
 30
0.0
 11
3.7463836413
 21
7.8741178716
 31
0.0
  0
LINE
  5
6B
330
1F
100
AcDbEntity
  8
0
  6
Continuous
 62
     7
370
    15
100
AcDbLine
 10
3.7463836413
 20
6.9686999978
 30
0.0
 11
3.753335561
 21
6.9566589502
 31
0.0
  0
LINE
  5
6C
330
1F
100
AcDbEntity
  8
0
  6
Continuous
 62
     7
370
    15
100
AcDbLine
 10
4.1108836439
 20
6.9566589502
 30
0.0
 11
4.1190567328
 21
6.9566589502
 31
0.0
  0
LINE
  5
6D
330
1F
100
AcDbEntity
  8
0
  6
Continuous
 62
     7
370
    15
100
AcDbLine
 10
4.1190567328
 20
7.8861589192
 30
0.0
 11
4.1108836439
 21
7.8861589192
 31
0.0
  0
LINE
  5
6E
330
1F
100
AcDbEntity
  8
0
  6
Continuous
 62
     7
370
    15
100
AcDbLine
 10
3.7615086499
 20
7.8861589192
 30
0.0
 11
3.753335561
 21
7.8861589192
 31
0.0
  0
LINE
  5
6F
330
1F
100
AcDbEntity
  8
0
  6
Continuous
 62
     7
370
    15
100
AcDbLine
 10
3.753335561
 20
6.9566589502
 30
0.0
 11
3.7615086499
 21
6.9566589502
 31
0.0
  0
LINE
  5
70
330
1F
100
AcDbEntity
  8
0
  6
Continuous
 62
     7
370
    15
100
AcDbLine
 10
4.1190567328
 20
6.9566589502
 30
0.0
 11
4.1260086525
 21
6.9686999978
 31
0.0
  0
LINE
  5
71
330
1F
100
AcDbEntity
  8
0
  6
Continuous
 62
     7
370
    15
100
AcDbLine
 10
4.1260086525
 20
7.8741178716
 30
0.0
 11
4.1190567328
 21
7.8861589192
 31
0.0
  0
CIRCLE
  5
72
330
1F
100
AcDbEntity
  8
0
  6
Continuous
 62
     7
370
    15
100
AcDbCircle
 10
3.9361961469
 20
7.0825339347
 30
0.0
 40
0.0405601291492554
  0
CIRCLE
  5
73
330
1F
100
AcDbEntity
  8
0
  6
Continuous
 62
     7
370
    15
100
AcDbCircle
 10
3.9361961469
 20
7.0825339347
 30
0.0
 40
0.0482453333233925
  0
CIRCLE
  5
74
330
1F
100
AcDbEntity
  8
0
  6
Continuous
 62
     7
370
    15
100
AcDbCircle
 10
3.9361961469
 20
7.0825339347
 30
0.0
 40
0.0390624999999996
  0
CIRCLE
  5
75
330
1F
100
AcDbEntity
  8
0
  6
Continuous
 62
     7
370
    15
100
AcDbCircle
 10
3.9361961469
 20
7.0825339347
 30
0.0
 40
0.0500000000000003
  0
CIRCLE
  5
76
330
1F
100
AcDbEntity
  8
0
  6
Continuous
 62
     7
370
    15
100
AcDbCircle
 10
3.9361961469
 20
7.0825339347
 30
0.0
 40
0.05375
  0
CIRCLE
  5
77
330
1F
100
AcDbEntity
  8
0
  6
Continuous
 62
     7
370
    15
100
AcDbCircle
 10
3.9361961469
 20
7.0825339347
 30
0.0
 40
0.0570874999999997
  0
CIRCLE
  5
78
330
1F
100
AcDbEntity
  8
0
  6
Continuous
 62
     7
370
    15
100
AcDbCircle
 10
3.9361961469
 20
7.0825339347
 30
0.0
 40
0.0624999999999996
  0
LINE
  5
79
330
1F
100
AcDbEntity
  8
0
  6
Continuous
 62
     7
370
    15
100
AcDbLine
 10
4.0299461481
 20
7.0284073447
 30
0.0
 11
3.9361961469
 21
6.9742807466
 31
0.0
  0
LINE
  5
7A
330
1F
100
AcDbEntity
  8
0
  6
Continuous
 62
     7
370
    15
100
AcDbLine
 10
3.8424461457
 20
7.1366605225
 30
0.0
 11
3.9361961469
 21
7.1907871022
 31
0.0
  0
LINE
  5
7B
330
1F
100
AcDbEntity
  8
0
  6
Continuous
 62
     7
370
    15
100
AcDbLine
 10
3.9361961469
 20
6.9742807466
 30
0.0
 11
3.8424461457
 21
7.0284073447
 31
0.0
  0
LINE
  5
7C
330
1F
100
AcDbEntity
  8
0
  6
Continuous
 62
     7
370
    15
100
AcDbLine
 10
4.0299461481
 20
7.1366605225
 30
0.0
 11
4.0299461481
 21
7.0284073447
 31
0.0
  0
LINE
  5
7D
330
1F
100
AcDbEntity
  8
0
  6
Continuous
 62
     7
370
    15
100
AcDbLine
 10
3.9361961469
 20
7.1907871022
 30
0.0
 11
4.0299461481
 21
7.1366605225
 31
0.0
  0
LINE
  5
7E
330
1F
100
AcDbEntity
  8
0
  6
Continuous
 62
     7
370
    15
100
AcDbLine
 10
3.8424461457
 20
7.0284073447
 30
0.0
 11
3.8424461457
 21
7.1366605225
 31
0.0
  0
LWPOLYLINE
  5
7F
330
1F
100
AcDbEntity
  8
0
  6
Continuous
 62
     7
370
    15
100
AcDbPolyline
 90
        3
 70
   128
 43
0.0
 10
4.0316336477
 20
7.0825339428
 10
4.0308171638
 20
7.0949910422
 10
4.0299461481
 20
7.100401623
  0
ARC
  5
80
330
1F
100
AcDbEntity
  8
0
  6
Continuous
 62
     7
370
    15
100
AcDbCircle
 10
3.9361961469
 20
7.0825339347
 30
0.0
 40
0.0954375000000003
100
AcDbArc
 50
49.2094892566
 51
70.7905107434
  0
ARC
  5
81
330
1F
100
AcDbEntity
  8
0
  6
Continuous
 62
     7
370
    15
100
AcDbCircle
 10
3.9361961469
 20
7.0825339347
 30
0.0
 40
0.0954375000000005
100
AcDbArc
 50
109.2094892566
 51
130.7905107434
  0
ARC
  5
82
330
1F
100
AcDbEntity
  8
0
  6
Continuous
 62
     7
370
    15
100
AcDbCircle
 10
3.9361961469
 20
7.0825339347
 30
0.0
 40
0.0954375000000009
100
AcDbArc
 50
169.2094892566
 51
190.7905107434
  0
ARC
  5
83
330
1F
100
AcDbEntity
  8
0
  6
Continuous
 62
     7
370
    15
100
AcDbCircle
 10
3.9361961469
 20
7.0825339347
 30
0.0
 40
0.0954375000000005
100
AcDbArc
 50
229.2094892566
 51
250.7905107434
  0
ARC
  5
84
330
1F
100
AcDbEntity
  8
0
  6
Continuous
 62
     7
370
    15
100
AcDbCircle
 10
3.9361961469
 20
7.0825339347
 30
0.0
 40
0.0954374999999995
100
AcDbArc
 50
289.2094892566
 51
310.7905107434
  0
LWPOLYLINE
  5
85
330
1F
100
AcDbEntity
  8
0
  6
Continuous
 62
     7
370
    15
100
AcDbPolyline
 90
        3
 70
   128
 43
0.0
 10
4.0299461481
 20
7.0646662625
 10
4.0308171638
 20
7.0700768433
 10
4.0316336477
 20
7.0825339428
  0
CIRCLE
  5
86
330
1F
100
AcDbEntity
  8
0
  6
Continuous
 62
     7
370
    15
100
AcDbCircle
 10
3.9361961469
 20
7.7602839347
 30
0.0
 40
0.0405601291492554
  0
CIRCLE
  5
87
330
1F
100
AcDbEntity
  8
0
  6
Continuous
 62
     7
370
    15
100
AcDbCircle
 10
3.9361961469
 20
7.7602839347
 30
0.0
 40
0.0482453333233925
  0
CIRCLE
  5
88
330
1F
100
AcDbEntity
  8
0
  6
Continuous
 62
     7
370
    15
100
AcDbCircle
 10
3.9361961469
 20
7.7602839347
 30
0.0
 40
0.0390624999999996
  0
CIRCLE
  5
89
330
1F
100
AcDbEntity
  8
0
  6
Continuous
 62
     7
370
    15
100
AcDbCircle
 10
3.9361961469
 20
7.7602839347
 30
0.0
 40
0.0500000000000003
  0
CIRCLE
  5
8A
330
1F
100
AcDbEntity
  8
0
  6
Continuous
 62
     7
370
    15
100
AcDbCircle
 10
3.9361961469
 20
7.7602839347
 30
0.0
 40
0.05375
  0
CIRCLE
  5
8B
330
1F
100
AcDbEntity
  8
0
  6
Continuous
 62
     7
370
    15
100
AcDbCircle
 10
3.9361961469
 20
7.7602839347
 30
0.0
 40
0.0570874999999997
  0
CIRCLE
  5
8C
330
1F
100
AcDbEntity
  8
0
  6
Continuous
 62
     7
370
    15
100
AcDbCircle
 10
3.9361961469
 20
7.7602839347
 30
0.0
 40
0.0624999999999996
  0
LINE
  5
8D
330
1F
100
AcDbEntity
  8
0
  6
Continuous
 62
     7
370
    15
100
AcDbLine
 10
4.0299461481
 20
7.7061573469
 30
0.0
 11
3.9361961469
 21
7.6520307672
 31
0.0
  0
LINE
  5
8E
330
1F
100
AcDbEntity
  8
0
  6
Continuous
 62
     7
370
    15
100
AcDbLine
 10
3.8424461457
 20
7.8144105247
 30
0.0
 11
3.9361961469
 21
7.8685371228
 31
0.0
  0
LINE
  5
8F
330
1F
100
AcDbEntity
  8
0
  6
Continuous
 62
     7
370
    15
100
AcDbLine
 10
4.0299461481
 20
7.8144105247
 30
0.0
 11
4.0299461481
 21
7.7061573469
 31
0.0
  0
LINE
  5
90
330
1F
100
AcDbEntity
  8
0
  6
Continuous
 62
     7
370
    15
100
AcDbLine
 10
3.9361961469
 20
7.8685371228
 30
0.0
 11
4.0299461481
 21
7.8144105247
 31
0.0
  0
LINE
  5
91
330
1F
100
AcDbEntity
  8
0
  6
Continuous
 62
     7
370
    15
100
AcDbLine
 10
3.8424461457
 20
7.7061573469
 30
0.0
 11
3.8424461457
 21
7.8144105247
 31
0.0
  0
LINE
  5
92
330
1F
100
AcDbEntity
  8
0
  6
Continuous
 62
     7
370
    15
100
AcDbLine
 10
3.9361961469
 20
7.6520307672
 30
0.0
 11
3.8424461457
 21
7.7061573469
 31
0.0
  0
LWPOLYLINE
  5
93
330
1F
100
AcDbEntity
  8
0
  6
Continuous
 62
     7
370
    15
100
AcDbPolyline
 90
        3
 70
   128
 43
0.0
 10
4.0316336477
 20
7.7602839267
 10
4.0308171638
 20
7.7727410261
 10
4.0299461481
 20
7.7781516069
  0
ARC
  5
94
330
1F
100
AcDbEntity
  8
0
  6
Continuous
 62
     7
370
    15
100
AcDbCircle
 10
3.9361961469
 20
7.7602839347
 30
0.0
 40
0.0954375000000002
100
AcDbArc
 50
49.2094892566
 51
70.7905107434
  0
ARC
  5
95
330
1F
100
AcDbEntity
  8
0
  6
Continuous
 62
     7
370
    15
100
AcDbCircle
 10
3.9361961469
 20
7.7602839347
 30
0.0
 40
0.0954375000000005
100
AcDbArc
 50
109.2094892566
 51
130.7905107434
  0
ARC
  5
96
330
1F
100
AcDbEntity
  8
0
  6
Continuous
 62
     7
370
    15
100
AcDbCircle
 10
3.9361961469
 20
7.7602839347
 30
0.0
 40
0.0954375000000007
100
AcDbArc
 50
169.2094892566
 51
190.7905107434
  0
ARC
  5
97
330
1F
100
AcDbEntity
  8
0
  6
Continuous
 62
     7
370
    15
100
AcDbCircle
 10
3.9361961469
 20
7.7602839347
 30
0.0
 40
0.0954375000000008
100
AcDbArc
 50
229.2094892566
 51
250.7905107434
  0
ARC
  5
98
330
1F
100
AcDbEntity
  8
0
  6
Continuous
 62
     7
370
    15
100
AcDbCircle
 10
3.9361961469
 20
7.7602839347
 30
0.0
 40
0.0954375000000002
100
AcDbArc
 50
289.2094892566
 51
310.7905107434
  0
LWPOLYLINE
  5
99
330
1F
100
AcDbEntity
  8
0
  6
Continuous
 62
     7
370
    15
100
AcDbPolyline
 90
        3
 70
   128
 43
0.0
 10
4.0299461481
 20
7.7424162464
 10
4.0308171638
 20
7.7478268272
 10
4.0316336477
 20
7.7602839267
  0
LINE
  5
9A
330
1F
100
AcDbEntity
  8
0
  6
Continuous
 62
     7
370
    15
100
AcDbLine
 10
3.3705981174
 20
7.3203194425
 30
0.0
 11
3.3705981174
 21
7.319470564
 31
0.0
  0
ARC
  5
9B
330
1F
100
AcDbEntity
  8
0
  6
Continuous
 62
     7
370
    15
100
AcDbCircle
 10
3.377883631
 20
7.2718826757
 30
0.0
 40
0.0489816198410332
100
AcDbArc
 50
76.2992027481
 51
98.5538999653
  0
ARC
  5
9C
330
1F
100
AcDbEntity
  8
0
  6
Continuous
 62
     7
370
    15
100
AcDbCircle
 10
4.4983672709
 20
7.5085597744
 30
0.0
 40
0.0448913704584059
100
AcDbArc
 50
338.5005556539
 51
359.9760375649
  0
LINE
  5
9D
330
1F
100
AcDbEntity
  8
0
  6
Continuous
 62
     7
370
    15
100
AcDbLine
 10
4.5401351502
 20
7.5030975477
 30
0.0
 11
4.5401351502
 21
7.4921074372
 31
0.0
  0
LINE
  5
9E
330
1F
100
AcDbEntity
  8
0
  6
Continuous
 62
     7
370
    15
100
AcDbLine
 10
4.5326401301
 20
7.479468959
 30
0.0
 11
4.5326401301
 21
7.4960933924
 31
0.0
  0
ARC
  5
9F
330
1F
100
AcDbEntity
  8
0
  6
Continuous
 62
     7
370
    15
100
AcDbCircle
 10
4.494976035
 20
7.5111471403
 30
0.0
 40
0.0492147460584971
100
AcDbArc
 50
278.7383820449
 51
319.9337789997
  0
LINE
  5
A0
330
1F
100
AcDbEntity
  8
0
  6
Continuous
 62
     7
370
    15
100
AcDbLine
 10
4.5024528855
 20
7.4927918493
 30
0.0
 11
4.5024528855
 21
7.4625036625
 31
0.0
  0
LINE
  5
A1
330
1F
100
AcDbEntity
  8
0
  6
Continuous
 62
     7
370
    15
100
AcDbLine
 10
4.4872701275
 20
7.4623971745
 30
0.0
 11
4.4872701275
 21
7.4927918493
 31
0.0
  0
ARC
  5
A2
330
1F
100
AcDbEntity
  8
0
  6
Continuous
 62
     7
370
    15
100
AcDbCircle
 10
4.4940783723
 20
7.5112160504
 30
0.0
 40
0.0492913261480637
100
AcDbArc
 50
220.908899879
 51
262.0607779013
  0
LINE
  5
A3
330
1F
100
AcDbEntity
  8
0
  6
Continuous
 62
     7
370
    15
100
AcDbLine
 10
4.4568263659
 20
7.4927918493
 30
0.0
 11
4.4568263659
 21
7.4789372206
 31
0.0
  0
LINE
  5
A4
330
1F
100
AcDbEntity
  8
0
  6
Continuous
 62
     7
370
    15
100
AcDbLine
 10
4.449138628
 20
7.4914692154
 30
0.0
 11
4.449138628
 21
7.4927918493
 31
0.0
  0
LINE
  5
A5
330
1F
100
AcDbEntity
  8
0
  6
Continuous
 62
     7
370
    15
100
AcDbLine
 10
4.449138628
 20
7.4914692154
 30
0.0
 11
4.448619434
 21
7.4927918493
 31
0.0
  0
ARC
  5
A6
330
1F
100
AcDbEntity
  8
0
  6
Continuous
 62
     7
370
    15
100
AcDbCircle
 10
4.494876515
 20
7.4603105423
 30
0.0
 40
0.0078874054827369
100
AcDbArc
 50
16.1440622145
 51
164.6596401578
  0
ARC
  5
A7
330
1F
100
AcDbEntity
  8
0
  6
Continuous
 62
     7
370
    15
100
AcDbCircle
 10
4.4513974333
 20
7.4837601714
 30
0.0
 40
0.0080331538008226
100
AcDbArc
 50
47.4824631981
 51
106.3309637721
  0
ARC
  5
A8
330
1F
100
AcDbEntity
  8
0
  6
Continuous
 62
     7
370
    15
100
AcDbCircle
 10
4.5379849699
 20
7.4843680767
 30
0.0
 40
0.0080324949856681
100
AcDbArc
 50
74.4734295622
 51
131.7131888443
  0
LINE
  5
A9
330
1F
100
AcDbEntity
  8
0
  6
Continuous
 62
     7
370
    15
100
AcDbLine
 10
3.3613050581
 20
7.578902182
 30
0.0
 11
3.3613050581
 21
7.564591989
 31
0.0
  0
ARC
  5
AA
330
1F
100
AcDbEntity
  8
0
  6
Continuous
 62
     7
370
    15
100
AcDbCircle
 10
3.3778850226
 20
7.5345677473
 30
0.0
 40
0.0473332580844929
100
AcDbArc
 50
71.1731765696
 51
110.5045337015
  0
LINE
  5
AB
330
1F
100
AcDbEntity
  8
0
  6
Continuous
 62
     7
370
    15
100
AcDbLine
 10
3.3931598834
 20
7.564591989
 30
0.0
 11
3.3931598834
 21
7.5793685949
 31
0.0
  0
LINE
  5
AC
330
1F
100
AcDbEntity
  8
0
  6
Continuous
 62
     7
370
    15
100
AcDbLine
 10
3.4064059671
 20
7.5722739427
 30
0.0
 11
3.4064059671
 21
7.564591989
 31
0.0
  0
ARC
  5
AD
330
1F
100
AcDbEntity
  8
0
  6
Continuous
 62
     7
370
    15
100
AcDbCircle
 10
3.3791609018
 20
7.5368383613
 30
0.0
 40
0.0446987025655444
100
AcDbArc
 50
38.382219404
 51
52.4446914963
  0
ARC
  5
AE
330
1F
100
AcDbEntity
  8
0
  6
Continuous
 62
     7
370
    15
100
AcDbCircle
 10
3.3763417647
 20
7.5370997887
 30
0.0
 40
0.0443282075119945
100
AcDbArc
 50
129.2585737663
 51
147.8374393399
  0
LINE
  5
AF
330
1F
100
AcDbEntity
  8
0
  6
Continuous
 62
     7
370
    15
100
AcDbLine
 10
3.3482899351
 20
7.5643073856
 30
0.0
 11
3.3482899351
 21
7.5714230292
 31
0.0
  0
ARC
  5
B0
330
1F
100
AcDbEntity
  8
0
  6
Continuous
 62
     7
370
    15
100
AcDbCircle
 10
3.4007102002
 20
7.5777376364
 30
0.0
 40
0.0078926363357537
100
AcDbArc
 50
196.936542703
 51
316.1913569809
  0
ARC
  5
B1
330
1F
100
AcDbEntity
  8
0
  6
Continuous
 62
     7
370
    15
100
AcDbCircle
 10
3.353811954
 20
7.577103049
 30
0.0
 40
0.0079218253311269
100
AcDbArc
 50
225.8080834093
 51
341.0638862977
  0
LINE
  5
B2
330
1F
100
AcDbEntity
  8
0
  6
Continuous
 62
     7
370
    15
100
AcDbLine
 10
4.5401192737
 20
7.254485588
 30
0.0
 11
4.5401192737
 21
7.2625193085
 31
0.0
  0
ARC
  5
B3
330
1F
100
AcDbEntity
  8
0
  6
Continuous
 62
     7
370
    15
100
AcDbCircle
 10
4.5012782471
 20
7.2559204895
 30
0.0
 40
0.0388675222608882
100
AcDbArc
 50
313.9450513775
 51
357.884287953
  0
LINE
  5
B4
330
1F
100
AcDbEntity
  8
0
  6
Continuous
 62
     7
370
    15
100
AcDbLine
 10
4.5282510708
 20
7.2540902159
 30
0.0
 11
4.5282510708
 21
7.2279356531
 31
0.0
  0
LINE
  5
B5
330
1F
100
AcDbEntity
  8
0
  6
Continuous
 62
     7
370
    15
100
AcDbLine
 10
4.5163228452
 20
7.2195281202
 30
0.0
 11
4.5163228452
 21
7.2528724567
 31
0.0
  0
ARC
  5
B6
330
1F
100
AcDbEntity
  8
0
  6
Continuous
 62
     7
370
    15
100
AcDbCircle
 10
4.4945006791
 20
7.2646991346
 30
0.0
 40
0.0501659991731766
100
AcDbArc
 50
258.8322423322
 51
295.7852386357
  0
LINE
  5
B7
330
1F
100
AcDbEntity
  8
0
  6
Continuous
 62
     7
370
    15
100
AcDbLine
 10
4.4847844129
 20
7.2528724567
 30
0.0
 11
4.4847844129
 21
7.2154830636
 31
0.0
  0
LINE
  5
B8
330
1F
100
AcDbEntity
  8
0
  6
Continuous
 62
     7
370
    15
100
AcDbLine
 10
4.4707122021
 20
7.2205558383
 30
0.0
 11
4.4707122021
 21
7.2528724567
 31
0.0
  0
ARC
  5
B9
330
1F
100
AcDbEntity
  8
0
  6
Continuous
 62
     7
370
    15
100
AcDbCircle
 10
4.4904367468
 20
7.2576446241
 30
0.0
 40
0.04200756706517
100
AcDbArc
 50
200.3145211711
 51
241.9950775499
  0
LINE
  5
BA
330
1F
100
AcDbEntity
  8
0
  6
Continuous
 62
     7
370
    15
100
AcDbLine
 10
4.4510420094
 20
7.2528724567
 30
0.0
 11
4.4510420094
 21
7.2430607167
 31
0.0
  0
ARC
  5
BB
330
1F
100
AcDbEntity
  8
0
  6
Continuous
 62
     7
370
    15
100
AcDbCircle
 10
4.4769873084
 20
7.2155758022
 30
0.0
 40
0.0080110996889252
100
AcDbArc
 50
13.2728780694
 51
141.5638581912
  0
ARC
  5
BC
330
1F
100
AcDbEntity
  8
0
  6
Continuous
 62
     7
370
    15
100
AcDbCircle
 10
4.5234690294
 20
7.221308242
 30
0.0
 40
0.0081725452710697
100
AcDbArc
 50
54.1874804192
 51
150.975643509
  0
LINE
  5
BD
330
1F
100
AcDbEntity
  8
0
  6
Continuous
 62
     7
370
    15
100
AcDbLine
 10
4.5438836502
 20
7.6393964965
 30
0.0
 11
4.5438836502
 21
7.5630676449
 31
0.0
  0
ARC
  5
BE
330
1F
100
AcDbEntity
  8
0
  6
Continuous
 62
     7
370
    15
100
AcDbCircle
 10
4.520876358
 20
7.5635823932
 30
0.0
 40
0.0230130497143905
100
AcDbArc
 50
268.7731612957
 51
358.7183200277
  0
LINE
  5
BF
330
1F
100
AcDbEntity
  8
0
  6
Continuous
 62
     7
370
    15
100
AcDbLine
 10
4.4451336476
 20
7.5405746189
 30
0.0
 11
4.5203836317
 21
7.5405746189
 31
0.0
  0
LINE
  5
C0
330
1F
100
AcDbEntity
  8
0
  6
Continuous
 62
     7
370
    15
100
AcDbLine
 10
4.5203836317
 20
7.4927918493
 30
0.0
 11
4.5203836317
 21
7.5405746189
 31
0.0
  0
LINE
  5
C1
330
1F
100
AcDbEntity
  8
0
  6
Continuous
 62
     7
370
    15
100
AcDbLine
 10
4.4451336476
 20
7.4927918493
 30
0.0
 11
4.5203836317
 21
7.4927918493
 31
0.0
  0
ARC
  5
C2
330
1F
100
AcDbEntity
  8
0
  6
Continuous
 62
     7
370
    15
100
AcDbCircle
 10
4.5208763535
 20
7.5157996283
 30
0.0
 40
0.0230130543952519
100
AcDbArc
 50
268.7731729385
 51
358.7183083848
  0
LINE
  5
C3
330
1F
100
AcDbEntity
  8
0
  6
Continuous
 62
     7
370
    15
100
AcDbLine
 10
4.5438836502
 20
7.5630676449
 30
0.0
 11
4.5438836502
 21
7.5152848752
 31
0.0
  0
LINE
  5
C4
330
1F
100
AcDbEntity
  8
0
  6
Continuous
 62
     7
370
    15
100
AcDbLine
 10
3.3285086436
 20
7.2019328518
 30
0.0
 11
3.3285086436
 21
7.2797410213
 31
0.0
  0
ARC
  5
C5
330
1F
100
AcDbEntity
  8
0
  6
Continuous
 62
     7
370
    15
100
AcDbCircle
 10
3.3519509824
 20
7.2796830918
 30
0.0
 40
0.0234424103038679
100
AcDbArc
 50
89.8590242096
 51
179.8584139526
  0
LINE
  5
C6
330
1F
100
AcDbEntity
  8
0
  6
Continuous
 62
     7
370
    15
100
AcDbLine
 10
3.4272586462
 20
7.3031254311
 30
0.0
 11
3.3520086622
 21
7.3031254311
 31
0.0
  0
ARC
  5
C7
330
1F
100
AcDbEntity
  8
0
  6
Continuous
 62
     7
370
    15
100
AcDbCircle
 10
3.3519509916
 20
7.2960282154
 30
0.0
 40
0.0234424195275512
100
AcDbArc
 50
89.8590467531
 51
179.8583914091
  0
LINE
  5
C8
330
1F
100
AcDbEntity
  8
0
  6
Continuous
 62
     7
370
    15
100
AcDbLine
 10
3.3520086622
 20
7.319470564
 30
0.0
 11
3.3520086622
 21
7.3031254311
 31
0.0
  0
LINE
  5
C9
330
1F
100
AcDbEntity
  8
0
  6
Continuous
 62
     7
370
    15
100
AcDbLine
 10
3.3285086436
 20
7.2797410213
 30
0.0
 11
3.3285086436
 21
7.2960861541
 31
0.0
  0
LINE
  5
CA
330
1F
100
AcDbEntity
  8
0
  6
Continuous
 62
     7
370
    15
100
AcDbLine
 10
3.4272586462
 20
7.319470564
 30
0.0
 11
3.3520086622
 21
7.319470564
 31
0.0
  0
LINE
  5
CB
330
1F
100
AcDbEntity
  8
0
  6
Continuous
 62
     7
370
    15
100
AcDbLine
 10
3.3285086436
 20
7.4244893211
 30
0.0
 11
3.3285086436
 21
7.5009765797
 31
0.0
  0
ARC
  5
CC
330
1F
100
AcDbEntity
  8
0
  6
Continuous
 62
     7
370
    15
100
AcDbCircle
 10
3.3515617166
 20
7.500511628
 30
0.0
 40
0.0230577612811923
100
AcDbArc
 50
88.8893242781
 51
178.8445721937
  0
LINE
  5
CD
330
1F
100
AcDbEntity
  8
0
  6
Continuous
 62
     7
370
    15
100
AcDbLine
 10
3.4272586462
 20
7.5235650571
 30
0.0
 11
3.3520086622
 21
7.5235650571
 31
0.0
  0
ARC
  5
CE
330
1F
100
AcDbEntity
  8
0
  6
Continuous
 62
     7
370
    15
100
AcDbCircle
 10
3.3515617166
 20
7.5415385598
 30
0.0
 40
0.0230577612811924
100
AcDbArc
 50
88.8893242781
 51
178.8445721937
  0
LINE
  5
CF
330
1F
100
AcDbEntity
  8
0
  6
Continuous
 62
     7
370
    15
100
AcDbLine
 10
3.3520086622
 20
7.564591989
 30
0.0
 11
3.3520086622
 21
7.5235650571
 31
0.0
  0
LINE
  5
D0
330
1F
100
AcDbEntity
  8
0
  6
Continuous
 62
     7
370
    15
100
AcDbLine
 10
3.3285086436
 20
7.5009765797
 30
0.0
 11
3.3285086436
 21
7.5420035116
 31
0.0
  0
LINE
  5
D1
330
1F
100
AcDbEntity
  8
0
  6
Continuous
 62
     7
370
    15
100
AcDbLine
 10
3.4272586462
 20
7.564591989
 30
0.0
 11
3.3520086622
 21
7.564591989
 31
0.0
  0
LINE
  5
D2
330
1F
100
AcDbEntity
  8
0
  6
Continuous
 62
     7
370
    15
100
AcDbLine
 10
4.4451336476
 20
7.3183190514
 30
0.0
 11
4.5203836317
 21
7.3183190514
 31
0.0
  0
LINE
  5
D3
330
1F
100
AcDbEntity
  8
0
  6
Continuous
 62
     7
370
    15
100
AcDbLine
 10
4.5438836502
 20
7.4134446165
 30
0.0
 11
4.5438836502
 21
7.3394222618
 31
0.0
  0
ARC
  5
D4
330
1F
100
AcDbEntity
  8
0
  6
Continuous
 62
     7
370
    15
100
AcDbCircle
 10
4.5215209316
 20
7.34068871
 30
0.0
 40
0.022398550689704
100
AcDbArc
 50
267.0895206358
 51
356.7586808484
  0
LINE
  5
D5
330
1F
100
AcDbEntity
  8
0
  6
Continuous
 62
     7
370
    15
100
AcDbLine
 10
4.5203836317
 20
7.2528724567
 30
0.0
 11
4.5203836317
 21
7.3183190514
 31
0.0
  0
LINE
  5
D6
330
1F
100
AcDbEntity
  8
0
  6
Continuous
 62
     7
370
    15
100
AcDbLine
 10
4.4451336476
 20
7.2528724567
 30
0.0
 11
4.5203836317
 21
7.2528724567
 31
0.0
  0
ARC
  5
D7
330
1F
100
AcDbEntity
  8
0
  6
Continuous
 62
     7
370
    15
100
AcDbCircle
 10
4.5215209283
 20
7.2752421183
 30
0.0
 40
0.0223985536853273
100
AcDbArc
 50
267.0895295803
 51
356.758696648
  0
LINE
  5
D8
330
1F
100
AcDbEntity
  8
0
  6
Continuous
 62
     7
370
    15
100
AcDbLine
 10
4.5438836502
 20
7.3394222618
 30
0.0
 11
4.5438836502
 21
7.2739756762
 31
0.0
  0
LINE
  5
D9
330
1F
100
AcDbEntity
  8
0
  6
Continuous
 62
     7
370
    15
100
AcDbLine
 10
3.7983836431
 20
6.8941589189
 30
0.0
 11
4.0633836443
 21
6.8941589189
 31
0.0
  0
LINE
  5
DA
330
1F
100
AcDbEntity
  8
0
  6
Continuous
 62
     7
370
    15
100
AcDbLine
 10
3.7983836431
 20
6.9566589502
 30
0.0
 11
3.7983836431
 21
6.8941589189
 31
0.0
  0
LINE
  5
DB
330
1F
100
AcDbEntity
  8
0
  6
Continuous
 62
     7
370
    15
100
AcDbLine
 10
4.0633836443
 20
6.9566589502
 30
0.0
 11
4.0633836443
 21
6.8941589189
 31
0.0
  0
LINE
  5
DC
330
1F
100
AcDbEntity
  8
0
  6
Continuous
 62
     7
370
    15
100
AcDbLine
 10
3.9010268582
 20
7.7432839164
 30
0.0
 11
3.9713654356
 21
7.7432839164
 31
0.0
  0
LINE
  5
DD
330
1F
100
AcDbEntity
  8
0
  6
Continuous
 62
     7
370
    15
100
AcDbLine
 10
3.9707333211
 20
7.7420339275
 30
0.0
 11
3.9016589728
 21
7.7420339275
 31
0.0
  0
LINE
  5
DE
330
1F
100
AcDbEntity
  8
0
  6
Continuous
 62
     7
370
    15
100
AcDbLine
 10
3.5661336552
 20
6.8672839193
 30
0.0
 11
3.5661336552
 21
7.9755339501
 31
0.0
  0
LINE
  5
DF
330
1F
100
AcDbEntity
  8
0
  6
Continuous
 62
     7
370
    15
100
AcDbLine
 10
3.7237011883
 20
7.4214089347
 30
0.0
 11
3.7237011883
 21
7.948216389
 31
0.0
  0
LINE
  5
E0
330
1F
100
AcDbEntity
  8
0
  6
Continuous
 62
     7
370
    15
100
AcDbLine
 10
3.7237011883
 20
6.8946014804
 30
0.0
 11
3.7237011883
 21
7.4214089347
 31
0.0
  0
LINE
  5
E1
330
1F
100
AcDbEntity
  8
0
  6
Continuous
 62
     7
370
    15
100
AcDbLine
 10
3.4741336514
 20
6.8672839193
 30
0.0
 11
3.4741336514
 21
7.9755339501
 31
0.0
  0
LINE
  5
E2
330
1F
100
AcDbEntity
  8
0
  6
Continuous
 62
     7
370
    15
100
AcDbLine
 10
3.4272586462
 20
6.9141589245
 30
0.0
 11
3.4272586462
 21
7.9286589449
 31
0.0
  0
LINE
  5
E3
330
1F
100
AcDbEntity
  8
0
  6
Continuous
 62
     7
370
    15
100
AcDbLine
 10
3.7463836413
 20
7.4214089347
 30
0.0
 11
3.7463836413
 21
6.9172839517
 31
0.0
  0
LINE
  5
E4
330
1F
100
AcDbEntity
  8
0
  6
Continuous
 62
     7
370
    15
100
AcDbLine
 10
3.7463836413
 20
7.9255339177
 30
0.0
 11
3.7463836413
 21
7.4214089347
 31
0.0
  0
LINE
  5
E5
330
1F
100
AcDbEntity
  8
0
  6
Continuous
 62
     7
370
    15
100
AcDbLine
 10
4.3062586386
 20
7.9755339501
 30
0.0
 11
4.3062586386
 21
6.8672839193
 31
0.0
  0
LINE
  5
E6
330
1F
100
AcDbEntity
  8
0
  6
Continuous
 62
     7
370
    15
100
AcDbLine
 10
4.1486911055
 20
7.4214089347
 30
0.0
 11
4.1486911055
 21
6.8946014804
 31
0.0
  0
LINE
  5
E7
330
1F
100
AcDbEntity
  8
0
  6
Continuous
 62
     7
370
    15
100
AcDbLine
 10
4.1486911055
 20
7.948216389
 30
0.0
 11
4.1486911055
 21
7.4214089347
 31
0.0
  0
LINE
  5
E8
330
1F
100
AcDbEntity
  8
0
  6
Continuous
 62
     7
370
    15
100
AcDbLine
 10
4.3982586425
 20
7.9755339501
 30
0.0
 11
4.3982586425
 21
6.8672839193
 31
0.0
  0
LINE
  5
E9
330
1F
100
AcDbEntity
  8
0
  6
Continuous
 62
     7
370
    15
100
AcDbLine
 10
4.4451336476
 20
7.9286589449
 30
0.0
 11
4.4451336476
 21
6.9141589245
 31
0.0
  0
LINE
  5
EA
330
1F
100
AcDbEntity
  8
0
  6
Continuous
 62
     7
370
    15
100
AcDbLine
 10
4.1260086525
 20
7.4214089347
 30
0.0
 11
4.1260086525
 21
7.9255339177
 31
0.0
  0
LINE
  5
EB
330
1F
100
AcDbEntity
  8
0
  6
Continuous
 62
     7
370
    15
100
AcDbLine
 10
4.1260086525
 20
6.9172839517
 30
0.0
 11
4.1260086525
 21
7.4214089347
 31
0.0
  0
LINE
  5
EC
330
1F
100
AcDbEntity
  8
0
  6
Continuous
 62
     7
370
    15
100
AcDbLine
 10
3.7615086499
 20
6.9566589502
 30
0.0
 11
4.1108836439
 21
6.9566589502
 31
0.0
  0
LINE
  5
ED
330
1F
100
AcDbEntity
  8
0
  6
Continuous
 62
     7
370
    15
100
AcDbLine
 10
4.1108836439
 20
7.8799089381
 30
0.0
 11
3.7615086499
 21
7.8799089381
 31
0.0
  0
LINE
  5
EE
330
1F
100
AcDbEntity
  8
0
  6
Continuous
 62
     7
370
    15
100
AcDbLine
 10
4.1108836439
 20
6.9566589502
 30
0.0
 11
4.1108836439
 21
7.8799089381
 31
0.0
  0
LINE
  5
EF
330
1F
100
AcDbEntity
  8
0
  6
Continuous
 62
     7
370
    15
100
AcDbLine
 10
3.7615086499
 20
6.9566589502
 30
0.0
 11
3.7615086499
 21
7.8799089381
 31
0.0
  0
LINE
  5
F0
330
1F
100
AcDbEntity
  8
0
  6
Continuous
 62
     7
370
    15
100
AcDbLine
 10
3.7615086499
 20
7.9111589171
 30
0.0
 11
4.1108836439
 21
7.9111589171
 31
0.0
  0
LINE
  5
F1
330
1F
100
AcDbEntity
  8
0
  6
Continuous
 62
     7
370
    15
100
AcDbLine
 10
4.1108836439
 20
7.9111589171
 30
0.0
 11
4.1108836439
 21
7.8799089381
 31
0.0
  0
LINE
  5
F2
330
1F
100
AcDbEntity
  8
0
  6
Continuous
 62
     7
370
    15
100
AcDbLine
 10
3.7615086499
 20
7.8799089381
 30
0.0
 11
3.7615086499
 21
7.9111589171
 31
0.0
  0
LINE
  5
F3
330
1F
100
AcDbEntity
  8
0
  6
Continuous
 62
     7
370
    15
100
AcDbLine
 10
3.753335561
 20
7.4214089347
 30
0.0
 11
3.753335561
 21
7.8861589192
 31
0.0
  0
LINE
  5
F4
330
1F
100
AcDbEntity
  8
0
  6
Continuous
 62
     7
370
    15
100
AcDbLine
 10
3.753335561
 20
6.9566589502
 30
0.0
 11
3.753335561
 21
7.4214089347
 31
0.0
  0
LINE
  5
F5
330
1F
100
AcDbEntity
  8
0
  6
Continuous
 62
     7
370
    15
100
AcDbLine
 10
4.1190567328
 20
7.4214089347
 30
0.0
 11
4.1190567328
 21
7.8861589192
 31
0.0
  0
LINE
  5
F6
330
1F
100
AcDbEntity
  8
0
  6
Continuous
 62
     7
370
    15
100
AcDbLine
 10
4.1190567328
 20
6.9566589502
 30
0.0
 11
4.1190567328
 21
7.4214089347
 31
0.0
  0
LWPOLYLINE
  5
F7
330
1F
100
AcDbEntity
  8
0
  6
Continuous
 62
     8
370
    15
100
AcDbPolyline
 90
        3
 70
   128
 43
0.0
 10
4.4726780628
 20
7.4369446167
 10
4.4718697554
 20
7.4393018608
 10
4.4710711647
 20
7.4451080005
  0
LWPOLYLINE
  5
F8
330
1F
100
AcDbEntity
  8
0
  6
Continuous
 62
     8
370
    15
100
AcDbPolyline
 90
        3
 70
   128
 43
0.0
 10
4.5179461331
 20
7.4451080005
 10
4.5171475424
 20
7.4393018608
 10
4.516339235
 20
7.4369446167
  0
ARC
  5
F9
330
1F
100
AcDbEntity
  8
0
  6
Continuous
 62
     8
370
    15
100
AcDbCircle
 10
3.378219742
 20
7.6042888718
 30
0.0
 40
0.0152912707064005
100
AcDbArc
 50
1.0066495228
 51
91.259375228
  0
ARC
  5
FA
330
1F
100
AcDbEntity
  8
0
  6
Continuous
 62
     8
370
    15
100
AcDbCircle
 10
3.3775936245
 20
7.6042409364
 30
0.0
 40
0.0153382548567418
100
AcDbArc
 50
88.9165008839
 51
178.817340018
  0
ARC
  5
FB
330
1F
100
AcDbEntity
  8
0
  6
Continuous
 62
     8
370
    15
100
AcDbCircle
 10
4.493653426
 20
7.1295128251
 30
0.0
 40
0.0147879006628102
100
AcDbArc
 50
182.8363261194
 51
273.31534308
  0
ARC
  5
FC
330
1F
100
AcDbEntity
  8
0
  6
Continuous
 62
     8
370
    15
100
AcDbCircle
 10
4.4952466234
 20
7.1296433878
 30
0.0
 40
0.0149119866171516
100
AcDbArc
 50
267.1632784721
 51
356.6849186503
  0
LINE
  5
FD
330
1F
100
AcDbEntity
  8
0
  6
Continuous
 62
     8
370
    15
100
AcDbLine
 10
4.5203836317
 20
7.5405746189
 30
0.0
 11
4.5203836317
 21
7.6628964967
 31
0.0
  0
LINE
  5
FE
330
1F
100
AcDbEntity
  8
0
  6
Continuous
 62
     8
370
    15
100
AcDbLine
 10
3.3520086622
 20
7.3031254311
 30
0.0
 11
3.3520086622
 21
7.1784328516
 31
0.0
  0
LINE
  5
FF
330
1F
100
AcDbEntity
  8
0
  6
Continuous
 62
     8
370
    15
100
AcDbLine
 10
3.3520086622
 20
7.5235650571
 30
0.0
 11
3.3520086622
 21
7.4009893206
 31
0.0
  0
LINE
  5
100
330
1F
100
AcDbEntity
  8
0
  6
Continuous
 62
     8
370
    15
100
AcDbLine
 10
4.5203836317
 20
7.3183190514
 30
0.0
 11
4.5203836317
 21
7.4369446167
 31
0.0
  0
ENDSEC
  0
SECTION
  2
OBJECTS
  0
DICTIONARY
  5
C
330
0
100
AcDbDictionary
281
     1
  3
ACAD_GROUP
350
D
  3
ACAD_LAYOUT
350
1A
  3
ACAD_MLINESTYLE
350
17
  3
ACAD_PLOTSETTINGS
350
19
  3
ACAD_PLOTSTYLENAME
350
E
  0
DICTIONARY
  5
D
102
{ACAD_REACTORS
330
C
102
}
330
C
100
AcDbDictionary
281
     1
  0
DICTIONARY
  5
1A
102
{ACAD_REACTORS
330
C
102
}
330
C
100
AcDbDictionary
281
     1
  3
Layout1
350
1E
  3
Layout2
350
26
  3
Model
350
22
  0
DICTIONARY
  5
17
102
{ACAD_REACTORS
330
C
102
}
330
C
100
AcDbDictionary
281
     1
  3
Standard
350
18
  0
DICTIONARY
  5
19
102
{ACAD_REACTORS
330
C
102
}
330
C
100
AcDbDictionary
281
     1
  0
ACDBDICTIONARYWDFLT
  5
E
102
{ACAD_REACTORS
330
C
102
}
330
C
100
AcDbDictionary
281
     1
  3
Normal
350
F
100
AcDbDictionaryWithDefault
340
F
  0
LAYOUT
  5
1E
102
{ACAD_REACTORS
330
1A
102
}
330
1A
100
AcDbPlotSettings
  1

  2
none_device
  4

  6

 40
0.0
 41
0.0
 42
0.0
 43
0.0
 44
0.0
 45
0.0
 46
0.0
 47
0.0
 48
0.0
 49
0.0
140
0.0
141
0.0
142
1.0
143
1.0
 70
   688
 72
     0
 73
     0
 74
     5
  7

 75
    16
147
1.0
148
0.0
149
0.0
100
AcDbLayout
  1
Layout1
 70
     1
 71
     1
 10
0.0
 20
0.0
 11
12.0
 21
9.0
 12
0.0
 22
0.0
 32
0.0
 14
1.0000000000E+20
 24
1.0000000000E+20
 34
1.0000000000E+20
 15
-1.0000000000E+20
 25
-1.0000000000E+20
 35
-1.0000000000E+20
146
0.0
 13
0.0
 23
0.0
 33
0.0
 16
1.0
 26
0.0
 36
0.0
 17
0.0
 27
1.0
 37
0.0
 76
     0
330
1B
  0
LAYOUT
  5
26
102
{ACAD_REACTORS
330
1A
102
}
330
1A
100
AcDbPlotSettings
  1

  2
none_device
  4

  6

 40
0.0
 41
0.0
 42
0.0
 43
0.0
 44
0.0
 45
0.0
 46
0.0
 47
0.0
 48
0.0
 49
0.0
140
0.0
141
0.0
142
1.0
143
1.0
 70
   688
 72
     0
 73
     0
 74
     5
  7

 75
    16
147
1.0
148
0.0
149
0.0
100
AcDbLayout
  1
Layout2
 70
     1
 71
     2
 10
0.0
 20
0.0
 11
0.0
 21
0.0
 12
0.0
 22
0.0
 32
0.0
 14
0.0
 24
0.0
 34
0.0
 15
0.0
 25
0.0
 35
0.0
146
0.0
 13
0.0
 23
0.0
 33
0.0
 16
1.0
 26
0.0
 36
0.0
 17
0.0
 27
1.0
 37
0.0
 76
     0
330
23
  0
LAYOUT
  5
22
102
{ACAD_REACTORS
330
1A
102
}
330
1A
100
AcDbPlotSettings
  1

  2
none_device
  4

  6

 40
0.0
 41
0.0
 42
0.0
 43
0.0
 44
0.0
 45
0.0
 46
0.0
 47
0.0
 48
0.0
 49
0.0
140
0.0
141
0.0
142
1.0
143
1.0
 70
  1712
 72
     0
 73
     0
 74
     0
  7

 75
     0
147
1.0
148
0.0
149
0.0
100
AcDbLayout
  1
Model
 70
     1
 71
     0
 10
0.0
 20
0.0
 11
8.5
 21
11.0
 12
0.0
 22
0.0
 32
0.0
 14
0.0
 24
0.0
 34
0.0
 15
8.5
 25
11.0
 35
0.0
146
0.0
 13
0.0
 23
0.0
 33
0.0
 16
1.0
 26
0.0
 36
0.0
 17
0.0
 27
1.0
 37
0.0
 76
     0
330
1F
331
29
  0
MLINESTYLE
  5
18
102
{ACAD_REACTORS
330
17
102
}
330
17
100
AcDbMlineStyle
  2
Standard
 70
     0
  3

 62
   256
 51
90.0
 52
90.0
 71
     2
 49
0.5
 62
   256
  6
BYLAYER
 49
-0.5
 62
   256
  6
BYLAYER
  0
ACDBPLACEHOLDER
  5
F
102
{ACAD_REACTORS
330
E
102
}
330
E
  0
ENDSEC
  0
EOF
