  0
SECTION
  2
HEADER
  9
$ACADVER
  1
AC1015
  9
$ACADMAINTVER
 70
     6
  9
$DWGCODEPAGE
  3
ANSI_1252
  9
$INSBASE
 10
0.0
 20
0.0
 30
0.0
  9
$EXTMIN
 10
0.0
 20
0.0
 30
0.0
  9
$EXTMAX
 10
8.5
 20
11.0
 30
0.0
  9
$LIMMIN
 10
0.0
 20
0.0
  9
$LIMMAX
 10
8.5
 20
11.0
  9
$ORTHOMODE
 70
     0
  9
$REGENMODE
 70
     1
  9
$FILLMODE
 70
     1
  9
$QTEXTMODE
 70
     0
  9
$MIRRTEXT
 70
     1
  9
$LTSCALE
 40
1.0
  9
$ATTMODE
 70
     1
  9
$TEXTSIZE
 40
0.125
  9
$TRACEWID
 40
0.05
  9
$TEXTSTYLE
  7
Standard
  9
$CLAYER
  8
0
  9
$CELTYPE
  6
ByLayer
  9
$CECOLOR
 62
   256
  9
$CELTSCALE
 40
1.0
  9
$DISPSILH
 70
     0
  9
$DIMSCALE
 40
1.0
  9
$DIMASZ
 40
0.13
  9
$DIMEXO
 40
0.05
  9
$DIMDLI
 40
0.38
  9
$DIMRND
 40
0.0
  9
$DIMDLE
 40
0.0
  9
$DIMEXE
 40
0.125
  9
$DIMTP
 40
0.0
  9
$DIMTM
 40
0.0
  9
$DIMTXT
 40
0.1527777778
  9
$DIMCEN
 40
0.09
  9
$DIMTSZ
 40
0.0
  9
$DIMTOL
 70
     0
  9
$DIMLIM
 70
     0
  9
$DIMTIH
 70
     1
  9
$DIMTOH
 70
     1
  9
$DIMSE1
 70
     0
  9
$DIMSE2
 70
     0
  9
$DIMTAD
 70
     1
  9
$DIMZIN
 70
     0
  9
$DIMBLK
  1

  9
$DIMASO
 70
     1
  9
$DIMSHO
 70
     1
  9
$DIMPOST
  1

  9
$DIMAPOST
  1

  9
$DIMALT
 70
     0
  9
$DIMALTD
 70
     2
  9
$DIMALTF
 40
25.4
  9
$DIMLFAC
 40
8.0
  9
$DIMTOFL
 70
     0
  9
$DIMTVP
 40
0.0
  9
$DIMTIX
 70
     0
  9
$DIMSOXD
 70
     0
  9
$DIMSAH
 70
     0
  9
$DIMBLK1
  1

  9
$DIMBLK2
  1

  9
$DIMSTYLE
  2
Standard
  9
$DIMCLRD
 70
     0
  9
$DIMCLRE
 70
     0
  9
$DIMCLRT
 70
     0
  9
$DIMTFAC
 40
1.0
  9
$DIMGAP
 40
0.06
  9
$DIMJUST
 70
     0
  9
$DIMSD1
 70
     0
  9
$DIMSD2
 70
     0
  9
$DIMTOLJ
 70
     1
  9
$DIMTZIN
 70
     0
  9
$DIMALTZ
 70
     0
  9
$DIMALTTZ
 70
     0
  9
$DIMUPT
 70
     0
  9
$DIMDEC
 70
     2
  9
$DIMTDEC
 70
     2
  9
$DIMALTU
 70
     2
  9
$DIMALTTD
 70
     2
  9
$DIMTXSTY
  7
Standard
  9
$DIMAUNIT
 70
     0
  9
$DIMADEC
 70
     2
  9
$DIMALTRND
 40
0.0
  9
$DIMAZIN
 70
     0
  9
$DIMDSEP
 70
    46
  9
$DIMATFIT
 70
     3
  9
$DIMFRAC
 70
     0
  9
$DIMLDRBLK
  1

  9
$DIMLUNIT
 70
     2
  9
$DIMLWD
 70
    -2
  9
$DIMLWE
 70
    -2
  9
$DIMTMOVE
 70
     0
  9
$LUNITS
 70
     2
  9
$LUPREC
 70
     3
  9
$SKETCHINC
 40
0.1
  9
$FILLETRAD
 40
0.5
  9
$AUNITS
 70
     0
  9
$AUPREC
 70
     2
  9
$MENU
  1
.
  9
$ELEVATION
 40
0.0
  9
$PELEVATION
 40
0.0
  9
$THICKNESS
 40
0.0
  9
$LIMCHECK
 70
     0
  9
$CHAMFERA
 40
0.5
  9
$CHAMFERB
 40
0.5
  9
$CHAMFERC
 40
1.0
  9
$CHAMFERD
 40
0.0
  9
$SKPOLY
 70
     0
  9
$TDCREATE
 40
2456051.447410359
  9
$TDUCREATE
 40
2456051.697410359
  9
$TDUPDATE
 40
2456051.447410532
  9
$TDUUPDATE
 40
2456051.697410532
  9
$TDINDWG
 40
0.0000000116
  9
$TDUSRTIMER
 40
0.0000000116
  9
$USRTIMER
 70
     1
  9
$ANGBASE
 50
0.0
  9
$ANGDIR
 70
     0
  9
$PDMODE
 70
     0
  9
$PDSIZE
 40
-1.0
  9
$PLINEWID
 40
0.0
  9
$SPLFRAME
 70
     0
  9
$SPLINETYPE
 70
     6
  9
$SPLINESEGS
 70
     8
  9
$HANDSEED
  5
154
  9
$SURFTAB1
 70
     6
  9
$SURFTAB2
 70
     6
  9
$SURFTYPE
 70
     6
  9
$SURFU
 70
     6
  9
$SURFV
 70
     6
  9
$UCSBASE
  2

  9
$UCSNAME
  2

  9
$UCSORG
 10
0.0
 20
0.0
 30
0.0
  9
$UCSXDIR
 10
1.0
 20
0.0
 30
0.0
  9
$UCSYDIR
 10
0.0
 20
1.0
 30
0.0
  9
$UCSORTHOREF
  2

  9
$UCSORTHOVIEW
 70
     0
  9
$UCSORGTOP
 10
0.0
 20
0.0
 30
0.0
  9
$UCSORGBOTTOM
 10
0.0
 20
0.0
 30
0.0
  9
$UCSORGLEFT
 10
0.0
 20
0.0
 30
0.0
  9
$UCSORGRIGHT
 10
0.0
 20
0.0
 30
0.0
  9
$UCSORGFRONT
 10
0.0
 20
0.0
 30
0.0
  9
$UCSORGBACK
 10
0.0
 20
0.0
 30
0.0
  9
$PUCSBASE
  2

  9
$PUCSNAME
  2

  9
$PUCSORG
 10
0.0
 20
0.0
 30
0.0
  9
$PUCSXDIR
 10
1.0
 20
0.0
 30
0.0
  9
$PUCSYDIR
 10
0.0
 20
1.0
 30
0.0
  9
$PUCSORTHOREF
  2

  9
$PUCSORTHOVIEW
 70
     0
  9
$PUCSORGTOP
 10
0.0
 20
0.0
 30
0.0
  9
$PUCSORGBOTTOM
 10
0.0
 20
0.0
 30
0.0
  9
$PUCSORGLEFT
 10
0.0
 20
0.0
 30
0.0
  9
$PUCSORGRIGHT
 10
0.0
 20
0.0
 30
0.0
  9
$PUCSORGFRONT
 10
0.0
 20
0.0
 30
0.0
  9
$PUCSORGBACK
 10
0.0
 20
0.0
 30
0.0
  9
$USERI1
 70
     0
  9
$USERI2
 70
     0
  9
$USERI3
 70
     0
  9
$USERI4
 70
     0
  9
$USERI5
 70
     0
  9
$USERR1
 40
0.0
  9
$USERR2
 40
0.0
  9
$USERR3
 40
0.0
  9
$USERR4
 40
0.0
  9
$USERR5
 40
0.0
  9
$WORLDVIEW
 70
     1
  9
$SHADEDGE
 70
     3
  9
$SHADEDIF
 70
    70
  9
$TILEMODE
 70
     1
  9
$MAXACTVP
 70
    64
  9
$PINSBASE
 10
0.0
 20
0.0
 30
0.0
  9
$PLIMCHECK
 70
     0
  9
$PEXTMIN
 10
1.0000000000E+20
 20
1.0000000000E+20
 30
1.0000000000E+20
  9
$PEXTMAX
 10
-1.0000000000E+20
 20
-1.0000000000E+20
 30
-1.0000000000E+20
  9
$PLIMMIN
 10
0.0
 20
0.0
  9
$PLIMMAX
 10
12.0
 20
9.0
  9
$UNITMODE
 70
     0
  9
$VISRETAIN
 70
     1
  9
$PLINEGEN
 70
     0
  9
$PSLTSCALE
 70
     1
  9
$TREEDEPTH
 70
  3020
  9
$CMLSTYLE
  2
Standard
  9
$CMLJUST
 70
     0
  9
$CMLSCALE
 40
1.0
  9
$PROXYGRAPHICS
 70
     1
  9
$MEASUREMENT
 70
     0
  9
$CELWEIGHT
370
    -1
  9
$ENDCAPS
280
     0
  9
$JOINSTYLE
280
     0
  9
$LWDISPLAY
290
     1
  9
$INSUNITS
 70
     1
  9
$HYPERLINKBASE
  1

  9
$STYLESHEET
  1

  9
$XEDIT
290
     1
  9
$CEPSNTYPE
380
     0
  9
$PSTYLEMODE
290
     1
  9
$FINGERPRINTGUID
  2
{96E32A64-D976-4E61-9866-3E153456C10B}
  9
$VERSIONGUID
  2
{FAEB1C32-E019-11D5-929B-00C0DF256EC4}
  9
$EXTNAMES
290
     1
  9
$PSVPSCALE
 40
0.0
  9
$OLESTARTUP
290
     0
  0
ENDSEC
  0
SECTION
  2
CLASSES
  0
CLASS
  1
ACDBDICTIONARYWDFLT
  2
AcDbDictionaryWithDefault
  3
ObjectDBX Classes
 90
        0
280
     0
281
     0
  0
CLASS
  1
VISUALSTYLE
  2
AcDbVisualStyle
  3
ObjectDBX Classes
 90
     4095
280
     0
281
     0
  0
CLASS
  1
MATERIAL
  2
AcDbMaterial
  3
ObjectDBX Classes
 90
     1153
280
     0
281
     0
  0
CLASS
  1
ACDBPLACEHOLDER
  2
AcDbPlaceHolder
  3
ObjectDBX Classes
 90
        0
280
     0
281
     0
  0
CLASS
  1
LAYOUT
  2
AcDbLayout
  3
ObjectDBX Classes
 90
        0
280
     0
281
     0
  0
ENDSEC
  0
SECTION
  2
TABLES
  0
TABLE
  2
VPORT
  5
8
330
0
100
AcDbSymbolTable
 70
     1
  0
VPORT
  5
29
330
8
100
AcDbSymbolTableRecord
100
AcDbViewportTableRecord
  2
*Active
 70
     0
 10
0.0
 20
0.0
 11
1.0
 21
1.0
 12
4.25
 22
5.5
 13
0.0
 23
0.0
 14
0.5
 24
0.5
 15
0.5
 25
0.5
 16
0.0
 26
0.0
 36
1.0
 17
0.0
 27
0.0
 37
0.0
 40
11.0
 41
0.7727272727
 42
50.0
 43
0.0
 44
0.0
 50
0.0
 51
0.0
 71
     0
 72
  2000
 73
     1
 74
     3
 75
     0
 76
     0
 77
     0
 78
     0
281
     0
 65
     1
110
0.0
120
0.0
130
0.0
111
1.0
121
0.0
131
0.0
112
0.0
122
1.0
132
0.0
 79
     0
146
0.0
  0
ENDTAB
  0
TABLE
  2
LTYPE
  5
5
330
0
100
AcDbSymbolTable
 70
     6
  0
LTYPE
  5
14
330
5
100
AcDbSymbolTableRecord
100
AcDbLinetypeTableRecord
  2
ByBlock
 70
     0
  3

 72
    65
 73
     0
 40
0.0
  0
LTYPE
  5
15
330
5
100
AcDbSymbolTableRecord
100
AcDbLinetypeTableRecord
  2
ByLayer
 70
     0
  3

 72
    65
 73
     0
 40
0.0
  0
LTYPE
  5
16
330
5
100
AcDbSymbolTableRecord
100
AcDbLinetypeTableRecord
  2
Continuous
 70
     0
  3
Solid line
 72
    65
 73
     0
 40
0.0
  0
LTYPE
  5
3F
330
5
100
AcDbSymbolTableRecord
100
AcDbLinetypeTableRecord
  2
HIDDEN
 70
     0
  3
Hidden __ __ __ __ __ __ __ __ __ __ __ __ __ __
 72
    65
 73
     2
 40
0.075
 49
0.05
 74
     0
 49
-0.025
 74
     0
  0
LTYPE
  5
40
330
5
100
AcDbSymbolTableRecord
100
AcDbLinetypeTableRecord
  2
PHANTOM
 70
     0
  3
Phantom ______  __  __  ______  __  __  ______
 72
    65
 73
     6
 40
0.5
 49
0.25
 74
     0
 49
-0.05
 74
     0
 49
0.05
 74
     0
 49
-0.05
 74
     0
 49
0.05
 74
     0
 49
-0.05
 74
     0
  0
LTYPE
  5
41
330
5
100
AcDbSymbolTableRecord
100
AcDbLinetypeTableRecord
  2
CENTER
 70
     0
  3
Center ____ _ ____ _ ____ _ ____ _ ____ _ ____
 72
    65
 73
     4
 40
0.4
 49
0.25
 74
     0
 49
-0.05
 74
     0
 49
0.05
 74
     0
 49
-0.05
 74
     0
  0
LTYPE
  5
42
330
5
100
AcDbSymbolTableRecord
100
AcDbLinetypeTableRecord
  2
CENTERX2
 70
     0
  3
Center (2x) ________  __  ________  __  _____
 72
    65
 73
     4
 40
0.8
 49
0.5
 74
     0
 49
-0.1
 74
     0
 49
0.1
 74
     0
 49
-0.1
 74
     0
  0
LTYPE
  5
43
330
5
100
AcDbSymbolTableRecord
100
AcDbLinetypeTableRecord
  2
DOT2
 70
     0
  3
Dot (.5x) ........................................
 72
    65
 73
     2
 40
0.025
 49
0.0
 74
     0
 49
-0.025
 74
     0
  0
ENDTAB
  0
TABLE
  2
LAYER
  5
2
330
0
100
AcDbSymbolTable
 70
     1
  0
LAYER
  5
10
330
2
100
AcDbSymbolTableRecord
100
AcDbLayerTableRecord
  2
0
 70
     0
 62
     7
  6
Continuous
370
    -3
390
F
  0
ENDTAB
  0
TABLE
  2
STYLE
  5
3
330
0
100
AcDbSymbolTable
 70
     1
  0
STYLE
  5
11
330
3
100
AcDbSymbolTableRecord
100
AcDbTextStyleTableRecord
  2
Standard
 70
     0
 40
0.0
 41
1.0
 50
0.0
 71
     0
 42
0.125
  3
txt
  4

  0
ENDTAB
  0
TABLE
  2
VIEW
  5
6
330
0
100
AcDbSymbolTable
 70
     0
  0
ENDTAB
  0
TABLE
  2
UCS
  5
7
330
0
100
AcDbSymbolTable
 70
     0
  0
ENDTAB
  0
TABLE
  2
APPID
  5
9
330
0
100
AcDbSymbolTable
 70
     1
  0
APPID
  5
12
330
9
100
AcDbSymbolTableRecord
100
AcDbRegAppTableRecord
  2
ACAD
 70
     0
  0
ENDTAB
  0
TABLE
  2
DIMSTYLE
  5
A
330
0
100
AcDbSymbolTable
 70
     1
100
AcDbDimStyleTable
  0
DIMSTYLE
105
27
330
A
100
AcDbSymbolTableRecord
100
AcDbDimStyleTableRecord
  2
Standard
 70
     0
178
     0
340
11
  0
ENDTAB
  0
TABLE
  2
BLOCK_RECORD
  5
1
330
0
100
AcDbSymbolTable
 70
     1
  0
BLOCK_RECORD
  5
1F
330
1
100
AcDbSymbolTableRecord
100
AcDbBlockTableRecord
  2
*Model_Space
340
22
  0
BLOCK_RECORD
  5
1B
330
1
100
AcDbSymbolTableRecord
100
AcDbBlockTableRecord
  2
*Paper_Space
340
1E
  0
BLOCK_RECORD
  5
23
330
1
100
AcDbSymbolTableRecord
100
AcDbBlockTableRecord
  2
*Paper_Space0
340
26
  0
ENDTAB
  0
ENDSEC
  0
SECTION
  2
BLOCKS
  0
BLOCK
  5
20
330
1F
100
AcDbEntity
  8
0
100
AcDbBlockBegin
  2
*Model_Space
 70
     0
 10
0.0
 20
0.0
 30
0.0
  3
*Model_Space
  1

  0
ENDBLK
  5
21
330
1F
100
AcDbEntity
  8
0
100
AcDbBlockEnd
  0
BLOCK
  5
1C
330
1B
100
AcDbEntity
 67
     1
  8
0
100
AcDbBlockBegin
  2
*Paper_Space
 70
     0
 10
0.0
 20
0.0
 30
0.0
  3
*Paper_Space
  1

  0
ENDBLK
  5
1D
330
1B
100
AcDbEntity
 67
     1
  8
0
100
AcDbBlockEnd
  0
BLOCK
  5
24
330
23
100
AcDbEntity
  8
0
100
AcDbBlockBegin
  2
*Paper_Space0
 70
     0
 10
0.0
 20
0.0
 30
0.0
  3
*Paper_Space0
  1

  0
ENDBLK
  5
25
330
23
100
AcDbEntity
  8
0
100
AcDbBlockEnd
  0
ENDSEC
  0
SECTION
  2
ENTITIES
  0
LINE
  5
44
330
1F
100
AcDbEntity
  8
0
  6
Continuous
 62
     7
370
    15
100
AcDbLine
 10
3.2341758682
 20
7.8335885682
 30
0.0
 11
3.2341758682
 21
7.792570042
 31
0.0
  0
LINE
  5
45
330
1F
100
AcDbEntity
  8
0
  6
Continuous
 62
     7
370
    15
100
AcDbLine
 10
4.8009259023
 20
8.134958925
 30
0.0
 11
4.8009259023
 21
8.1351579861
 31
0.0
  0
LINE
  5
46
330
1F
100
AcDbEntity
  8
0
  6
Continuous
 62
     7
370
    15
100
AcDbLine
 10
3.2639259045
 20
7.7042549956
 30
0.0
 11
3.3904259098
 21
7.7042549956
 31
0.0
  0
ARC
  5
47
330
1F
100
AcDbEntity
  8
0
  6
Continuous
 62
     7
370
    15
100
AcDbCircle
 10
3.2639258852
 20
7.7277549864
 30
0.0
 40
0.0234999999999999
100
AcDbArc
 50
180.0
 51
270.0
  0
LWPOLYLINE
  5
48
330
1F
100
AcDbEntity
  8
0
  6
Continuous
 62
     7
370
    15
100
AcDbPolyline
 90
        3
 70
   128
 43
0.0
 10
4.0174883852
 20
8.2334982617
 10
4.006489861
 20
8.2326228185
 10
3.9979581476
 20
8.2307133505
  0
LWPOLYLINE
  5
49
330
1F
100
AcDbEntity
  8
0
  6
Continuous
 62
     7
370
    15
100
AcDbPolyline
 90
        3
 70
   128
 43
0.0
 10
4.0371436228
 20
8.2307133505
 10
4.0284946221
 20
8.2326413899
 10
4.0174883852
 20
8.2334982617
  0
LINE
  5
4A
330
1F
100
AcDbEntity
  8
0
  6
Continuous
 62
     7
370
    15
100
AcDbLine
 10
4.7671758722
 20
7.8932099327
 30
0.0
 11
4.7671758722
 21
7.9117271005
 31
0.0
  0
LINE
  5
4B
330
1F
100
AcDbEntity
  8
0
  6
Continuous
 62
     7
370
    15
100
AcDbLine
 10
4.7971758989
 20
8.1348922658
 30
0.0
 11
4.7971758989
 21
8.134958925
 31
0.0
  0
LINE
  5
4C
330
1F
100
AcDbEntity
  8
0
  6
Continuous
 62
     7
370
    15
100
AcDbLine
 10
3.2379258715
 20
7.792570042
 30
0.0
 11
3.2379258715
 21
7.7891367617
 31
0.0
  0
LINE
  5
4D
330
1F
100
AcDbEntity
  8
0
  6
Continuous
 62
     7
370
    15
100
AcDbLine
 10
3.2620508662
 20
8.0240356198
 30
0.0
 11
3.2620508662
 21
8.0099772368
 31
0.0
  0
LINE
  5
4E
330
1F
100
AcDbEntity
  8
0
  6
Continuous
 62
     7
370
    15
100
AcDbLine
 10
3.389981075
 20
8.019623282
 30
0.0
 11
3.3865098084
 21
8.0136107835
 31
0.0
  0
LINE
  5
4F
330
1F
100
AcDbEntity
  8
0
  6
Continuous
 62
     7
370
    15
100
AcDbLine
 10
3.3865098084
 20
7.960760782
 30
0.0
 11
3.389981075
 21
7.9547482818
 31
0.0
  0
LINE
  5
50
330
1F
100
AcDbEntity
  8
0
  6
Continuous
 62
     7
370
    15
100
AcDbLine
 10
3.389981075
 20
7.9547482818
 30
0.0
 11
3.3904259098
 21
7.9555186588
 31
0.0
  0
LINE
  5
51
330
1F
100
AcDbEntity
  8
0
  6
Continuous
 62
     7
370
    15
100
AcDbLine
 10
3.3904259098
 20
8.0188529059
 30
0.0
 11
3.389981075
 21
8.019623282
 31
0.0
  0
LINE
  5
52
330
1F
100
AcDbEntity
  8
0
  6
Continuous
 62
     7
370
    15
100
AcDbLine
 10
3.3845508777
 20
7.9573678603
 30
0.0
 11
3.3865098084
 21
7.960760782
 31
0.0
  0
LINE
  5
53
330
1F
100
AcDbEntity
  8
0
  6
Continuous
 62
     7
370
    15
100
AcDbLine
 10
3.3865098084
 20
8.0136107835
 30
0.0
 11
3.3845508777
 21
8.0170037035
 31
0.0
  0
ARC
  5
54
330
1F
100
AcDbEntity
  8
0
  6
Continuous
 62
     7
370
    15
100
AcDbCircle
 10
3.2955508852
 20
7.9588951635
 30
0.0
 40
0.0235000000000012
100
AcDbArc
 50
180.0
 51
270.0
  0
LINE
  5
55
330
1F
100
AcDbEntity
  8
0
  6
Continuous
 62
     7
370
    15
100
AcDbLine
 10
3.2955509058
 20
7.9353951639
 30
0.0
 11
3.3845508777
 21
7.9353951639
 31
0.0
  0
ARC
  5
56
330
1F
100
AcDbEntity
  8
0
  6
Continuous
 62
     7
370
    15
100
AcDbCircle
 10
4.7336758852
 20
7.945863012
 30
0.0
 40
0.0235000000000003
100
AcDbArc
 50
0.0
 51
90.0
  0
LINE
  5
57
330
1F
100
AcDbEntity
  8
0
  6
Continuous
 62
     7
370
    15
100
AcDbLine
 10
4.7336759058
 20
7.9693630121
 30
0.0
 11
4.6446758606
 21
7.9693630121
 31
0.0
  0
LINE
  5
58
330
1F
100
AcDbEntity
  8
0
  6
Continuous
 62
     7
370
    15
100
AcDbLine
 10
3.3439258537
 20
8.1070892162
 30
0.0
 11
3.3439258537
 21
8.2789729464
 31
0.0
  0
LINE
  5
59
330
1F
100
AcDbEntity
  8
0
  6
Continuous
 62
     7
370
    15
100
AcDbLine
 10
3.2976758613
 20
8.2789729464
 30
0.0
 11
3.2976758613
 21
8.1063544338
 31
0.0
  0
SPLINE
  5
5A
330
1F
100
AcDbEntity
  8
0
  6
Continuous
 62
     7
370
    15
100
AcDbSpline
210
0.0
220
0.0
230
1.0
 70
     8
 71
     3
 72
    17
 73
    13
 74
     0
 42
0.00000001
 43
0.00000001
 12
1.0
 22
0.0
 32
0.0
 13
1.0
 23
0.0
 33
0.0
 40
0.0
 40
0.0
 40
0.0
 40
0.0
 40
0.0564641983480558
 40
0.175321947428033
 40
0.2816350155285096
 40
0.3820623768207854
 40
0.4886387573848288
 40
0.5929575959196839
 40
0.6971904731324083
 40
0.8022141450574009
 40
0.9084646144649445
 40
1.0
 40
1.0
 40
1.0
 40
1.0
 10
3.343925853662531
 20
8.278972946376493
 30
0.0
 10
3.3439374801618
 20
8.27930270243204
 30
0.0
 10
3.343973580567957
 20
8.280326598556057
 30
0.0
 10
3.34440450399391
 20
8.282202292395862
 30
0.0
 10
3.345770445649778
 20
8.285166423348883
 30
0.0
 10
3.348252584832904
 20
8.288720335611739
 30
0.0
 10
3.35207391937086
 20
8.292765251007197
 30
0.0
 10
3.35739902630016
 20
8.297134844200595
 30
0.0
 10
3.364071940578373
 20
8.301542902881323
 30
0.0
 10
3.372104998897544
 20
8.305856414102095
 30
0.0
 10
3.38085661338586
 20
8.309804177079629
 30
0.0
 10
3.387398378082926
 20
8.312096657250859
 30
0.0
 10
3.390425909823247
 20
8.313157618138915
 30
0.0
  0
SPLINE
  5
5B
330
1F
100
AcDbEntity
  8
0
  6
Continuous
 62
     7
370
    15
100
AcDbSpline
210
0.0
220
0.0
230
1.0
 70
     8
 71
     3
 72
    20
 73
    16
 74
     0
 42
0.00000001
 43
0.00000001
 12
1.0
 22
0.0
 32
0.0
 13
1.0
 23
0.0
 33
0.0
 40
0.0
 40
0.0
 40
0.0
 40
0.0
 40
0.006065759638095
 40
0.0991454746957701
 40
0.1929019632941068
 40
0.2874690755219972
 40
0.3829225489724659
 40
0.4791577452201811
 40
0.5754449444006624
 40
0.6702272005324545
 40
0.7514430591531066
 40
0.8292629549511873
 40
0.9125673965911375
 40
0.9864846715751002
 40
1.0
 40
1.0
 40
1.0
 40
1.0
 10
3.390425909823247
 20
8.361490253129524
 30
0.0
 10
3.390100578247405
 20
8.361411053001012
 30
0.0
 10
3.384782999667811
 20
8.360116518630065
 30
0.0
 10
3.375129593857477
 20
8.356951426434488
 30
0.0
 10
3.361633706526802
 20
8.351944113819535
 30
0.0
 10
3.349103499595821
 20
8.346139731196105
 30
0.0
 10
3.337542016880309
 20
8.339618042809857
 30
0.0
 10
3.327110990258112
 20
8.332334528229502
 30
0.0
 10
3.317982101460513
 20
8.324307539209366
 30
0.0
 10
3.310641742881833
 20
8.315921703918045
 30
0.0
 10
3.305072846555027
 20
8.307397596422712
 30
0.0
 10
3.301005625031727
 20
8.298662453907012
 30
0.0
 10
3.298471689035448
 20
8.289690440940788
 30
0.0
 10
3.297713093743916
 20
8.282960598918953
 30
0.0
 10
3.297680846116683
 20
8.279506829862532
 30
0.0
 10
3.297675861279723
 20
8.278972946376493
 30
0.0
  0
LINE
  5
5C
330
1F
100
AcDbEntity
  8
0
  6
Continuous
 62
     7
370
    15
100
AcDbLine
 10
4.6853008847
 20
7.8397984273
 30
0.0
 11
4.6853008847
 21
7.834911312
 31
0.0
  0
LINE
  5
5D
330
1F
100
AcDbEntity
  8
0
  6
Continuous
 62
     7
370
    15
100
AcDbLine
 10
4.731550877
 20
7.834911312
 30
0.0
 11
4.731550877
 21
7.840991666
 31
0.0
  0
SPLINE
  5
5E
330
1F
100
AcDbEntity
  8
0
  6
Continuous
 62
     7
370
    15
100
AcDbSpline
210
0.0
220
0.0
230
1.0
 70
     8
 71
     3
 72
    20
 73
    16
 74
     0
 42
0.00000001
 43
0.00000001
 12
1.0
 22
0.0
 32
0.0
 13
1.0
 23
0.0
 33
0.0
 40
0.0
 40
0.0
 40
0.0
 40
0.0
 40
0.0356978840508984
 40
0.1335668643980545
 40
0.232343596456263
 40
0.3325453428010562
 40
0.4351229202121797
 40
0.5420334097459949
 40
0.6578258633124565
 40
0.731585386849571
 40
0.7926635113693369
 40
0.8471334735827563
 40
0.897991411579978
 40
0.9472396639952638
 40
1.0
 40
1.0
 40
1.0
 40
1.0
 10
4.644675860620787
 20
7.793034988306585
 30
0.0
 10
4.646330082781307
 20
7.793199141831723
 30
0.0
 10
4.652519504728093
 20
7.793813337104508
 30
0.0
 10
4.66236379673844
 20
7.795096139298027
 30
0.0
 10
4.67413242330226
 20
7.796885201591056
 30
0.0
 10
4.68491262061658
 20
7.798924120632873
 30
0.0
 10
4.69481204329447
 20
7.80124611834588
 30
0.0
 10
4.703984855831974
 20
7.80400605745555
 30
0.0
 10
4.711388594023538
 20
7.807004307883531
 30
0.0
 10
4.717351768042557
 20
7.810371965796699
 30
0.0
 10
4.721835258398814
 20
7.813781594463713
 30
0.0
 10
4.725683395417228
 20
7.817814075080376
 30
0.0
 10
4.728795198248184
 20
7.822665198119604
 30
0.0
 10
4.731076872396216
 20
7.828438211934066
 30
0.0
 10
4.731389290047895
 20
7.832704648544319
 30
0.0
 10
4.731550877033183
 20
7.83491131204772
 30
0.0
  0
SPLINE
  5
5F
330
1F
100
AcDbEntity
  8
0
  6
Continuous
 62
     7
370
    15
100
AcDbSpline
210
0.0
220
0.0
230
1.0
 70
     8
 71
     3
 72
    11
 73
     7
 74
     0
 42
0.00000001
 43
0.00000001
 12
1.0
 22
0.0
 32
0.0
 13
1.0
 23
0.0
 33
0.0
 40
0.0
 40
0.0
 40
0.0
 40
0.0
 40
0.2230616936047197
 40
0.5154214355845241
 40
0.815402174410747
 40
1.0
 40
1.0
 40
1.0
 40
1.0
 10
4.676480673208878
 20
7.844519966881053
 30
0.0
 10
4.674593059906848
 20
7.844115142467961
 30
0.0
 10
4.670231412946143
 20
7.843179727799567
 30
0.0
 10
4.661839343987406
 20
7.841775036063446
 30
0.0
 10
4.653140021779651
 20
7.840507983914815
 30
0.0
 10
4.647010769276712
 20
7.839818366450548
 30
0.0
 10
4.644675860620787
 20
7.839555660062483
 30
0.0
  0
LINE
  5
60
330
1F
100
AcDbEntity
  8
0
  6
Continuous
 62
     7
370
    15
100
AcDbLine
 10
3.3279258785
 20
7.882226335
 30
0.0
 11
3.3279258785
 21
7.9353951639
 31
0.0
  0
LINE
  5
61
330
1F
100
AcDbEntity
  8
0
  6
Continuous
 62
     7
370
    15
100
AcDbLine
 10
3.2654259205
 20
7.9807463303
 30
0.0
 11
3.2654259205
 21
7.8847179621
 31
0.0
  0
SPLINE
  5
62
330
1F
100
AcDbEntity
  8
0
  6
Continuous
 62
     7
370
    15
100
AcDbSpline
210
0.0
220
0.0
230
1.0
 70
     8
 71
     3
 72
     9
 73
     5
 74
     0
 42
0.00000001
 43
0.00000001
 12
1.0
 22
0.0
 32
0.0
 13
1.0
 23
0.0
 33
0.0
 40
0.0
 40
0.0
 40
0.0
 40
0.0
 40
0.5529586368027296
 40
1.0
 40
1.0
 40
1.0
 40
1.0
 10
3.390425909823247
 20
8.05174577549083
 30
0.0
 10
3.388302257763786
 20
8.051608567923243
 30
0.0
 10
3.384461731695255
 20
8.051360434412969
 30
0.0
 10
3.38077558181038
 20
8.050903669537167
 30
0.0
 10
3.379127720340896
 20
8.050699476744429
 30
0.0
  0
SPLINE
  5
63
330
1F
100
AcDbEntity
  8
0
  6
Continuous
 62
     7
370
    15
100
AcDbSpline
210
0.0
220
0.0
230
1.0
 70
     8
 71
     3
 72
     9
 73
     5
 74
     0
 42
0.00000001
 43
0.00000001
 12
1.0
 22
0.0
 32
0.0
 13
1.0
 23
0.0
 33
0.0
 40
0.0
 40
0.0
 40
0.0
 40
0.0
 40
0.5113768460555101
 40
1.0
 40
1.0
 40
1.0
 40
1.0
 10
3.266794158027794
 20
7.991114329243803
 30
0.0
 10
3.266371523301169
 20
7.989381823709542
 30
0.0
 10
3.26554505896301
 20
7.985993900404793
 30
0.0
 10
3.265465026308515
 20
7.982468783839813
 30
0.0
 10
3.265425920500457
 20
7.980746330265812
 30
0.0
  0
LINE
  5
64
330
1F
100
AcDbEntity
  8
0
  6
Continuous
 62
     7
370
    15
100
AcDbLine
 10
4.0566133865
 20
8.2436103716
 30
0.0
 11
4.0566133865
 21
8.319261191
 31
0.0
  0
LINE
  5
65
330
1F
100
AcDbEntity
  8
0
  6
Continuous
 62
     7
370
    15
100
AcDbLine
 10
3.978488384
 20
8.319261191
 30
0.0
 11
3.978488384
 21
8.2436103716
 31
0.0
  0
LINE
  5
66
330
1F
100
AcDbEntity
  8
0
  6
Continuous
 62
     7
370
    15
100
AcDbLine
 10
3.4373008783
 20
8.4761857815
 30
0.0
 11
3.3904259098
 21
8.4293107763
 31
0.0
  0
LINE
  5
67
330
1F
100
AcDbEntity
  8
0
  6
Continuous
 62
     7
370
    15
100
AcDbLine
 10
3.3904259098
 20
7.4773107872
 30
0.0
 11
3.4373008783
 21
7.4304357821
 31
0.0
  0
LINE
  5
68
330
1F
100
AcDbEntity
  8
0
  6
Continuous
 62
     7
370
    15
100
AcDbLine
 10
3.4373008783
 20
7.4304357821
 30
0.0
 11
3.756550887
 21
7.4304357821
 31
0.0
  0
LINE
  5
69
330
1F
100
AcDbEntity
  8
0
  6
Continuous
 62
     7
370
    15
100
AcDbLine
 10
3.756550887
 20
8.4761857815
 30
0.0
 11
3.4373008783
 21
8.4761857815
 31
0.0
  0
ARC
  5
6A
330
1F
100
AcDbEntity
  8
0
  6
Continuous
 62
     7
370
    15
100
AcDbCircle
 10
3.7565508852
 20
8.4526857818
 30
0.0
 40
0.0235000000000003
100
AcDbArc
 50
0.0
 51
90.0
  0
ARC
  5
6B
330
1F
100
AcDbEntity
  8
0
  6
Continuous
 62
     7
370
    15
100
AcDbCircle
 10
3.7565508852
 20
7.4539357818
 30
0.0
 40
0.0234999999999999
100
AcDbArc
 50
270.0
 51
0.0
  0
LINE
  5
6C
330
1F
100
AcDbEntity
  8
0
  6
Continuous
 62
     7
370
    15
100
AcDbLine
 10
4.5978008921
 20
7.4304357821
 30
0.0
 11
4.6446758606
 21
7.4773107872
 31
0.0
  0
LINE
  5
6D
330
1F
100
AcDbEntity
  8
0
  6
Continuous
 62
     7
370
    15
100
AcDbLine
 10
4.6446758606
 20
8.4293107763
 30
0.0
 11
4.5978008921
 21
8.4761857815
 31
0.0
  0
ARC
  5
6E
330
1F
100
AcDbEntity
  8
0
  6
Continuous
 62
     7
370
    15
100
AcDbCircle
 10
4.2785508852
 20
7.4539357818
 30
0.0
 40
0.0235000000000003
100
AcDbArc
 50
180.0
 51
270.0
  0
ARC
  5
6F
330
1F
100
AcDbEntity
  8
0
  6
Continuous
 62
     7
370
    15
100
AcDbCircle
 10
4.2785508852
 20
8.4526857818
 30
0.0
 40
0.0235000000000003
100
AcDbArc
 50
90.0
 51
180.0
  0
LINE
  5
70
330
1F
100
AcDbEntity
  8
0
  6
Continuous
 62
     7
370
    15
100
AcDbLine
 10
4.5978008921
 20
8.4761857815
 30
0.0
 11
4.2785508835
 21
8.4761857815
 31
0.0
  0
LINE
  5
71
330
1F
100
AcDbEntity
  8
0
  6
Continuous
 62
     7
370
    15
100
AcDbLine
 10
4.2785508835
 20
7.4304357821
 30
0.0
 11
4.5978008921
 21
7.4304357821
 31
0.0
  0
LINE
  5
72
330
1F
100
AcDbEntity
  8
0
  6
Continuous
 62
     7
370
    15
100
AcDbLine
 10
4.2550177553
 20
7.4885607973
 30
0.0
 11
4.2550508833
 21
7.4885607973
 31
0.0
  0
LINE
  5
73
330
1F
100
AcDbEntity
  8
0
  6
Continuous
 62
     7
370
    15
100
AcDbLine
 10
4.2550508833
 20
8.4180607663
 30
0.0
 11
4.2550177553
 21
8.4180607663
 31
0.0
  0
LINE
  5
74
330
1F
100
AcDbEntity
  8
0
  6
Continuous
 62
     7
370
    15
100
AcDbLine
 10
3.7800840151
 20
8.4180607663
 30
0.0
 11
3.7800508872
 21
8.4180607663
 31
0.0
  0
LINE
  5
75
330
1F
100
AcDbEntity
  8
0
  6
Continuous
 62
     7
370
    15
100
AcDbLine
 10
3.7800508872
 20
7.4885607973
 30
0.0
 11
3.7800840151
 21
7.4885607973
 31
0.0
  0
LINE
  5
76
330
1F
100
AcDbEntity
  8
0
  6
Continuous
 62
     7
370
    15
100
AcDbLine
 10
3.7873008851
 20
8.4055607674
 30
0.0
 11
3.7800840151
 21
8.4055607674
 31
0.0
  0
LINE
  5
77
330
1F
100
AcDbEntity
  8
0
  6
Continuous
 62
     7
370
    15
100
AcDbLine
 10
3.7800840151
 20
7.5010607962
 30
0.0
 11
3.7873008851
 21
7.5010607962
 31
0.0
  0
LINE
  5
78
330
1F
100
AcDbEntity
  8
0
  6
Continuous
 62
     7
370
    15
100
AcDbLine
 10
4.2478008854
 20
7.5010607962
 30
0.0
 11
4.2550177553
 21
7.5010607962
 31
0.0
  0
LINE
  5
79
330
1F
100
AcDbEntity
  8
0
  6
Continuous
 62
     7
370
    15
100
AcDbLine
 10
4.2550177553
 20
8.4055607674
 30
0.0
 11
4.2478008854
 21
8.4055607674
 31
0.0
  0
ARC
  5
7A
330
1F
100
AcDbEntity
  8
0
  6
Continuous
 62
     7
370
    15
100
AcDbCircle
 10
3.2966758995
 20
7.7858224148
 30
0.0
 40
0.0657927532835531
100
AcDbArc
 50
67.6826806733
 51
112.3173193267
  0
ARC
  5
7B
330
1F
100
AcDbEntity
  8
0
  6
Continuous
 62
     7
370
    15
100
AcDbCircle
 10
3.2904183453
 20
7.7925704844
 30
0.0
 40
0.0562275776872744
100
AcDbArc
 50
152.4848656571
 51
207.2383902875
  0
ARC
  5
7C
330
1F
100
AcDbEntity
  8
0
  6
Continuous
 62
     7
370
    15
100
AcDbCircle
 10
3.2903094252
 20
7.8335578497
 30
0.0
 40
0.0561335654392872
100
AcDbArc
 50
159.2073049324
 51
179.968645552
  0
LINE
  5
7D
330
1F
100
AcDbEntity
  8
0
  6
Continuous
 62
     7
370
    15
100
AcDbLine
 10
3.2378317859
 20
7.8534845792
 30
0.0
 11
3.2378317859
 21
7.8227206937
 31
0.0
  0
ARC
  5
7E
330
1F
100
AcDbEntity
  8
0
  6
Continuous
 62
     7
370
    15
100
AcDbCircle
 10
3.2914983714
 20
7.8023731902
 30
0.0
 40
0.0573944534972873
100
AcDbArc
 50
151.343432748
 51
159.2359474748
  0
LINE
  5
7F
330
1F
100
AcDbEntity
  8
0
  6
Continuous
 62
     7
370
    15
100
AcDbLine
 10
3.2439711817
 20
7.8362130645
 30
0.0
 11
3.2439711817
 21
7.8653210749
 31
0.0
  0
ARC
  5
80
330
1F
100
AcDbEntity
  8
0
  6
Continuous
 62
     7
370
    15
100
AcDbCircle
 10
3.2948153059
 20
7.8306877489
 30
0.0
 40
0.0615190396132398
100
AcDbArc
 50
113.8299763105
 51
145.7386109037
  0
LINE
  5
81
330
1F
100
AcDbEntity
  8
0
  6
Continuous
 62
     7
370
    15
100
AcDbLine
 10
3.2699601415
 20
7.8869621928
 30
0.0
 11
3.2699601415
 21
7.8561983028
 31
0.0
  0
ARC
  5
82
330
1F
100
AcDbEntity
  8
0
  6
Continuous
 62
     7
370
    15
100
AcDbCircle
 10
3.2964526353
 20
7.7968165996
 30
0.0
 40
0.0650233719948671
100
AcDbArc
 50
101.7945421543
 51
114.0435140256
  0
LINE
  5
83
330
1F
100
AcDbEntity
  8
0
  6
Continuous
 62
     7
370
    15
100
AcDbLine
 10
3.2831616756
 20
7.8604671243
 30
0.0
 11
3.2831616756
 21
7.8912310144
 31
0.0
  0
ARC
  5
84
330
1F
100
AcDbEntity
  8
0
  6
Continuous
 62
     7
370
    15
100
AcDbCircle
 10
3.2966706753
 20
7.8266683568
 30
0.0
 40
0.0659608203384511
100
AcDbArc
 50
71.3736546854
 51
101.8179899674
  0
LINE
  5
85
330
1F
100
AcDbEntity
  8
0
  6
Continuous
 62
     7
370
    15
100
AcDbLine
 10
3.3177382362
 20
7.8891742581
 30
0.0
 11
3.3177382362
 21
7.8584103589
 31
0.0
  0
ARC
  5
86
330
1F
100
AcDbEntity
  8
0
  6
Continuous
 62
     7
370
    15
100
AcDbCircle
 10
3.2972397754
 20
7.7976851364
 30
0.0
 40
0.0640916495146957
100
AcDbArc
 50
58.9800332067
 51
71.3473288052
  0
LINE
  5
87
330
1F
100
AcDbEntity
  8
0
  6
Continuous
 62
     7
370
    15
100
AcDbLine
 10
3.3302685581
 20
7.8526108959
 30
0.0
 11
3.3302685581
 21
7.8833747905
 31
0.0
  0
ARC
  5
88
330
1F
100
AcDbEntity
  8
0
  6
Continuous
 62
     7
370
    15
100
AcDbCircle
 10
3.2994155216
 20
7.8316184176
 30
0.0
 40
0.0602547259413661
100
AcDbArc
 50
26.8416197574
 51
59.1999623741
  0
LINE
  5
89
330
1F
100
AcDbEntity
  8
0
  6
Continuous
 62
     7
370
    15
100
AcDbLine
 10
3.3531782868
 20
7.8588249808
 30
0.0
 11
3.3531782868
 21
7.8466869602
 31
0.0
  0
ARC
  5
8A
330
1F
100
AcDbEntity
  8
0
  6
Continuous
 62
     7
370
    15
100
AcDbCircle
 10
3.2753866342
 20
7.8927281028
 30
0.0
 40
0.0079178622282768
100
AcDbArc
 50
226.7370011015
 51
349.1010550784
  0
ARC
  5
8B
330
1F
100
AcDbEntity
  8
0
  6
Continuous
 62
     7
370
    15
100
AcDbCircle
 10
3.3255691305
 20
7.8896574457
 30
0.0
 40
0.0078457871368777
100
AcDbArc
 50
183.5308298035
 51
306.7964976884
  0
ARC
  5
8C
330
1F
100
AcDbEntity
  8
0
  6
Continuous
 62
     7
370
    15
100
AcDbCircle
 10
3.2378195154
 20
7.8614204436
 30
0.0
 40
0.0079358739519394
100
AcDbArc
 50
270.0885912599
 51
320.8206175979
  0
ARC
  5
8D
330
1F
100
AcDbEntity
  8
0
  6
Continuous
 62
     7
370
    15
100
AcDbCircle
 10
3.3586433348
 20
7.8541957072
 30
0.0
 40
0.007889533153978
100
AcDbArc
 50
226.1560992543
 51
252.1262794987
  0
LWPOLYLINE
  5
8E
330
1F
100
AcDbEntity
  8
0
  6
Continuous
 62
     7
370
    15
100
AcDbPolyline
 90
        3
 70
   128
 43
0.0
 10
4.7349711775
 20
8.1973621025
 10
4.7361247709
 20
8.1974152685
 10
4.7418806377
 20
8.1973621025
  0
ARC
  5
8F
330
1F
100
AcDbEntity
  8
0
  6
Continuous
 62
     7
370
    15
100
AcDbCircle
 10
4.7384279838
 20
8.1349589159
 30
0.0
 40
0.0624979043576964
100
AcDbArc
 50
334.1576959162
 51
25.8423040838
  0
LINE
  5
90
330
1F
100
AcDbEntity
  8
0
  6
Continuous
 62
     7
370
    15
100
AcDbLine
 10
4.7279051525
 20
8.1973621025
 30
0.0
 11
4.7317987408
 21
8.1979015913
 31
0.0
  0
LINE
  5
91
330
1F
100
AcDbEntity
  8
0
  6
Continuous
 62
     7
370
    15
100
AcDbLine
 10
4.7317987408
 20
8.1979015913
 30
0.0
 11
4.7317987408
 21
8.1973621025
 31
0.0
  0
ARC
  5
92
330
1F
100
AcDbEntity
  8
0
  6
Continuous
 62
     7
370
    15
100
AcDbCircle
 10
4.7384259631
 20
8.1351551392
 30
0.0
 40
0.0625015772147444
100
AcDbArc
 50
84.4346883838
 51
96.0866784527
  0
LINE
  5
93
330
1F
100
AcDbEntity
  8
0
  6
Continuous
 62
     7
370
    15
100
AcDbLine
 10
4.7457520796
 20
8.1973621025
 30
0.0
 11
4.7457520796
 21
8.1978230705
 31
0.0
  0
LINE
  5
94
330
1F
100
AcDbEntity
  8
0
  6
Continuous
 62
     7
370
    15
100
AcDbLine
 10
4.7457520796
 20
8.1978230705
 30
0.0
 11
4.7489465894
 21
8.1973621025
 31
0.0
  0
ARC
  5
95
330
1F
100
AcDbEntity
  8
0
  6
Continuous
 62
     7
370
    15
100
AcDbCircle
 10
4.7384257444
 20
8.1357545661
 30
0.0
 40
0.0625001946751425
100
AcDbArc
 50
6.0872170859
 51
25.8419295234
  0
LINE
  5
96
330
1F
100
AcDbEntity
  8
0
  6
Continuous
 62
     7
370
    15
100
AcDbLine
 10
4.8005735397
 20
8.142382226
 30
0.0
 11
4.8005735397
 21
8.1417850062
 31
0.0
  0
ARC
  5
97
330
1F
100
AcDbEntity
  8
0
  6
Continuous
 62
     7
370
    15
100
AcDbCircle
 10
4.7384316921
 20
8.1351580095
 30
0.0
 40
0.0624942101873493
100
AcDbArc
 50
359.9999785111
 51
6.0871907051
  0
LINE
  5
98
330
1F
100
AcDbEntity
  8
0
  6
Continuous
 62
     7
370
    15
100
AcDbLine
 10
4.7457520796
 20
8.1978230705
 30
0.0
 11
4.7454965893
 21
8.1973621025
 31
0.0
  0
LINE
  5
99
330
1F
100
AcDbEntity
  8
0
  6
Continuous
 62
     7
370
    15
100
AcDbLine
 10
4.7320938308
 20
8.1973621025
 30
0.0
 11
4.7317987408
 21
8.1979015913
 31
0.0
  0
LWPOLYLINE
  5
9A
330
1F
100
AcDbEntity
  8
0
  6
Continuous
 62
     7
370
    15
100
AcDbPolyline
 90
        9
 70
   128
 43
0.0
 10
3.2639259045
 20
7.7937243503
 10
3.2593412308
 20
7.7938725186
 10
3.2549328484
 20
7.7943113586
 10
3.2508700087
 20
7.795023967
 10
3.2473089098
 20
7.7959829909
 10
3.2443863169
 20
7.7971515624
 10
3.242214722
 20
7.7984847837
 10
3.2408774308
 20
7.7999313953
 10
3.2404258493
 20
7.8014358388
  0
ARC
  5
9B
330
1F
100
AcDbEntity
  8
0
  6
Continuous
 62
     7
370
    15
100
AcDbCircle
 10
3.2632933381
 20
7.8007660039
 30
0.0
 40
0.0228772971302194
100
AcDbArc
 50
88.4155469643
 51
178.3221708004
  0
LINE
  5
9C
330
1F
100
AcDbEntity
  8
0
  6
Continuous
 62
     7
370
    15
100
AcDbLine
 10
3.2639259045
 20
7.823634554
 30
0.0
 11
3.2639259045
 21
7.7937243503
 31
0.0
  0
LINE
  5
9D
330
1F
100
AcDbEntity
  8
0
  6
Continuous
 62
     7
370
    15
100
AcDbLine
 10
3.3904259098
 20
7.7937243503
 30
0.0
 11
3.2639259045
 21
7.7937243503
 31
0.0
  0
LINE
  5
9E
330
1F
100
AcDbEntity
  8
0
  6
Continuous
 62
     7
370
    15
100
AcDbLine
 10
3.3904259098
 20
7.823634554
 30
0.0
 11
3.2639259045
 21
7.823634554
 31
0.0
  0
LINE
  5
9F
330
1F
100
AcDbEntity
  8
0
  6
Continuous
 62
     7
370
    15
100
AcDbLine
 10
3.3904259098
 20
7.7200434982
 30
0.0
 11
3.2639259045
 21
7.7200434982
 31
0.0
  0
LINE
  5
A0
330
1F
100
AcDbEntity
  8
0
  6
Continuous
 62
     7
370
    15
100
AcDbLine
 10
3.2639259045
 20
7.7937243503
 30
0.0
 11
3.2639259045
 21
7.7200434982
 31
0.0
  0
LINE
  5
A1
330
1F
100
AcDbEntity
  8
0
  6
Continuous
 62
     7
370
    15
100
AcDbLine
 10
3.2404258493
 20
7.7277549774
 30
0.0
 11
3.2404258493
 21
7.8014358388
 31
0.0
  0
LWPOLYLINE
  5
A2
330
1F
100
AcDbEntity
  8
0
  6
Continuous
 62
     7
370
    15
100
AcDbPolyline
 90
        9
 70
   128
 43
0.0
 10
3.2639259045
 20
7.7200434982
 10
3.2593412308
 20
7.7201916848
 10
3.2549328484
 20
7.7206305064
 10
3.2508700087
 20
7.7213431148
 10
3.2473089098
 20
7.7223021388
 10
3.2443863169
 20
7.7234707103
 10
3.242214722
 20
7.7248039315
 10
3.2408774308
 20
7.7262505431
 10
3.2404258493
 20
7.7277549774
  0
LINE
  5
A3
330
1F
100
AcDbEntity
  8
0
  6
Continuous
 62
     7
370
    15
100
AcDbLine
 10
3.2639259045
 20
7.8466869602
 30
0.0
 11
3.2639259045
 21
7.823634554
 31
0.0
  0
LINE
  5
A4
330
1F
100
AcDbEntity
  8
0
  6
Continuous
 62
     7
370
    15
100
AcDbLine
 10
3.3904259098
 20
7.8466869602
 30
0.0
 11
3.2639259045
 21
7.8466869602
 31
0.0
  0
LINE
  5
A5
330
1F
100
AcDbEntity
  8
0
  6
Continuous
 62
     7
370
    15
100
AcDbLine
 10
3.2404258493
 20
7.8014358388
 30
0.0
 11
3.2404258493
 21
7.824488245
 31
0.0
  0
ARC
  5
A6
330
1F
100
AcDbEntity
  8
0
  6
Continuous
 62
     7
370
    15
100
AcDbCircle
 10
3.2632933201
 20
7.8238184291
 30
0.0
 40
0.0228772785726174
100
AcDbArc
 50
88.4155005628
 51
178.322217202
  0
LINE
  5
A7
330
1F
100
AcDbEntity
  8
0
  6
Continuous
 62
     7
370
    15
100
AcDbLine
 10
4.6446758606
 20
8.196914591
 30
0.0
 11
4.7711758659
 21
8.196914591
 31
0.0
  0
LINE
  5
A8
330
1F
100
AcDbEntity
  8
0
  6
Continuous
 62
     7
370
    15
100
AcDbLine
 10
4.7711758659
 20
8.1732653775
 30
0.0
 11
4.7711758659
 21
8.196914591
 31
0.0
  0
LINE
  5
A9
330
1F
100
AcDbEntity
  8
0
  6
Continuous
 62
     7
370
    15
100
AcDbLine
 10
4.6446758606
 20
8.1732653775
 30
0.0
 11
4.7711758659
 21
8.1732653775
 31
0.0
  0
ARC
  5
AA
330
1F
100
AcDbEntity
  8
0
  6
Continuous
 62
     7
370
    15
100
AcDbCircle
 10
4.7711760416
 20
8.1734147114
 30
0.0
 40
0.0234998795922283
100
AcDbArc
 50
0.000868121
 51
90.0004281418
  0
ARC
  5
AB
330
1F
100
AcDbEntity
  8
0
  6
Continuous
 62
     7
370
    15
100
AcDbCircle
 10
4.7770516373
 20
9.0955488068
 30
0.0
 40
0.9223021460107562
100
AcDbArc
 50
269.6349795127
 51
271.0949324461
  0
LINE
  5
AC
330
1F
100
AcDbEntity
  8
0
  6
Continuous
 62
     7
370
    15
100
AcDbLine
 10
4.7711758659
 20
8.0952669469
 30
0.0
 11
4.7711758659
 21
8.1732653775
 31
0.0
  0
LINE
  5
AD
330
1F
100
AcDbEntity
  8
0
  6
Continuous
 62
     7
370
    15
100
AcDbLine
 10
4.6446758606
 20
8.0952669469
 30
0.0
 11
4.7711758659
 21
8.0952669469
 31
0.0
  0
LINE
  5
AE
330
1F
100
AcDbEntity
  8
0
  6
Continuous
 62
     7
370
    15
100
AcDbLine
 10
4.7946759211
 20
8.1734150675
 30
0.0
 11
4.7946759211
 21
8.0954166552
 31
0.0
  0
ARC
  5
AF
330
1F
100
AcDbEntity
  8
0
  6
Continuous
 62
     7
370
    15
100
AcDbCircle
 10
4.7770499765
 20
9.0176981535
 30
0.0
 40
0.922449909802196
100
AcDbArc
 50
269.635141144
 51
271.0948602076
  0
LINE
  5
B0
330
1F
100
AcDbEntity
  8
0
  6
Continuous
 62
     7
370
    15
100
AcDbLine
 10
4.7711758659
 20
8.0719171316
 30
0.0
 11
4.7711758659
 21
8.0952669469
 31
0.0
  0
LINE
  5
B1
330
1F
100
AcDbEntity
  8
0
  6
Continuous
 62
     7
370
    15
100
AcDbLine
 10
4.6446758606
 20
8.0719171316
 30
0.0
 11
4.7711758659
 21
8.0719171316
 31
0.0
  0
ARC
  5
B2
330
1F
100
AcDbEntity
  8
0
  6
Continuous
 62
     7
370
    15
100
AcDbCircle
 10
4.7711760598
 20
8.095416993
 30
0.0
 40
0.0234998613532477
100
AcDbArc
 50
269.9995273894
 51
359.9991763477
  0
LINE
  5
B3
330
1F
100
AcDbEntity
  8
0
  6
Continuous
 62
     7
370
    15
100
AcDbLine
 10
4.6446758606
 20
8.1973621025
 30
0.0
 11
4.7711758659
 21
8.1973621025
 31
0.0
  0
LINE
  5
B4
330
1F
100
AcDbEntity
  8
0
  6
Continuous
 62
     7
370
    15
100
AcDbLine
 10
4.7711758659
 20
8.196914591
 30
0.0
 11
4.7711758659
 21
8.1973621025
 31
0.0
  0
ARC
  5
B5
330
1F
100
AcDbEntity
  8
0
  6
Continuous
 62
     7
370
    15
100
AcDbCircle
 10
4.7711760416
 20
8.1738622229
 30
0.0
 40
0.0234998795922283
100
AcDbArc
 50
0.000868121
 51
90.0004281418
  0
LINE
  5
B6
330
1F
100
AcDbEntity
  8
0
  6
Continuous
 62
     7
370
    15
100
AcDbLine
 10
4.7946759211
 20
8.173862579
 30
0.0
 11
4.7946759211
 21
8.1734150675
 31
0.0
  0
LINE
  5
B7
330
1F
100
AcDbEntity
  8
0
  6
Continuous
 62
     7
370
    15
100
AcDbLine
 10
4.0174883852
 20
8.2334982617
 30
0.0
 11
4.0176133852
 21
8.2334982617
 31
0.0
  0
ARC
  5
B8
330
1F
100
AcDbEntity
  8
0
  6
Continuous
 62
     7
370
    15
100
AcDbCircle
 10
3.7972383852
 20
8.4021398534
 30
0.0
 40
0.0156250000000001
100
AcDbArc
 50
129.494192118
 51
167.3532525666
  0
ARC
  5
B9
330
1F
100
AcDbEntity
  8
0
  6
Continuous
 62
     7
370
    15
100
AcDbCircle
 10
4.7084407882
 20
7.9118567625
 30
0.0
 40
0.0584647538188735
100
AcDbArc
 50
231.2099374297
 51
33.5316449446
  0
ARC
  5
BA
330
1F
100
AcDbEntity
  8
0
  6
Continuous
 62
     7
370
    15
100
AcDbCircle
 10
4.7084259175
 20
7.9104320794
 30
0.0
 40
0.0593968456392738
100
AcDbArc
 50
82.8188729597
 51
97.1811270404
  0
ARC
  5
BB
330
1F
100
AcDbEntity
  8
0
  6
Continuous
 62
     7
370
    15
100
AcDbCircle
 10
4.7084173894
 20
7.894345202
 30
0.0
 40
0.0592399401869787
100
AcDbArc
 50
233.9277198734
 51
278.2257142551
  0
LINE
  5
BC
330
1F
100
AcDbEntity
  8
0
  6
Continuous
 62
     7
370
    15
100
AcDbLine
 10
4.6735365939
 20
7.8464630486
 30
0.0
 11
4.6735365939
 21
7.860350929
 31
0.0
  0
ARC
  5
BD
330
1F
100
AcDbEntity
  8
0
  6
Continuous
 62
     7
370
    15
100
AcDbCircle
 10
4.7080638919
 20
7.9076574164
 30
0.0
 40
0.0585665267671186
100
AcDbArc
 50
224.9419503568
 51
233.8756427685
  0
LINE
  5
BE
330
1F
100
AcDbEntity
  8
0
  6
Continuous
 62
     7
370
    15
100
AcDbLine
 10
4.6623116636
 20
7.8662866071
 30
0.0
 11
4.6623116636
 21
7.8572104469
 31
0.0
  0
LWPOLYLINE
  5
BF
330
1F
100
AcDbEntity
  8
0
  6
Continuous
 62
     7
370
    15
100
AcDbPolyline
 90
        3
 70
   128
 43
0.0
 10
4.6623116636
 20
7.8572104469
 10
4.658985302
 20
7.8618238028
 10
4.6563640323
 20
7.8662866071
  0
LWPOLYLINE
  5
C0
330
1F
100
AcDbEntity
  8
0
  6
Continuous
 62
     7
370
    15
100
AcDbPolyline
 90
        3
 70
   128
 43
0.0
 10
4.7671758722
 20
7.8932099327
 10
4.7671695656
 20
7.8923564572
 10
4.7668061298
 20
7.8867017479
  0
LINE
  5
C1
330
1F
100
AcDbEntity
  8
0
  6
Continuous
 62
     7
370
    15
100
AcDbLine
 10
4.7668061298
 20
7.8867017479
 30
0.0
 11
4.7668061298
 21
7.9005896237
 31
0.0
  0
ARC
  5
C2
330
1F
100
AcDbEntity
  8
0
  6
Continuous
 62
     7
370
    15
100
AcDbCircle
 10
4.7095978176
 20
7.9071148077
 30
0.0
 40
0.0575792410866727
100
AcDbArc
 50
338.0609810332
 51
353.4929605088
  0
LINE
  5
C3
330
1F
100
AcDbEntity
  8
0
  6
Continuous
 62
     7
370
    15
100
AcDbLine
 10
4.763007287
 20
7.8856020769
 30
0.0
 11
4.763007287
 21
7.8717142011
 31
0.0
  0
ARC
  5
C4
330
1F
100
AcDbEntity
  8
0
  6
Continuous
 62
     7
370
    15
100
AcDbCircle
 10
4.7088689733
 20
7.893614792
 30
0.0
 40
0.058400281573008
100
AcDbArc
 50
293.2443981977
 51
337.9751735348
  0
LINE
  5
C5
330
1F
100
AcDbEntity
  8
0
  6
Continuous
 62
     7
370
    15
100
AcDbLine
 10
4.7319168795
 20
7.839954873
 30
0.0
 11
4.7319168795
 21
7.8538427442
 31
0.0
  0
ARC
  5
C6
330
1F
100
AcDbEntity
  8
0
  6
Continuous
 62
     7
370
    15
100
AcDbCircle
 10
4.7084513624
 20
7.9082500165
 30
0.0
 40
0.0592518503974975
100
AcDbArc
 50
278.1908579845
 51
293.3302351778
  0
LINE
  5
C7
330
1F
100
AcDbEntity
  8
0
  6
Continuous
 62
     7
370
    15
100
AcDbLine
 10
4.716893033
 20
7.8496025957
 30
0.0
 11
4.716893033
 21
7.8357147153
 31
0.0
  0
ARC
  5
C8
330
1F
100
AcDbEntity
  8
0
  6
Continuous
 62
     7
370
    15
100
AcDbCircle
 10
4.7084259175
 20
7.9127539626
 30
0.0
 40
0.0473847361884082
100
AcDbArc
 50
258.707336898
 51
281.292663102
  0
ARC
  5
C9
330
1F
100
AcDbEntity
  8
0
  6
Continuous
 62
     7
370
    15
100
AcDbCircle
 10
4.7243760122
 20
7.8378403961
 30
0.0
 40
0.0078317106784819
100
AcDbArc
 50
15.6636209823
 51
162.8375307496
  0
ARC
  5
CA
330
1F
100
AcDbEntity
  8
0
  6
Continuous
 62
     7
370
    15
100
AcDbCircle
 10
4.6679961845
 20
7.851775656
 30
0.0
 40
0.0078645235868224
100
AcDbArc
 50
45.2123497798
 51
136.286596354
  0
LWPOLYLINE
  5
CB
330
1F
100
AcDbEntity
  8
0
  6
Continuous
 62
     7
370
    15
100
AcDbPolyline
 90
        3
 70
   128
 43
0.0
 10
4.7634926747
 20
7.8868490912
 10
4.7637381919
 20
7.886886555
 10
4.7668061298
 20
7.8867017479
  0
ARC
  5
CC
330
1F
100
AcDbEntity
  8
0
  6
Continuous
 62
     7
370
    15
100
AcDbCircle
 10
4.7384195645
 20
8.1348922658
 30
0.0
 40
0.0587559863499585
100
AcDbArc
 50
343.2273676078
 51
16.7726323922
  0
ARC
  5
CD
330
1F
100
AcDbEntity
  8
0
  6
Continuous
 62
     7
370
    15
100
AcDbCircle
 10
3.2905648967
 20
7.7891367617
 30
0.0
 40
0.0526352128727217
100
AcDbArc
 50
162.2839222992
 51
197.7160777008
  0
LWPOLYLINE
  5
CE
330
1F
100
AcDbEntity
  8
0
  6
Continuous
 62
     7
370
    15
100
AcDbPolyline
 90
        3
 70
   128
 43
0.0
 10
3.2424683057
 20
7.8515527448
 10
3.2439182356
 20
7.8545733007
 10
3.2439711817
 20
7.8546751962
  0
LWPOLYLINE
  5
CF
330
1F
100
AcDbEntity
  8
0
  6
Continuous
 62
     7
370
    15
100
AcDbPolyline
 90
        3
 70
   128
 43
0.0
 10
3.2743625839
 20
7.8814936014
 10
3.2759418724
 20
7.8820810726
 10
3.2810031339
 20
7.8836408775
  0
ARC
  5
D0
330
1F
100
AcDbEntity
  8
0
  6
Continuous
 62
     7
370
    15
100
AcDbCircle
 10
3.3210147367
 20
7.9999452445
 30
0.0
 40
0.0626860545577552
100
AcDbArc
 50
48.6958514631
 51
143.9761051939
  0
ARC
  5
D1
330
1F
100
AcDbEntity
  8
0
  6
Continuous
 62
     7
370
    15
100
AcDbCircle
 10
3.3100769737
 20
8.0099561139
 30
0.0
 40
0.0479811363868573
100
AcDbArc
 50
145.9632553886
 51
217.5781419444
  0
LINE
  5
D2
330
1F
100
AcDbEntity
  8
0
  6
Continuous
 62
     7
370
    15
100
AcDbLine
 10
3.2624740679
 20
8.0599245018
 30
0.0
 11
3.2624740679
 21
8.0303218913
 31
0.0
  0
ARC
  5
D3
330
1F
100
AcDbEntity
  8
0
  6
Continuous
 62
     7
370
    15
100
AcDbCircle
 10
3.3090291147
 20
8.0240310128
 30
0.0
 40
0.046978248810907
100
AcDbArc
 50
170.6028135688
 51
179.9943812344
  0
LINE
  5
D4
330
1F
100
AcDbEntity
  8
0
  6
Continuous
 62
     7
370
    15
100
AcDbLine
 10
3.2626813055
 20
8.0317015045
 30
0.0
 11
3.2626813055
 21
8.0738766673
 31
0.0
  0
ARC
  5
D5
330
1F
100
AcDbEntity
  8
0
  6
Continuous
 62
     7
370
    15
100
AcDbCircle
 10
3.3136712038
 20
8.0646650785
 30
0.0
 40
0.0518152785419009
100
AcDbArc
 50
122.8798702123
 51
169.7596698967
  0
LINE
  5
D6
330
1F
100
AcDbEntity
  8
0
  6
Continuous
 62
     7
370
    15
100
AcDbLine
 10
3.2855417548
 20
8.1081801011
 30
0.0
 11
3.2855417548
 21
8.0660049474
 31
0.0
  0
ARC
  5
D7
330
1F
100
AcDbEntity
  8
0
  6
Continuous
 62
     7
370
    15
100
AcDbCircle
 10
3.3194383056
 20
8.015247521
 30
0.0
 40
0.0610351742288242
100
AcDbArc
 50
109.3902095089
 51
123.7355779746
  0
LINE
  5
D8
330
1F
100
AcDbEntity
  8
0
  6
Continuous
 62
     7
370
    15
100
AcDbLine
 10
3.2991746306
 20
8.0728207437
 30
0.0
 11
3.2991746306
 21
8.1149958973
 31
0.0
  0
ARC
  5
D9
330
1F
100
AcDbEntity
  8
0
  6
Continuous
 62
     7
370
    15
100
AcDbCircle
 10
3.3207959929
 20
8.0534855214
 30
0.0
 40
0.065199767241544
100
AcDbArc
 50
69.2754693058
 51
109.366960529
  0
LINE
  5
DA
330
1F
100
AcDbEntity
  8
0
  6
Continuous
 62
     7
370
    15
100
AcDbLine
 10
3.343868581
 20
8.1144663818
 30
0.0
 11
3.343868581
 21
8.072291219
 31
0.0
  0
ARC
  5
DB
330
1F
100
AcDbEntity
  8
0
  6
Continuous
 62
     7
370
    15
100
AcDbCircle
 10
3.3223665462
 20
8.0156424818
 30
0.0
 40
0.0605922183905607
100
AcDbArc
 50
54.7995830841
 51
69.2148522375
  0
LINE
  5
DC
330
1F
100
AcDbEntity
  8
0
  6
Continuous
 62
     7
370
    15
100
AcDbLine
 10
3.3572942192
 20
8.0651548498
 30
0.0
 11
3.3572942192
 21
8.1073300125
 31
0.0
  0
ARC
  5
DD
330
1F
100
AcDbEntity
  8
0
  6
Continuous
 62
     7
370
    15
100
AcDbCircle
 10
3.3282760617
 20
8.0648821025
 30
0.0
 40
0.0514186594183507
100
AcDbArc
 50
8.5166533986
 51
55.6427836077
  0
LINE
  5
DE
330
1F
100
AcDbEntity
  8
0
  6
Continuous
 62
     7
370
    15
100
AcDbLine
 10
3.3791277203
 20
8.0724970449
 30
0.0
 11
3.3791277203
 21
8.0470360332
 31
0.0
  0
ARC
  5
DF
330
1F
100
AcDbEntity
  8
0
  6
Continuous
 62
     7
370
    15
100
AcDbCircle
 10
3.3208008941
 20
8.0002409336
 30
0.0
 40
0.0516258528426041
100
AcDbArc
 50
65.0162530013
 51
114.9837469987
  0
ARC
  5
E0
330
1F
100
AcDbEntity
  8
0
  6
Continuous
 62
     7
370
    15
100
AcDbCircle
 10
3.292411893
 20
8.112645645
 30
0.0
 40
0.008193892982566
100
AcDbArc
 50
213.0235986309
 51
325.622853265
  0
ARC
  5
E1
330
1F
100
AcDbEntity
  8
0
  6
Continuous
 62
     7
370
    15
100
AcDbCircle
 10
3.3505240908
 20
8.1119810834
 30
0.0
 40
0.0082138358138733
100
AcDbArc
 50
216.5528690803
 51
325.5109770515
  0
LINE
  5
E2
330
1F
100
AcDbEntity
  8
0
  6
Continuous
 62
     7
370
    15
100
AcDbLine
 10
3.2626813055
 20
8.0599220544
 30
0.0
 11
3.2624740679
 21
8.0599245018
 31
0.0
  0
LWPOLYLINE
  5
E3
330
1F
100
AcDbEntity
  8
0
  6
Continuous
 62
     7
370
    15
100
AcDbPolyline
 90
        9
 70
   128
 43
0.0
 10
3.2955509058
 20
7.9923081821
 10
3.2909662321
 20
7.9925113177
 10
3.2865578497
 20
7.9931129191
 10
3.28249501
 20
7.9940898682
 10
3.2789339111
 20
7.9954046188
 10
3.2760113182
 20
7.9970066495
 10
3.2738397233
 20
7.998834393
 10
3.2725024321
 20
8.0008176105
 10
3.2720508506
 20
8.0028800867
  0
ARC
  5
E4
330
1F
100
AcDbEntity
  8
0
  6
Continuous
 62
     7
370
    15
100
AcDbCircle
 10
3.2943619605
 20
8.0015486606
 30
0.0
 40
0.0223508013071276
100
AcDbArc
 50
86.9507260207
 51
176.5848973339
  0
LINE
  5
E5
330
1F
100
AcDbEntity
  8
0
  6
Continuous
 62
     7
370
    15
100
AcDbLine
 10
3.2955509058
 20
8.0238678167
 30
0.0
 11
3.2955509058
 21
7.9923081821
 31
0.0
  0
LINE
  5
E6
330
1F
100
AcDbEntity
  8
0
  6
Continuous
 62
     7
370
    15
100
AcDbLine
 10
3.3845508777
 20
8.0238678167
 30
0.0
 11
3.3845508777
 21
7.9923081821
 31
0.0
  0
LINE
  5
E7
330
1F
100
AcDbEntity
  8
0
  6
Continuous
 62
     7
370
    15
100
AcDbLine
 10
3.3845508777
 20
7.9923081821
 30
0.0
 11
3.2955509058
 21
7.9923081821
 31
0.0
  0
LINE
  5
E8
330
1F
100
AcDbEntity
  8
0
  6
Continuous
 62
     7
370
    15
100
AcDbLine
 10
3.3845508777
 20
8.0238678167
 30
0.0
 11
3.2955509058
 21
8.0238678167
 31
0.0
  0
LINE
  5
E9
330
1F
100
AcDbEntity
  8
0
  6
Continuous
 62
     7
370
    15
100
AcDbLine
 10
3.2720508506
 20
7.9588951635
 30
0.0
 11
3.2720508506
 21
8.0028800867
 31
0.0
  0
LINE
  5
EA
330
1F
100
AcDbEntity
  8
0
  6
Continuous
 62
     7
370
    15
100
AcDbLine
 10
3.2955509058
 20
7.9923081821
 30
0.0
 11
3.2955509058
 21
7.9483232578
 31
0.0
  0
LWPOLYLINE
  5
EB
330
1F
100
AcDbEntity
  8
0
  6
Continuous
 62
     7
370
    15
100
AcDbPolyline
 90
        9
 70
   128
 43
0.0
 10
3.2955509058
 20
7.9483232578
 10
3.2909662321
 20
7.9485263942
 10
3.2865578497
 20
7.9491279965
 10
3.28249501
 20
7.9501049453
 10
3.2789339111
 20
7.9514196974
 10
3.2760113182
 20
7.9530217275
 10
3.2738397233
 20
7.9548494704
 10
3.2725024321
 20
7.956832687
 10
3.2720508506
 20
7.9588951635
  0
LINE
  5
EC
330
1F
100
AcDbEntity
  8
0
  6
Continuous
 62
     7
370
    15
100
AcDbLine
 10
3.3845508777
 20
7.9483232578
 30
0.0
 11
3.2955509058
 21
7.9483232578
 31
0.0
  0
LINE
  5
ED
330
1F
100
AcDbEntity
  8
0
  6
Continuous
 62
     7
370
    15
100
AcDbLine
 10
3.3845508777
 20
7.9923081821
 30
0.0
 11
3.3845508777
 21
7.9483232578
 31
0.0
  0
LINE
  5
EE
330
1F
100
AcDbEntity
  8
0
  6
Continuous
 62
     7
370
    15
100
AcDbLine
 10
3.389981075
 20
8.0161555491
 30
0.0
 11
3.389981075
 21
8.019623282
 31
0.0
  0
LINE
  5
EF
330
1F
100
AcDbEntity
  8
0
  6
Continuous
 62
     7
370
    15
100
AcDbLine
 10
3.389981075
 20
7.9547482818
 30
0.0
 11
3.389981075
 21
8.0161555491
 31
0.0
  0
LINE
  5
F0
330
1F
100
AcDbEntity
  8
0
  6
Continuous
 62
     7
370
    15
100
AcDbLine
 10
3.3865098084
 20
8.0107858145
 30
0.0
 11
3.3865098084
 21
8.0136107835
 31
0.0
  0
LINE
  5
F1
330
1F
100
AcDbEntity
  8
0
  6
Continuous
 62
     7
370
    15
100
AcDbLine
 10
3.3865098084
 20
7.960760782
 30
0.0
 11
3.3865098084
 21
8.0107858145
 31
0.0
  0
LINE
  5
F2
330
1F
100
AcDbEntity
  8
0
  6
Continuous
 62
     7
370
    15
100
AcDbLine
 10
3.2720508506
 20
8.0028800867
 30
0.0
 11
3.2720508506
 21
8.0260483078
 31
0.0
  0
ARC
  5
F3
330
1F
100
AcDbEntity
  8
0
  6
Continuous
 62
     7
370
    15
100
AcDbCircle
 10
3.2943619581
 20
8.0247168795
 30
0.0
 40
0.0223507990800886
100
AcDbArc
 50
86.9507196482
 51
176.5848912738
  0
LINE
  5
F4
330
1F
100
AcDbEntity
  8
0
  6
Continuous
 62
     7
370
    15
100
AcDbLine
 10
3.2955509058
 20
8.0470360332
 30
0.0
 11
3.2955509058
 21
8.0238678167
 31
0.0
  0
LINE
  5
F5
330
1F
100
AcDbEntity
  8
0
  6
Continuous
 62
     7
370
    15
100
AcDbLine
 10
3.3845508777
 20
8.0470360332
 30
0.0
 11
3.2955509058
 21
8.0470360332
 31
0.0
  0
LINE
  5
F6
330
1F
100
AcDbEntity
  8
0
  6
Continuous
 62
     7
370
    15
100
AcDbLine
 10
3.3845508777
 20
8.0470360332
 30
0.0
 11
3.3845508777
 21
8.0238678167
 31
0.0
  0
LINE
  5
F7
330
1F
100
AcDbEntity
  8
0
  6
Continuous
 62
     7
370
    15
100
AcDbLine
 10
3.3845508777
 20
7.9483232578
 30
0.0
 11
3.3845508777
 21
7.9353951639
 31
0.0
  0
ARC
  5
F8
330
1F
100
AcDbEntity
  8
0
  6
Continuous
 62
     7
370
    15
100
AcDbCircle
 10
3.3208008575
 20
7.9964652511
 30
0.0
 40
0.0522119990616307
100
AcDbArc
 50
75.5961133706
 51
104.4038866294
  0
LWPOLYLINE
  5
F9
330
1F
100
AcDbEntity
  8
0
  6
Continuous
 62
     7
370
    15
100
AcDbPolyline
 90
        3
 70
   128
 43
0.0
 10
3.3208008941
 20
8.0498616348
 10
3.3299457485
 20
8.0490572324
 10
3.3377301386
 20
8.0470360332
  0
LWPOLYLINE
  5
FA
330
1F
100
AcDbEntity
  8
0
  6
Continuous
 62
     7
370
    15
100
AcDbPolyline
 90
        3
 70
   128
 43
0.0
 10
3.3038716497
 20
8.0470360332
 10
3.3116560398
 20
8.0490572324
 10
3.3208008941
 20
8.0498616348
  0
LWPOLYLINE
  5
FB
330
1F
100
AcDbEntity
  8
0
  6
Continuous
 62
     7
370
    15
100
AcDbPolyline
 90
        9
 70
   128
 43
0.0
 10
4.7336759058
 20
7.9006376244
 10
4.7382605062
 20
7.900570736
 10
4.7426689619
 20
7.9003726329
 10
4.7467318017
 20
7.9000509325
 10
4.7502929005
 20
7.8996179958
 10
4.7532154201
 20
7.8990904648
 10
4.7553870883
 20
7.8984886068
 10
4.7567243062
 20
7.8978355489
 10
4.7571758877
 20
7.8971563984
  0
ARC
  5
FC
330
1F
100
AcDbEntity
  8
0
  6
Continuous
 62
     7
370
    15
100
AcDbCircle
 10
4.7338048581
 20
7.8972867162
 30
0.0
 40
0.0233713929524663
100
AcDbArc
 50
269.6838675301
 51
359.6805198329
  0
LINE
  5
FD
330
1F
100
AcDbEntity
  8
0
  6
Continuous
 62
     7
370
    15
100
AcDbLine
 10
4.7336759058
 20
7.873915679
 30
0.0
 11
4.7336759058
 21
7.9006376244
 31
0.0
  0
LINE
  5
FE
330
1F
100
AcDbEntity
  8
0
  6
Continuous
 62
     7
370
    15
100
AcDbLine
 10
4.6446758606
 20
7.9006376244
 30
0.0
 11
4.7336759058
 21
7.9006376244
 31
0.0
  0
LINE
  5
FF
330
1F
100
AcDbEntity
  8
0
  6
Continuous
 62
     7
370
    15
100
AcDbLine
 10
4.6446758606
 20
7.873915679
 30
0.0
 11
4.7336759058
 21
7.873915679
 31
0.0
  0
LINE
  5
100
330
1F
100
AcDbEntity
  8
0
  6
Continuous
 62
     7
370
    15
100
AcDbLine
 10
4.7571758877
 20
7.9458630119
 30
0.0
 11
4.7571758877
 21
7.8971563984
 31
0.0
  0
LINE
  5
101
330
1F
100
AcDbEntity
  8
0
  6
Continuous
 62
     7
370
    15
100
AcDbLine
 10
4.7336759058
 20
7.9006376244
 30
0.0
 11
4.7336759058
 21
7.9493442396
 31
0.0
  0
LWPOLYLINE
  5
102
330
1F
100
AcDbEntity
  8
0
  6
Continuous
 62
     7
370
    15
100
AcDbPolyline
 90
        9
 70
   128
 43
0.0
 10
4.7336759058
 20
7.9493442396
 10
4.7382605062
 20
7.9492773487
 10
4.7426689619
 20
7.949079247
 10
4.7467318017
 20
7.9487575468
 10
4.7502929005
 20
7.9483246116
 10
4.7532154201
 20
7.9477970783
 10
4.7553870883
 20
7.9471952202
 10
4.7567243062
 20
7.9465421658
 10
4.7571758877
 20
7.9458630119
  0
LINE
  5
103
330
1F
100
AcDbEntity
  8
0
  6
Continuous
 62
     7
370
    15
100
AcDbLine
 10
4.6446758606
 20
7.9493442396
 30
0.0
 11
4.7336759058
 21
7.9493442396
 31
0.0
  0
LINE
  5
104
330
1F
100
AcDbEntity
  8
0
  6
Continuous
 62
     7
370
    15
100
AcDbLine
 10
4.7571758877
 20
7.8971563984
 30
0.0
 11
4.7571758877
 21
7.889527322
 31
0.0
  0
ARC
  5
105
330
1F
100
AcDbEntity
  8
0
  6
Continuous
 62
     7
370
    15
100
AcDbCircle
 10
4.7338048606
 20
7.8896576417
 30
0.0
 40
0.02337139038096
100
AcDbArc
 50
269.6838611636
 51
359.6805149008
  0
LINE
  5
106
330
1F
100
AcDbEntity
  8
0
  6
Continuous
 62
     7
370
    15
100
AcDbLine
 10
4.7336759058
 20
7.8662866071
 30
0.0
 11
4.7336759058
 21
7.873915679
 31
0.0
  0
LINE
  5
107
330
1F
100
AcDbEntity
  8
0
  6
Continuous
 62
     7
370
    15
100
AcDbLine
 10
4.6446758606
 20
7.8662866071
 30
0.0
 11
4.7336759058
 21
7.8662866071
 31
0.0
  0
LWPOLYLINE
  5
108
330
1F
100
AcDbEntity
  8
0
  6
Continuous
 62
     7
370
    15
100
AcDbPolyline
 90
        3
 70
   128
 43
0.0
 10
4.7108464029
 20
7.8662866071
 10
4.7084259175
 20
7.8662247603
 10
4.7060054321
 20
7.8662866071
  0
CIRCLE
  5
109
330
1F
100
AcDbEntity
  8
0
  6
Continuous
 62
     7
370
    15
100
AcDbCircle
 10
4.0175508852
 20
8.2814357818
 30
0.0
 40
0.0543750000000003
  0
CIRCLE
  5
10A
330
1F
100
AcDbEntity
  8
0
  6
Continuous
 62
     7
370
    15
100
AcDbCircle
 10
4.0175508852
 20
8.2814357818
 30
0.0
 40
0.0608726291492561
  0
CIRCLE
  5
10B
330
1F
100
AcDbEntity
  8
0
  6
Continuous
 62
     7
370
    15
100
AcDbCircle
 10
4.0175508852
 20
8.2814357818
 30
0.0
 40
0.0685578333233918
  0
CIRCLE
  5
10C
330
1F
100
AcDbEntity
  8
0
  6
Continuous
 62
     7
370
    15
100
AcDbCircle
 10
4.0175508852
 20
8.2814357818
 30
0.0
 40
0.0703124999999996
  0
CIRCLE
  5
10D
330
1F
100
AcDbEntity
  8
0
  6
Continuous
 62
     7
370
    15
100
AcDbCircle
 10
4.0175508852
 20
8.2814357818
 30
0.0
 40
0.074062500000001
  0
CIRCLE
  5
10E
330
1F
100
AcDbEntity
  8
0
  6
Continuous
 62
     7
370
    15
100
AcDbCircle
 10
4.0175508852
 20
8.2814357818
 30
0.0
 40
0.0794312500000007
  0
CIRCLE
  5
10F
330
1F
100
AcDbEntity
  8
0
  6
Continuous
 62
     7
370
    15
100
AcDbCircle
 10
4.0175508852
 20
8.2814357818
 30
0.0
 40
0.08984375
  0
LINE
  5
110
330
1F
100
AcDbEntity
  8
0
  6
Continuous
 62
     7
370
    15
100
AcDbLine
 10
4.0175508852
 20
8.3904106424
 30
0.0
 11
4.1119258808
 21
8.3359232118
 31
0.0
  0
LINE
  5
111
330
1F
100
AcDbEntity
  8
0
  6
Continuous
 62
     7
370
    15
100
AcDbLine
 10
4.1119258808
 20
8.3359232118
 30
0.0
 11
4.1119258808
 21
8.2269483507
 31
0.0
  0
LINE
  5
112
330
1F
100
AcDbEntity
  8
0
  6
Continuous
 62
     7
370
    15
100
AcDbLine
 10
4.0175508852
 20
8.1724609201
 30
0.0
 11
3.9231758896
 21
8.2269483507
 31
0.0
  0
LINE
  5
113
330
1F
100
AcDbEntity
  8
0
  6
Continuous
 62
     7
370
    15
100
AcDbLine
 10
4.1119258808
 20
8.2269483507
 30
0.0
 11
4.0175508852
 21
8.1724609201
 31
0.0
  0
LINE
  5
114
330
1F
100
AcDbEntity
  8
0
  6
Continuous
 62
     7
370
    15
100
AcDbLine
 10
3.9231758896
 20
8.2269483507
 30
0.0
 11
3.9231758896
 21
8.3359232118
 31
0.0
  0
LINE
  5
115
330
1F
100
AcDbEntity
  8
0
  6
Continuous
 62
     7
370
    15
100
AcDbLine
 10
3.9231758896
 20
8.3359232118
 30
0.0
 11
4.0175508852
 21
8.3904106424
 31
0.0
  0
LWPOLYLINE
  5
116
330
1F
100
AcDbEntity
  8
0
  6
Continuous
 62
     7
370
    15
100
AcDbPolyline
 90
        3
 70
   128
 43
0.0
 10
4.1129883861
 20
8.2814357813
 10
4.1120994772
 20
8.2944311778
 10
4.1119258808
 20
8.2956370572
  0
ARC
  5
117
330
1F
100
AcDbEntity
  8
0
  6
Continuous
 62
     7
370
    15
100
AcDbCircle
 10
4.0175508852
 20
8.2814357818
 30
0.0
 40
0.0954375000000012
100
AcDbArc
 50
51.442511743
 51
68.557488257
  0
ARC
  5
118
330
1F
100
AcDbEntity
  8
0
  6
Continuous
 62
     7
370
    15
100
AcDbCircle
 10
4.0175508852
 20
8.2814357818
 30
0.0
 40
0.0954375000000013
100
AcDbArc
 50
111.442511743
 51
128.557488257
  0
ARC
  5
119
330
1F
100
AcDbEntity
  8
0
  6
Continuous
 62
     7
370
    15
100
AcDbCircle
 10
4.0175508852
 20
8.2814357818
 30
0.0
 40
0.0954374999999993
100
AcDbArc
 50
171.4425117431
 51
188.5574882569
  0
ARC
  5
11A
330
1F
100
AcDbEntity
  8
0
  6
Continuous
 62
     7
370
    15
100
AcDbCircle
 10
4.0175508852
 20
8.2814357818
 30
0.0
 40
0.0954374999999988
100
AcDbArc
 50
231.4425117431
 51
248.5574882569
  0
ARC
  5
11B
330
1F
100
AcDbEntity
  8
0
  6
Continuous
 62
     7
370
    15
100
AcDbCircle
 10
4.0175508852
 20
8.2814357818
 30
0.0
 40
0.0954374999999999
100
AcDbArc
 50
291.4425117431
 51
308.5574882569
  0
LWPOLYLINE
  5
11C
330
1F
100
AcDbEntity
  8
0
  6
Continuous
 62
     7
370
    15
100
AcDbPolyline
 90
        3
 70
   128
 43
0.0
 10
4.1119258808
 20
8.2672345053
 10
4.1120994772
 20
8.2684403847
 10
4.1129883861
 20
8.2814357813
  0
CIRCLE
  5
11D
330
1F
100
AcDbEntity
  8
0
  6
Continuous
 62
     7
370
    15
100
AcDbCircle
 10
4.0175508852
 20
7.6251857818
 30
0.0
 40
0.0608726291492561
  0
CIRCLE
  5
11E
330
1F
100
AcDbEntity
  8
0
  6
Continuous
 62
     7
370
    15
100
AcDbCircle
 10
4.0175508852
 20
7.6251857818
 30
0.0
 40
0.0685578333233918
  0
CIRCLE
  5
11F
330
1F
100
AcDbEntity
  8
0
  6
Continuous
 62
     7
370
    15
100
AcDbCircle
 10
4.0175508852
 20
7.6251857818
 30
0.0
 40
0.0543750000000003
  0
CIRCLE
  5
120
330
1F
100
AcDbEntity
  8
0
  6
Continuous
 62
     7
370
    15
100
AcDbCircle
 10
4.0175508852
 20
7.6251857818
 30
0.0
 40
0.0703124999999996
  0
CIRCLE
  5
121
330
1F
100
AcDbEntity
  8
0
  6
Continuous
 62
     7
370
    15
100
AcDbCircle
 10
4.0175508852
 20
7.6251857818
 30
0.0
 40
0.074062500000001
  0
CIRCLE
  5
122
330
1F
100
AcDbEntity
  8
0
  6
Continuous
 62
     7
370
    15
100
AcDbCircle
 10
4.0175508852
 20
7.6251857818
 30
0.0
 40
0.0794312500000007
  0
CIRCLE
  5
123
330
1F
100
AcDbEntity
  8
0
  6
Continuous
 62
     7
370
    15
100
AcDbCircle
 10
4.0175508852
 20
7.6251857818
 30
0.0
 40
0.08984375
  0
LINE
  5
124
330
1F
100
AcDbEntity
  8
0
  6
Continuous
 62
     7
370
    15
100
AcDbLine
 10
4.0175508852
 20
7.7341606434
 30
0.0
 11
4.1119258808
 21
7.6796732129
 31
0.0
  0
LINE
  5
125
330
1F
100
AcDbEntity
  8
0
  6
Continuous
 62
     7
370
    15
100
AcDbLine
 10
4.1119258808
 20
7.6796732129
 30
0.0
 11
4.1119258808
 21
7.5706983518
 31
0.0
  0
LINE
  5
126
330
1F
100
AcDbEntity
  8
0
  6
Continuous
 62
     7
370
    15
100
AcDbLine
 10
4.1119258808
 20
7.5706983518
 30
0.0
 11
4.0175508852
 21
7.5162109212
 31
0.0
  0
LINE
  5
127
330
1F
100
AcDbEntity
  8
0
  6
Continuous
 62
     7
370
    15
100
AcDbLine
 10
4.0175508852
 20
7.5162109212
 30
0.0
 11
3.9231758896
 21
7.5706983518
 31
0.0
  0
LINE
  5
128
330
1F
100
AcDbEntity
  8
0
  6
Continuous
 62
     7
370
    15
100
AcDbLine
 10
3.9231758896
 20
7.5706983518
 30
0.0
 11
3.9231758896
 21
7.6796732129
 31
0.0
  0
LINE
  5
129
330
1F
100
AcDbEntity
  8
0
  6
Continuous
 62
     7
370
    15
100
AcDbLine
 10
3.9231758896
 20
7.6796732129
 30
0.0
 11
4.0175508852
 21
7.7341606434
 31
0.0
  0
LWPOLYLINE
  5
12A
330
1F
100
AcDbEntity
  8
0
  6
Continuous
 62
     7
370
    15
100
AcDbPolyline
 90
        3
 70
   128
 43
0.0
 10
4.1129883861
 20
7.6251857823
 10
4.1120994772
 20
7.6381811789
 10
4.1119258808
 20
7.6393870583
  0
ARC
  5
12B
330
1F
100
AcDbEntity
  8
0
  6
Continuous
 62
     7
370
    15
100
AcDbCircle
 10
4.0175508852
 20
7.6251857818
 30
0.0
 40
0.0954375000000003
100
AcDbArc
 50
51.442511743
 51
68.557488257
  0
ARC
  5
12C
330
1F
100
AcDbEntity
  8
0
  6
Continuous
 62
     7
370
    15
100
AcDbCircle
 10
4.0175508852
 20
7.6251857818
 30
0.0
 40
0.0954374999999997
100
AcDbArc
 50
111.4425117431
 51
128.557488257
  0
ARC
  5
12D
330
1F
100
AcDbEntity
  8
0
  6
Continuous
 62
     7
370
    15
100
AcDbCircle
 10
4.0175508852
 20
7.6251857818
 30
0.0
 40
0.0954374999999992
100
AcDbArc
 50
171.4425117431
 51
188.557488257
  0
ARC
  5
12E
330
1F
100
AcDbEntity
  8
0
  6
Continuous
 62
     7
370
    15
100
AcDbCircle
 10
4.0175508852
 20
7.6251857818
 30
0.0
 40
0.0954374999999996
100
AcDbArc
 50
231.4425117431
 51
248.5574882569
  0
ARC
  5
12F
330
1F
100
AcDbEntity
  8
0
  6
Continuous
 62
     7
370
    15
100
AcDbCircle
 10
4.0175508852
 20
7.6251857818
 30
0.0
 40
0.0954375000000006
100
AcDbArc
 50
291.4425117431
 51
308.5574882569
  0
LWPOLYLINE
  5
130
330
1F
100
AcDbEntity
  8
0
  6
Continuous
 62
     7
370
    15
100
AcDbPolyline
 90
        3
 70
   128
 43
0.0
 10
4.1119258808
 20
7.6109845064
 10
4.1120994772
 20
7.6121903858
 10
4.1129883861
 20
7.6251857823
  0
LINE
  5
131
330
1F
100
AcDbEntity
  8
0
  6
Continuous
 62
     7
370
    15
100
AcDbLine
 10
3.9069258873
 20
7.394810787
 30
0.0
 11
3.9069258873
 21
7.4885607973
 31
0.0
  0
LINE
  5
132
330
1F
100
AcDbEntity
  8
0
  6
Continuous
 62
     7
370
    15
100
AcDbLine
 10
4.125675887
 20
7.394810787
 30
0.0
 11
4.125675887
 21
7.4885607973
 31
0.0
  0
LINE
  5
133
330
1F
100
AcDbEntity
  8
0
  6
Continuous
 62
     7
370
    15
100
AcDbLine
 10
3.9069258873
 20
7.394810787
 30
0.0
 11
4.125675887
 21
7.394810787
 31
0.0
  0
LINE
  5
134
330
1F
100
AcDbEntity
  8
0
  6
Continuous
 62
     7
370
    15
100
AcDbLine
 10
4.0175508852
 20
8.2394357731
 30
0.0
 11
4.0520855157
 21
8.2394357731
 31
0.0
  0
LINE
  5
135
330
1F
100
AcDbEntity
  8
0
  6
Continuous
 62
     7
370
    15
100
AcDbLine
 10
3.9830162548
 20
8.2394357731
 30
0.0
 11
4.0175508852
 21
8.2394357731
 31
0.0
  0
LINE
  5
136
330
1F
100
AcDbEntity
  8
0
  6
Continuous
 62
     7
370
    15
100
AcDbLine
 10
4.0175508852
 20
8.2381857842
 30
0.0
 11
3.9845951857
 21
8.2381857842
 31
0.0
  0
LINE
  5
137
330
1F
100
AcDbEntity
  8
0
  6
Continuous
 62
     7
370
    15
100
AcDbLine
 10
4.0505065847
 20
8.2381857842
 30
0.0
 11
4.0175508852
 21
8.2381857842
 31
0.0
  0
LINE
  5
138
330
1F
100
AcDbEntity
  8
0
  6
Continuous
 62
     7
370
    15
100
AcDbLine
 10
3.3904259098
 20
7.4773107872
 30
0.0
 11
3.3904259098
 21
8.4293107763
 31
0.0
  0
LINE
  5
139
330
1F
100
AcDbEntity
  8
0
  6
Continuous
 62
     7
370
    15
100
AcDbLine
 10
3.4373008783
 20
8.4761857815
 30
0.0
 11
3.4373008783
 21
7.4304357821
 31
0.0
  0
LINE
  5
13A
330
1F
100
AcDbEntity
  8
0
  6
Continuous
 62
     7
370
    15
100
AcDbLine
 10
3.7800508872
 20
7.9533107818
 30
0.0
 11
3.7800508872
 21
7.4539357639
 31
0.0
  0
LINE
  5
13B
330
1F
100
AcDbEntity
  8
0
  6
Continuous
 62
     7
370
    15
100
AcDbLine
 10
3.7800508872
 20
8.4526857996
 30
0.0
 11
3.7800508872
 21
7.9533107818
 31
0.0
  0
LINE
  5
13C
330
1F
100
AcDbEntity
  8
0
  6
Continuous
 62
     7
370
    15
100
AcDbLine
 10
4.6446758606
 20
8.4293107763
 30
0.0
 11
4.6446758606
 21
7.4773107872
 31
0.0
  0
LINE
  5
13D
330
1F
100
AcDbEntity
  8
0
  6
Continuous
 62
     7
370
    15
100
AcDbLine
 10
4.5978008921
 20
7.4304357821
 30
0.0
 11
4.5978008921
 21
8.4761857815
 31
0.0
  0
LINE
  5
13E
330
1F
100
AcDbEntity
  8
0
  6
Continuous
 62
     7
370
    15
100
AcDbLine
 10
4.2550508833
 20
7.9533107818
 30
0.0
 11
4.2550508833
 21
8.4526857996
 31
0.0
  0
LINE
  5
13F
330
1F
100
AcDbEntity
  8
0
  6
Continuous
 62
     7
370
    15
100
AcDbLine
 10
4.2550508833
 20
7.4539357639
 30
0.0
 11
4.2550508833
 21
7.9533107818
 31
0.0
  0
LINE
  5
140
330
1F
100
AcDbEntity
  8
0
  6
Continuous
 62
     7
370
    15
100
AcDbLine
 10
4.2478008854
 20
8.4118107852
 30
0.0
 11
3.7873008851
 21
8.4118107852
 31
0.0
  0
LINE
  5
141
330
1F
100
AcDbEntity
  8
0
  6
Continuous
 62
     7
370
    15
100
AcDbLine
 10
3.7873008851
 20
7.4885607973
 30
0.0
 11
4.2478008854
 21
7.4885607973
 31
0.0
  0
LINE
  5
142
330
1F
100
AcDbEntity
  8
0
  6
Continuous
 62
     7
370
    15
100
AcDbLine
 10
3.7873008851
 20
7.4885607973
 30
0.0
 11
3.7873008851
 21
8.4118107852
 31
0.0
  0
LINE
  5
143
330
1F
100
AcDbEntity
  8
0
  6
Continuous
 62
     7
370
    15
100
AcDbLine
 10
4.2478008854
 20
7.4885607973
 30
0.0
 11
4.2478008854
 21
8.4118107852
 31
0.0
  0
LINE
  5
144
330
1F
100
AcDbEntity
  8
0
  6
Continuous
 62
     7
370
    15
100
AcDbLine
 10
3.7873008851
 20
8.4430607642
 30
0.0
 11
4.2478008854
 21
8.4430607642
 31
0.0
  0
LINE
  5
145
330
1F
100
AcDbEntity
  8
0
  6
Continuous
 62
     7
370
    15
100
AcDbLine
 10
3.7873008851
 20
8.4118107852
 30
0.0
 11
3.7873008851
 21
8.4430607642
 31
0.0
  0
LINE
  5
146
330
1F
100
AcDbEntity
  8
0
  6
Continuous
 62
     7
370
    15
100
AcDbLine
 10
4.2478008854
 20
8.4430607642
 30
0.0
 11
4.2478008854
 21
8.4118107852
 31
0.0
  0
LINE
  5
147
330
1F
100
AcDbEntity
  8
0
  6
Continuous
 62
     7
370
    15
100
AcDbLine
 10
4.2550177553
 20
8.4180607663
 30
0.0
 11
4.2550177553
 21
7.4885607973
 31
0.0
  0
LINE
  5
148
330
1F
100
AcDbEntity
  8
0
  6
Continuous
 62
     7
370
    15
100
AcDbLine
 10
3.7800840151
 20
8.4180607663
 30
0.0
 11
3.7800840151
 21
7.4885607973
 31
0.0
  0
LINE
  5
149
330
1F
100
AcDbEntity
  8
0
  6
Continuous
 62
     8
370
    15
100
AcDbLine
 10
3.2639259045
 20
7.7200434982
 30
0.0
 11
3.2639259045
 21
7.7042549956
 31
0.0
  0
LINE
  5
14A
330
1F
100
AcDbEntity
  8
0
  6
Continuous
 62
     8
370
    15
100
AcDbLine
 10
3.2955509058
 20
7.9483232578
 30
0.0
 11
3.2955509058
 21
7.9353951639
 31
0.0
  0
LINE
  5
14B
330
1F
100
AcDbEntity
  8
0
  6
Continuous
 62
     8
370
    15
100
AcDbLine
 10
4.7336759058
 20
7.9493442396
 30
0.0
 11
4.7336759058
 21
7.9693630121
 31
0.0
  0
ARC
  5
14C
330
1F
100
AcDbEntity
  8
0
  6
Continuous
 62
     8
370
    15
100
AcDbCircle
 10
3.3220765815
 20
8.2777812274
 30
0.0
 40
0.0218817477951264
100
AcDbArc
 50
3.1219748959
 51
93.3421905724
  0
ARC
  5
14D
330
1F
100
AcDbEntity
  8
0
  6
Continuous
 62
     8
370
    15
100
AcDbCircle
 10
3.3195253323
 20
8.2777810092
 30
0.0
 40
0.0218819583144342
100
AcDbArc
 50
86.6581710416
 51
176.8774829526
  0
ARC
  5
14E
330
1F
100
AcDbEntity
  8
0
  6
Continuous
 62
     8
370
    15
100
AcDbCircle
 10
4.7084258808
 20
7.8351088385
 30
0.0
 40
0.0231258397802977
100
AcDbArc
 50
180.4893905972
 51
359.5106094028
  0
LWPOLYLINE
  5
14F
330
1F
100
AcDbEntity
  8
0
  6
Continuous
 62
     8
370
    15
100
AcDbPolyline
 90
        3
 70
   128
 43
0.0
 10
3.2667820582
 20
7.9893482744
 10
3.2656537645
 20
7.984304521
 10
3.2654259205
 20
7.9807463303
  0
LINE
  5
150
330
1F
100
AcDbEntity
  8
0
  6
Continuous
 62
     8
370
    15
100
AcDbLine
 10
3.756550887
 20
7.9533107818
 30
0.0
 11
3.756550887
 21
8.4761857815
 31
0.0
  0
LINE
  5
151
330
1F
100
AcDbEntity
  8
0
  6
Continuous
 62
     8
370
    15
100
AcDbLine
 10
3.756550887
 20
7.4304357821
 30
0.0
 11
3.756550887
 21
7.9533107818
 31
0.0
  0
LINE
  5
152
330
1F
100
AcDbEntity
  8
0
  6
Continuous
 62
     8
370
    15
100
AcDbLine
 10
4.2785508835
 20
7.9533107818
 30
0.0
 11
4.2785508835
 21
7.4304357821
 31
0.0
  0
LINE
  5
153
330
1F
100
AcDbEntity
  8
0
  6
Continuous
 62
     8
370
    15
100
AcDbLine
 10
4.2785508835
 20
8.4761857815
 30
0.0
 11
4.2785508835
 21
7.9533107818
 31
0.0
  0
ENDSEC
  0
SECTION
  2
OBJECTS
  0
DICTIONARY
  5
C
330
0
100
AcDbDictionary
281
     1
  3
ACAD_GROUP
350
D
  3
ACAD_LAYOUT
350
1A
  3
ACAD_MLINESTYLE
350
17
  3
ACAD_PLOTSETTINGS
350
19
  3
ACAD_PLOTSTYLENAME
350
E
  0
DICTIONARY
  5
D
102
{ACAD_REACTORS
330
C
102
}
330
C
100
AcDbDictionary
281
     1
  0
DICTIONARY
  5
1A
102
{ACAD_REACTORS
330
C
102
}
330
C
100
AcDbDictionary
281
     1
  3
Layout1
350
1E
  3
Layout2
350
26
  3
Model
350
22
  0
DICTIONARY
  5
17
102
{ACAD_REACTORS
330
C
102
}
330
C
100
AcDbDictionary
281
     1
  3
Standard
350
18
  0
DICTIONARY
  5
19
102
{ACAD_REACTORS
330
C
102
}
330
C
100
AcDbDictionary
281
     1
  0
ACDBDICTIONARYWDFLT
  5
E
102
{ACAD_REACTORS
330
C
102
}
330
C
100
AcDbDictionary
281
     1
  3
Normal
350
F
100
AcDbDictionaryWithDefault
340
F
  0
LAYOUT
  5
1E
102
{ACAD_REACTORS
330
1A
102
}
330
1A
100
AcDbPlotSettings
  1

  2
none_device
  4

  6

 40
0.0
 41
0.0
 42
0.0
 43
0.0
 44
0.0
 45
0.0
 46
0.0
 47
0.0
 48
0.0
 49
0.0
140
0.0
141
0.0
142
1.0
143
1.0
 70
   688
 72
     0
 73
     0
 74
     5
  7

 75
    16
147
1.0
148
0.0
149
0.0
100
AcDbLayout
  1
Layout1
 70
     1
 71
     1
 10
0.0
 20
0.0
 11
12.0
 21
9.0
 12
0.0
 22
0.0
 32
0.0
 14
1.0000000000E+20
 24
1.0000000000E+20
 34
1.0000000000E+20
 15
-1.0000000000E+20
 25
-1.0000000000E+20
 35
-1.0000000000E+20
146
0.0
 13
0.0
 23
0.0
 33
0.0
 16
1.0
 26
0.0
 36
0.0
 17
0.0
 27
1.0
 37
0.0
 76
     0
330
1B
  0
LAYOUT
  5
26
102
{ACAD_REACTORS
330
1A
102
}
330
1A
100
AcDbPlotSettings
  1

  2
none_device
  4

  6

 40
0.0
 41
0.0
 42
0.0
 43
0.0
 44
0.0
 45
0.0
 46
0.0
 47
0.0
 48
0.0
 49
0.0
140
0.0
141
0.0
142
1.0
143
1.0
 70
   688
 72
     0
 73
     0
 74
     5
  7

 75
    16
147
1.0
148
0.0
149
0.0
100
AcDbLayout
  1
Layout2
 70
     1
 71
     2
 10
0.0
 20
0.0
 11
0.0
 21
0.0
 12
0.0
 22
0.0
 32
0.0
 14
0.0
 24
0.0
 34
0.0
 15
0.0
 25
0.0
 35
0.0
146
0.0
 13
0.0
 23
0.0
 33
0.0
 16
1.0
 26
0.0
 36
0.0
 17
0.0
 27
1.0
 37
0.0
 76
     0
330
23
  0
LAYOUT
  5
22
102
{ACAD_REACTORS
330
1A
102
}
330
1A
100
AcDbPlotSettings
  1

  2
none_device
  4

  6

 40
0.0
 41
0.0
 42
0.0
 43
0.0
 44
0.0
 45
0.0
 46
0.0
 47
0.0
 48
0.0
 49
0.0
140
0.0
141
0.0
142
1.0
143
1.0
 70
  1712
 72
     0
 73
     0
 74
     0
  7

 75
     0
147
1.0
148
0.0
149
0.0
100
AcDbLayout
  1
Model
 70
     1
 71
     0
 10
0.0
 20
0.0
 11
8.5
 21
11.0
 12
0.0
 22
0.0
 32
0.0
 14
0.0
 24
0.0
 34
0.0
 15
8.5
 25
11.0
 35
0.0
146
0.0
 13
0.0
 23
0.0
 33
0.0
 16
1.0
 26
0.0
 36
0.0
 17
0.0
 27
1.0
 37
0.0
 76
     0
330
1F
331
29
  0
MLINESTYLE
  5
18
102
{ACAD_REACTORS
330
17
102
}
330
17
100
AcDbMlineStyle
  2
Standard
 70
     0
  3

 62
   256
 51
90.0
 52
90.0
 71
     2
 49
0.5
 62
   256
  6
BYLAYER
 49
-0.5
 62
   256
  6
BYLAYER
  0
ACDBPLACEHOLDER
  5
F
102
{ACAD_REACTORS
330
E
102
}
330
E
  0
ENDSEC
  0
EOF
