  0
SECTION
  2
HEADER
  9
$ACADVER
  1
AC1015
  9
$ACADMAINTVER
 70
     6
  9
$DWGCODEPAGE
  3
ANSI_1252
  9
$INSBASE
 10
0.0
 20
0.0
 30
0.0
  9
$EXTMIN
 10
0.0
 20
0.0
 30
0.0
  9
$EXTMAX
 10
8.5
 20
11.0
 30
0.0
  9
$LIMMIN
 10
0.0
 20
0.0
  9
$LIMMAX
 10
8.5
 20
11.0
  9
$ORTHOMODE
 70
     0
  9
$REGENMODE
 70
     1
  9
$FILLMODE
 70
     1
  9
$QTEXTMODE
 70
     0
  9
$MIRRTEXT
 70
     1
  9
$LTSCALE
 40
1.0
  9
$ATTMODE
 70
     1
  9
$TEXTSIZE
 40
0.125
  9
$TRACEWID
 40
0.05
  9
$TEXTSTYLE
  7
Standard
  9
$CLAYER
  8
0
  9
$CELTYPE
  6
ByLayer
  9
$CECOLOR
 62
   256
  9
$CELTSCALE
 40
1.0
  9
$DISPSILH
 70
     0
  9
$DIMSCALE
 40
1.0
  9
$DIMASZ
 40
0.13
  9
$DIMEXO
 40
0.05
  9
$DIMDLI
 40
0.38
  9
$DIMRND
 40
0.0
  9
$DIMDLE
 40
0.0
  9
$DIMEXE
 40
0.125
  9
$DIMTP
 40
0.0
  9
$DIMTM
 40
0.0
  9
$DIMTXT
 40
0.1527777778
  9
$DIMCEN
 40
0.09
  9
$DIMTSZ
 40
0.0
  9
$DIMTOL
 70
     0
  9
$DIMLIM
 70
     0
  9
$DIMTIH
 70
     1
  9
$DIMTOH
 70
     1
  9
$DIMSE1
 70
     0
  9
$DIMSE2
 70
     0
  9
$DIMTAD
 70
     1
  9
$DIMZIN
 70
     0
  9
$DIMBLK
  1

  9
$DIMASO
 70
     1
  9
$DIMSHO
 70
     1
  9
$DIMPOST
  1

  9
$DIMAPOST
  1

  9
$DIMALT
 70
     0
  9
$DIMALTD
 70
     2
  9
$DIMALTF
 40
25.4
  9
$DIMLFAC
 40
8.0
  9
$DIMTOFL
 70
     0
  9
$DIMTVP
 40
0.0
  9
$DIMTIX
 70
     0
  9
$DIMSOXD
 70
     0
  9
$DIMSAH
 70
     0
  9
$DIMBLK1
  1

  9
$DIMBLK2
  1

  9
$DIMSTYLE
  2
Standard
  9
$DIMCLRD
 70
     0
  9
$DIMCLRE
 70
     0
  9
$DIMCLRT
 70
     0
  9
$DIMTFAC
 40
1.0
  9
$DIMGAP
 40
0.06
  9
$DIMJUST
 70
     0
  9
$DIMSD1
 70
     0
  9
$DIMSD2
 70
     0
  9
$DIMTOLJ
 70
     1
  9
$DIMTZIN
 70
     0
  9
$DIMALTZ
 70
     0
  9
$DIMALTTZ
 70
     0
  9
$DIMUPT
 70
     0
  9
$DIMDEC
 70
     2
  9
$DIMTDEC
 70
     2
  9
$DIMALTU
 70
     2
  9
$DIMALTTD
 70
     2
  9
$DIMTXSTY
  7
Standard
  9
$DIMAUNIT
 70
     0
  9
$DIMADEC
 70
     2
  9
$DIMALTRND
 40
0.0
  9
$DIMAZIN
 70
     0
  9
$DIMDSEP
 70
    46
  9
$DIMATFIT
 70
     3
  9
$DIMFRAC
 70
     0
  9
$DIMLDRBLK
  1

  9
$DIMLUNIT
 70
     2
  9
$DIMLWD
 70
    -2
  9
$DIMLWE
 70
    -2
  9
$DIMTMOVE
 70
     0
  9
$LUNITS
 70
     2
  9
$LUPREC
 70
     3
  9
$SKETCHINC
 40
0.1
  9
$FILLETRAD
 40
0.5
  9
$AUNITS
 70
     0
  9
$AUPREC
 70
     2
  9
$MENU
  1
.
  9
$ELEVATION
 40
0.0
  9
$PELEVATION
 40
0.0
  9
$THICKNESS
 40
0.0
  9
$LIMCHECK
 70
     0
  9
$CHAMFERA
 40
0.5
  9
$CHAMFERB
 40
0.5
  9
$CHAMFERC
 40
1.0
  9
$CHAMFERD
 40
0.0
  9
$SKPOLY
 70
     0
  9
$TDCREATE
 40
2456051.446181539
  9
$TDUCREATE
 40
2456051.696181539
  9
$TDUPDATE
 40
2456051.446181713
  9
$TDUUPDATE
 40
2456051.696181713
  9
$TDINDWG
 40
0.0000000116
  9
$TDUSRTIMER
 40
0.0000000116
  9
$USRTIMER
 70
     1
  9
$ANGBASE
 50
0.0
  9
$ANGDIR
 70
     0
  9
$PDMODE
 70
     0
  9
$PDSIZE
 40
-1.0
  9
$PLINEWID
 40
0.0
  9
$SPLFRAME
 70
     0
  9
$SPLINETYPE
 70
     6
  9
$SPLINESEGS
 70
     8
  9
$HANDSEED
  5
158
  9
$SURFTAB1
 70
     6
  9
$SURFTAB2
 70
     6
  9
$SURFTYPE
 70
     6
  9
$SURFU
 70
     6
  9
$SURFV
 70
     6
  9
$UCSBASE
  2

  9
$UCSNAME
  2

  9
$UCSORG
 10
0.0
 20
0.0
 30
0.0
  9
$UCSXDIR
 10
1.0
 20
0.0
 30
0.0
  9
$UCSYDIR
 10
0.0
 20
1.0
 30
0.0
  9
$UCSORTHOREF
  2

  9
$UCSORTHOVIEW
 70
     0
  9
$UCSORGTOP
 10
0.0
 20
0.0
 30
0.0
  9
$UCSORGBOTTOM
 10
0.0
 20
0.0
 30
0.0
  9
$UCSORGLEFT
 10
0.0
 20
0.0
 30
0.0
  9
$UCSORGRIGHT
 10
0.0
 20
0.0
 30
0.0
  9
$UCSORGFRONT
 10
0.0
 20
0.0
 30
0.0
  9
$UCSORGBACK
 10
0.0
 20
0.0
 30
0.0
  9
$PUCSBASE
  2

  9
$PUCSNAME
  2

  9
$PUCSORG
 10
0.0
 20
0.0
 30
0.0
  9
$PUCSXDIR
 10
1.0
 20
0.0
 30
0.0
  9
$PUCSYDIR
 10
0.0
 20
1.0
 30
0.0
  9
$PUCSORTHOREF
  2

  9
$PUCSORTHOVIEW
 70
     0
  9
$PUCSORGTOP
 10
0.0
 20
0.0
 30
0.0
  9
$PUCSORGBOTTOM
 10
0.0
 20
0.0
 30
0.0
  9
$PUCSORGLEFT
 10
0.0
 20
0.0
 30
0.0
  9
$PUCSORGRIGHT
 10
0.0
 20
0.0
 30
0.0
  9
$PUCSORGFRONT
 10
0.0
 20
0.0
 30
0.0
  9
$PUCSORGBACK
 10
0.0
 20
0.0
 30
0.0
  9
$USERI1
 70
     0
  9
$USERI2
 70
     0
  9
$USERI3
 70
     0
  9
$USERI4
 70
     0
  9
$USERI5
 70
     0
  9
$USERR1
 40
0.0
  9
$USERR2
 40
0.0
  9
$USERR3
 40
0.0
  9
$USERR4
 40
0.0
  9
$USERR5
 40
0.0
  9
$WORLDVIEW
 70
     1
  9
$SHADEDGE
 70
     3
  9
$SHADEDIF
 70
    70
  9
$TILEMODE
 70
     1
  9
$MAXACTVP
 70
    64
  9
$PINSBASE
 10
0.0
 20
0.0
 30
0.0
  9
$PLIMCHECK
 70
     0
  9
$PEXTMIN
 10
1.0000000000E+20
 20
1.0000000000E+20
 30
1.0000000000E+20
  9
$PEXTMAX
 10
-1.0000000000E+20
 20
-1.0000000000E+20
 30
-1.0000000000E+20
  9
$PLIMMIN
 10
0.0
 20
0.0
  9
$PLIMMAX
 10
12.0
 20
9.0
  9
$UNITMODE
 70
     0
  9
$VISRETAIN
 70
     1
  9
$PLINEGEN
 70
     0
  9
$PSLTSCALE
 70
     1
  9
$TREEDEPTH
 70
  3020
  9
$CMLSTYLE
  2
Standard
  9
$CMLJUST
 70
     0
  9
$CMLSCALE
 40
1.0
  9
$PROXYGRAPHICS
 70
     1
  9
$MEASUREMENT
 70
     0
  9
$CELWEIGHT
370
    -1
  9
$ENDCAPS
280
     0
  9
$JOINSTYLE
280
     0
  9
$LWDISPLAY
290
     1
  9
$INSUNITS
 70
     1
  9
$HYPERLINKBASE
  1

  9
$STYLESHEET
  1

  9
$XEDIT
290
     1
  9
$CEPSNTYPE
380
     0
  9
$PSTYLEMODE
290
     1
  9
$FINGERPRINTGUID
  2
{71FFAA35-7989-4E33-BA65-E6A08FFBE27F}
  9
$VERSIONGUID
  2
{FAEB1C32-E019-11D5-929B-00C0DF256EC4}
  9
$EXTNAMES
290
     1
  9
$PSVPSCALE
 40
0.0
  9
$OLESTARTUP
290
     0
  0
ENDSEC
  0
SECTION
  2
CLASSES
  0
CLASS
  1
ACDBDICTIONARYWDFLT
  2
AcDbDictionaryWithDefault
  3
ObjectDBX Classes
 90
        0
280
     0
281
     0
  0
CLASS
  1
VISUALSTYLE
  2
AcDbVisualStyle
  3
ObjectDBX Classes
 90
     4095
280
     0
281
     0
  0
CLASS
  1
MATERIAL
  2
AcDbMaterial
  3
ObjectDBX Classes
 90
     1153
280
     0
281
     0
  0
CLASS
  1
ACDBPLACEHOLDER
  2
AcDbPlaceHolder
  3
ObjectDBX Classes
 90
        0
280
     0
281
     0
  0
CLASS
  1
LAYOUT
  2
AcDbLayout
  3
ObjectDBX Classes
 90
        0
280
     0
281
     0
  0
ENDSEC
  0
SECTION
  2
TABLES
  0
TABLE
  2
VPORT
  5
8
330
0
100
AcDbSymbolTable
 70
     1
  0
VPORT
  5
29
330
8
100
AcDbSymbolTableRecord
100
AcDbViewportTableRecord
  2
*Active
 70
     0
 10
0.0
 20
0.0
 11
1.0
 21
1.0
 12
4.25
 22
5.5
 13
0.0
 23
0.0
 14
0.5
 24
0.5
 15
0.5
 25
0.5
 16
0.0
 26
0.0
 36
1.0
 17
0.0
 27
0.0
 37
0.0
 40
11.0
 41
0.7727272727
 42
50.0
 43
0.0
 44
0.0
 50
0.0
 51
0.0
 71
     0
 72
  2000
 73
     1
 74
     3
 75
     0
 76
     0
 77
     0
 78
     0
281
     0
 65
     1
110
0.0
120
0.0
130
0.0
111
1.0
121
0.0
131
0.0
112
0.0
122
1.0
132
0.0
 79
     0
146
0.0
  0
ENDTAB
  0
TABLE
  2
LTYPE
  5
5
330
0
100
AcDbSymbolTable
 70
     6
  0
LTYPE
  5
14
330
5
100
AcDbSymbolTableRecord
100
AcDbLinetypeTableRecord
  2
ByBlock
 70
     0
  3

 72
    65
 73
     0
 40
0.0
  0
LTYPE
  5
15
330
5
100
AcDbSymbolTableRecord
100
AcDbLinetypeTableRecord
  2
ByLayer
 70
     0
  3

 72
    65
 73
     0
 40
0.0
  0
LTYPE
  5
16
330
5
100
AcDbSymbolTableRecord
100
AcDbLinetypeTableRecord
  2
Continuous
 70
     0
  3
Solid line
 72
    65
 73
     0
 40
0.0
  0
LTYPE
  5
3F
330
5
100
AcDbSymbolTableRecord
100
AcDbLinetypeTableRecord
  2
HIDDEN
 70
     0
  3
Hidden __ __ __ __ __ __ __ __ __ __ __ __ __ __
 72
    65
 73
     2
 40
0.075
 49
0.05
 74
     0
 49
-0.025
 74
     0
  0
LTYPE
  5
40
330
5
100
AcDbSymbolTableRecord
100
AcDbLinetypeTableRecord
  2
PHANTOM
 70
     0
  3
Phantom ______  __  __  ______  __  __  ______
 72
    65
 73
     6
 40
0.5
 49
0.25
 74
     0
 49
-0.05
 74
     0
 49
0.05
 74
     0
 49
-0.05
 74
     0
 49
0.05
 74
     0
 49
-0.05
 74
     0
  0
LTYPE
  5
41
330
5
100
AcDbSymbolTableRecord
100
AcDbLinetypeTableRecord
  2
CENTER
 70
     0
  3
Center ____ _ ____ _ ____ _ ____ _ ____ _ ____
 72
    65
 73
     4
 40
0.4
 49
0.25
 74
     0
 49
-0.05
 74
     0
 49
0.05
 74
     0
 49
-0.05
 74
     0
  0
LTYPE
  5
42
330
5
100
AcDbSymbolTableRecord
100
AcDbLinetypeTableRecord
  2
CENTERX2
 70
     0
  3
Center (2x) ________  __  ________  __  _____
 72
    65
 73
     4
 40
0.8
 49
0.5
 74
     0
 49
-0.1
 74
     0
 49
0.1
 74
     0
 49
-0.1
 74
     0
  0
LTYPE
  5
43
330
5
100
AcDbSymbolTableRecord
100
AcDbLinetypeTableRecord
  2
DOT2
 70
     0
  3
Dot (.5x) ........................................
 72
    65
 73
     2
 40
0.025
 49
0.0
 74
     0
 49
-0.025
 74
     0
  0
ENDTAB
  0
TABLE
  2
LAYER
  5
2
330
0
100
AcDbSymbolTable
 70
     1
  0
LAYER
  5
10
330
2
100
AcDbSymbolTableRecord
100
AcDbLayerTableRecord
  2
0
 70
     0
 62
     7
  6
Continuous
370
    -3
390
F
  0
ENDTAB
  0
TABLE
  2
STYLE
  5
3
330
0
100
AcDbSymbolTable
 70
     1
  0
STYLE
  5
11
330
3
100
AcDbSymbolTableRecord
100
AcDbTextStyleTableRecord
  2
Standard
 70
     0
 40
0.0
 41
1.0
 50
0.0
 71
     0
 42
0.125
  3
txt
  4

  0
ENDTAB
  0
TABLE
  2
VIEW
  5
6
330
0
100
AcDbSymbolTable
 70
     0
  0
ENDTAB
  0
TABLE
  2
UCS
  5
7
330
0
100
AcDbSymbolTable
 70
     0
  0
ENDTAB
  0
TABLE
  2
APPID
  5
9
330
0
100
AcDbSymbolTable
 70
     1
  0
APPID
  5
12
330
9
100
AcDbSymbolTableRecord
100
AcDbRegAppTableRecord
  2
ACAD
 70
     0
  0
ENDTAB
  0
TABLE
  2
DIMSTYLE
  5
A
330
0
100
AcDbSymbolTable
 70
     1
100
AcDbDimStyleTable
  0
DIMSTYLE
105
27
330
A
100
AcDbSymbolTableRecord
100
AcDbDimStyleTableRecord
  2
Standard
 70
     0
178
     0
340
11
  0
ENDTAB
  0
TABLE
  2
BLOCK_RECORD
  5
1
330
0
100
AcDbSymbolTable
 70
     1
  0
BLOCK_RECORD
  5
1F
330
1
100
AcDbSymbolTableRecord
100
AcDbBlockTableRecord
  2
*Model_Space
340
22
  0
BLOCK_RECORD
  5
1B
330
1
100
AcDbSymbolTableRecord
100
AcDbBlockTableRecord
  2
*Paper_Space
340
1E
  0
BLOCK_RECORD
  5
23
330
1
100
AcDbSymbolTableRecord
100
AcDbBlockTableRecord
  2
*Paper_Space0
340
26
  0
ENDTAB
  0
ENDSEC
  0
SECTION
  2
BLOCKS
  0
BLOCK
  5
20
330
1F
100
AcDbEntity
  8
0
100
AcDbBlockBegin
  2
*Model_Space
 70
     0
 10
0.0
 20
0.0
 30
0.0
  3
*Model_Space
  1

  0
ENDBLK
  5
21
330
1F
100
AcDbEntity
  8
0
100
AcDbBlockEnd
  0
BLOCK
  5
1C
330
1B
100
AcDbEntity
 67
     1
  8
0
100
AcDbBlockBegin
  2
*Paper_Space
 70
     0
 10
0.0
 20
0.0
 30
0.0
  3
*Paper_Space
  1

  0
ENDBLK
  5
1D
330
1B
100
AcDbEntity
 67
     1
  8
0
100
AcDbBlockEnd
  0
BLOCK
  5
24
330
23
100
AcDbEntity
  8
0
100
AcDbBlockBegin
  2
*Paper_Space0
 70
     0
 10
0.0
 20
0.0
 30
0.0
  3
*Paper_Space0
  1

  0
ENDBLK
  5
25
330
23
100
AcDbEntity
  8
0
100
AcDbBlockEnd
  0
ENDSEC
  0
SECTION
  2
ENTITIES
  0
LINE
  5
44
330
1F
100
AcDbEntity
  8
0
  6
Continuous
 62
     7
370
    15
100
AcDbLine
 10
3.2727325692
 20
7.5609188946
 30
0.0
 11
3.2727325692
 21
7.5199003685
 31
0.0
  0
LINE
  5
45
330
1F
100
AcDbEntity
  8
0
  6
Continuous
 62
     7
370
    15
100
AcDbLine
 10
4.8394826033
 20
7.8622892515
 30
0.0
 11
4.8394826033
 21
7.8624883125
 31
0.0
  0
ARC
  5
46
330
1F
100
AcDbEntity
  8
0
  6
Continuous
 62
     7
370
    15
100
AcDbCircle
 10
3.3024825863
 20
7.4550853129
 30
0.0
 40
0.0235000000000012
100
AcDbArc
 50
180.0
 51
270.0
  0
LINE
  5
47
330
1F
100
AcDbEntity
  8
0
  6
Continuous
 62
     7
370
    15
100
AcDbLine
 10
3.3024826055
 20
7.431585322
 30
0.0
 11
3.4289826109
 21
7.431585322
 31
0.0
  0
LWPOLYLINE
  5
48
330
1F
100
AcDbEntity
  8
0
  6
Continuous
 62
     7
370
    15
100
AcDbPolyline
 90
        3
 70
   128
 43
0.0
 10
4.0560450863
 20
7.9608285882
 10
4.0450465621
 20
7.9599531449
 10
4.0365148486
 20
7.958043677
  0
LWPOLYLINE
  5
49
330
1F
100
AcDbEntity
  8
0
  6
Continuous
 62
     7
370
    15
100
AcDbPolyline
 90
        3
 70
   128
 43
0.0
 10
4.0757003239
 20
7.958043677
 10
4.0670513232
 20
7.9599717164
 10
4.0560450863
 20
7.9608285882
  0
LINE
  5
4A
330
1F
100
AcDbEntity
  8
0
  6
Continuous
 62
     7
370
    15
100
AcDbLine
 10
4.8357326
 20
7.8622225923
 30
0.0
 11
4.8357326
 21
7.8622892515
 31
0.0
  0
LINE
  5
4B
330
1F
100
AcDbEntity
  8
0
  6
Continuous
 62
     7
370
    15
100
AcDbLine
 10
3.2764825725
 20
7.5199003685
 30
0.0
 11
3.2764825725
 21
7.5164670881
 31
0.0
  0
LINE
  5
4C
330
1F
100
AcDbEntity
  8
0
  6
Continuous
 62
     7
370
    15
100
AcDbLine
 10
3.3006075672
 20
7.7513659462
 30
0.0
 11
3.3006075672
 21
7.7373075632
 31
0.0
  0
LINE
  5
4D
330
1F
100
AcDbEntity
  8
0
  6
Continuous
 62
     7
370
    15
100
AcDbLine
 10
4.8057325732
 20
7.6205402592
 30
0.0
 11
4.8057325732
 21
7.639057427
 31
0.0
  0
LINE
  5
4E
330
1F
100
AcDbEntity
  8
0
  6
Continuous
 62
     7
370
    15
100
AcDbLine
 10
3.428537776
 20
7.7469536084
 30
0.0
 11
3.4250665094
 21
7.74094111
 31
0.0
  0
LINE
  5
4F
330
1F
100
AcDbEntity
  8
0
  6
Continuous
 62
     7
370
    15
100
AcDbLine
 10
3.4250665094
 20
7.6880911085
 30
0.0
 11
3.428537776
 21
7.6820786083
 31
0.0
  0
LINE
  5
50
330
1F
100
AcDbEntity
  8
0
  6
Continuous
 62
     7
370
    15
100
AcDbLine
 10
3.428537776
 20
7.6820786083
 30
0.0
 11
3.4289826109
 21
7.6828489853
 31
0.0
  0
LINE
  5
51
330
1F
100
AcDbEntity
  8
0
  6
Continuous
 62
     7
370
    15
100
AcDbLine
 10
3.4289826109
 20
7.7461832323
 30
0.0
 11
3.428537776
 21
7.7469536084
 31
0.0
  0
LINE
  5
52
330
1F
100
AcDbEntity
  8
0
  6
Continuous
 62
     7
370
    15
100
AcDbLine
 10
3.4231075787
 20
7.6846981868
 30
0.0
 11
3.4250665094
 21
7.6880911085
 31
0.0
  0
LINE
  5
53
330
1F
100
AcDbEntity
  8
0
  6
Continuous
 62
     7
370
    15
100
AcDbLine
 10
3.4250665094
 20
7.74094111
 30
0.0
 11
3.4231075787
 21
7.74433403
 31
0.0
  0
LINE
  5
54
330
1F
100
AcDbEntity
  8
0
  6
Continuous
 62
     7
370
    15
100
AcDbLine
 10
3.3341076069
 20
7.6627254903
 30
0.0
 11
3.4231075787
 21
7.6627254903
 31
0.0
  0
ARC
  5
55
330
1F
100
AcDbEntity
  8
0
  6
Continuous
 62
     7
370
    15
100
AcDbCircle
 10
3.3341075863
 20
7.6862254899
 30
0.0
 40
0.0234999999999999
100
AcDbArc
 50
180.0
 51
270.0
  0
ARC
  5
56
330
1F
100
AcDbEntity
  8
0
  6
Continuous
 62
     7
370
    15
100
AcDbCircle
 10
4.7722325863
 20
7.6731933384
 30
0.0
 40
0.0235000000000003
100
AcDbArc
 50
0.0
 51
90.0
  0
LINE
  5
57
330
1F
100
AcDbEntity
  8
0
  6
Continuous
 62
     7
370
    15
100
AcDbLine
 10
4.7722326068
 20
7.6966933385
 30
0.0
 11
4.6832325617
 21
7.6966933385
 31
0.0
  0
LINE
  5
58
330
1F
100
AcDbEntity
  8
0
  6
Continuous
 62
     7
370
    15
100
AcDbLine
 10
4.7238575857
 20
7.5671287537
 30
0.0
 11
4.7238575857
 21
7.5622416385
 31
0.0
  0
LINE
  5
59
330
1F
100
AcDbEntity
  8
0
  6
Continuous
 62
     7
370
    15
100
AcDbLine
 10
4.7701075781
 20
7.5622416385
 30
0.0
 11
4.7701075781
 21
7.5683219924
 31
0.0
  0
SPLINE
  5
5A
330
1F
100
AcDbEntity
  8
0
  6
Continuous
 62
     7
370
    15
100
AcDbSpline
210
0.0
220
0.0
230
1.0
 70
     8
 71
     3
 72
    20
 73
    16
 74
     0
 42
0.00000001
 43
0.00000001
 12
1.0
 22
0.0
 32
0.0
 13
1.0
 23
0.0
 33
0.0
 40
0.0
 40
0.0
 40
0.0
 40
0.0
 40
0.0356978840508984
 40
0.1335668643980545
 40
0.232343596456263
 40
0.3325453428010562
 40
0.4351229202121797
 40
0.5420334097459949
 40
0.6578258633124565
 40
0.731585386849571
 40
0.7926635113693369
 40
0.8471334735827563
 40
0.897991411579978
 40
0.9472396639952638
 40
1.0
 40
1.0
 40
1.0
 40
1.0
 10
4.683232561651714
 20
7.520365314767066
 30
0.0
 10
4.684886783812233
 20
7.520529468292204
 30
0.0
 10
4.691076205759019
 20
7.521143663564989
 30
0.0
 10
4.700920497769367
 20
7.522426465758509
 30
0.0
 10
4.712689124333187
 20
7.524215528051537
 30
0.0
 10
4.723469321647507
 20
7.526254447093354
 30
0.0
 10
4.733368744325396
 20
7.52857644480636
 30
0.0
 10
4.742541556862901
 20
7.531336383916032
 30
0.0
 10
4.749945295054466
 20
7.534334634344013
 30
0.0
 10
4.755908469073483
 20
7.53770229225718
 30
0.0
 10
4.76039195942974
 20
7.541111920924193
 30
0.0
 10
4.764240096448154
 20
7.545144401540856
 30
0.0
 10
4.76735189927911
 20
7.549995524580086
 30
0.0
 10
4.769633573427142
 20
7.555768538394548
 30
0.0
 10
4.769945991078822
 20
7.560034975004801
 30
0.0
 10
4.770107578064111
 20
7.562241638508201
 30
0.0
  0
SPLINE
  5
5B
330
1F
100
AcDbEntity
  8
0
  6
Continuous
 62
     7
370
    15
100
AcDbSpline
210
0.0
220
0.0
230
1.0
 70
     8
 71
     3
 72
    11
 73
     7
 74
     0
 42
0.00000001
 43
0.00000001
 12
1.0
 22
0.0
 32
0.0
 13
1.0
 23
0.0
 33
0.0
 40
0.0
 40
0.0
 40
0.0
 40
0.0
 40
0.2230616936047197
 40
0.5154214355845241
 40
0.815402174410747
 40
1.0
 40
1.0
 40
1.0
 40
1.0
 10
4.715037374239805
 20
7.571850293341534
 30
0.0
 10
4.713149760937775
 20
7.571445468928443
 30
0.0
 10
4.70878811397707
 20
7.570510054260048
 30
0.0
 10
4.700396045018333
 20
7.569105362523928
 30
0.0
 10
4.691696722810578
 20
7.567838310375296
 30
0.0
 10
4.685567470307639
 20
7.567148692911029
 30
0.0
 10
4.683232561651714
 20
7.566885986522963
 30
0.0
  0
LINE
  5
5C
330
1F
100
AcDbEntity
  8
0
  6
Continuous
 62
     7
370
    15
100
AcDbLine
 10
3.3824825547
 20
7.8344195426
 30
0.0
 11
3.3824825547
 21
8.0063032728
 31
0.0
  0
LINE
  5
5D
330
1F
100
AcDbEntity
  8
0
  6
Continuous
 62
     7
370
    15
100
AcDbLine
 10
3.3362325623
 20
8.0063032728
 30
0.0
 11
3.3362325623
 21
7.8336847603
 31
0.0
  0
SPLINE
  5
5E
330
1F
100
AcDbEntity
  8
0
  6
Continuous
 62
     7
370
    15
100
AcDbSpline
210
0.0
220
0.0
230
1.0
 70
     8
 71
     3
 72
    17
 73
    13
 74
     0
 42
0.00000001
 43
0.00000001
 12
1.0
 22
0.0
 32
0.0
 13
1.0
 23
0.0
 33
0.0
 40
0.0
 40
0.0
 40
0.0
 40
0.0
 40
0.0564641983480558
 40
0.175321947428033
 40
0.2816350155285096
 40
0.3820623768207854
 40
0.4886387573848288
 40
0.5929575959196839
 40
0.6971904731324083
 40
0.8022141450574009
 40
0.9084646144649445
 40
1.0
 40
1.0
 40
1.0
 40
1.0
 10
3.382482554693458
 20
8.006303272836975
 30
0.0
 10
3.382494181192727
 20
8.00663302889252
 30
0.0
 10
3.382530281598883
 20
8.007656925016537
 30
0.0
 10
3.382961205024836
 20
8.009532618856344
 30
0.0
 10
3.384327146680705
 20
8.012496749809365
 30
0.0
 10
3.386809285863831
 20
8.01605066207222
 30
0.0
 10
3.390630620401787
 20
8.020095577467679
 30
0.0
 10
3.395955727331087
 20
8.024465170661077
 30
0.0
 10
3.4026286416093
 20
8.028873229341805
 30
0.0
 10
3.410661699928471
 20
8.033186740562575
 30
0.0
 10
3.419413314416786
 20
8.03713450354011
 30
0.0
 10
3.425955079113852
 20
8.039426983711339
 30
0.0
 10
3.428982610854175
 20
8.040487944599397
 30
0.0
  0
SPLINE
  5
5F
330
1F
100
AcDbEntity
  8
0
  6
Continuous
 62
     7
370
    15
100
AcDbSpline
210
0.0
220
0.0
230
1.0
 70
     8
 71
     3
 72
    20
 73
    16
 74
     0
 42
0.00000001
 43
0.00000001
 12
1.0
 22
0.0
 32
0.0
 13
1.0
 23
0.0
 33
0.0
 40
0.0
 40
0.0
 40
0.0
 40
0.0
 40
0.006065759638095
 40
0.0991454746957701
 40
0.1929019632941068
 40
0.2874690755219972
 40
0.3829225489724659
 40
0.4791577452201811
 40
0.5754449444006624
 40
0.6702272005324545
 40
0.7514430591531066
 40
0.8292629549511873
 40
0.9125673965911375
 40
0.9864846715751002
 40
1.0
 40
1.0
 40
1.0
 40
1.0
 10
3.428982610854175
 20
8.088820579590005
 30
0.0
 10
3.428657279278331
 20
8.088741379461492
 30
0.0
 10
3.423339700698738
 20
8.087446845090545
 30
0.0
 10
3.413686294888404
 20
8.084281752894968
 30
0.0
 10
3.400190407557729
 20
8.079274440280017
 30
0.0
 10
3.387660200626747
 20
8.073470057656587
 30
0.0
 10
3.376098717911236
 20
8.066948369270339
 30
0.0
 10
3.365667691289038
 20
8.059664854689983
 30
0.0
 10
3.35653880249144
 20
8.051637865669846
 30
0.0
 10
3.34919844391276
 20
8.043252030378525
 30
0.0
 10
3.343629547585954
 20
8.034727922883194
 30
0.0
 10
3.339562326062654
 20
8.025992780367492
 30
0.0
 10
3.337028390066375
 20
8.017020767401268
 30
0.0
 10
3.336269794774843
 20
8.010290925379433
 30
0.0
 10
3.336237547147609
 20
8.006837156323012
 30
0.0
 10
3.33623256231065
 20
8.006303272836975
 30
0.0
  0
LINE
  5
60
330
1F
100
AcDbEntity
  8
0
  6
Continuous
 62
     7
370
    15
100
AcDbLine
 10
3.3664825795
 20
7.6095566615
 30
0.0
 11
3.3664825795
 21
7.6627254903
 31
0.0
  0
LINE
  5
61
330
1F
100
AcDbEntity
  8
0
  6
Continuous
 62
     7
370
    15
100
AcDbLine
 10
3.3039826215
 20
7.7080766567
 30
0.0
 11
3.3039826215
 21
7.6120482886
 31
0.0
  0
SPLINE
  5
62
330
1F
100
AcDbEntity
  8
0
  6
Continuous
 62
     7
370
    15
100
AcDbSpline
210
0.0
220
0.0
230
1.0
 70
     8
 71
     3
 72
     9
 73
     5
 74
     0
 42
0.00000001
 43
0.00000001
 12
1.0
 22
0.0
 32
0.0
 13
1.0
 23
0.0
 33
0.0
 40
0.0
 40
0.0
 40
0.0
 40
0.0
 40
0.5529586368027296
 40
1.0
 40
1.0
 40
1.0
 40
1.0
 10
3.428982610854175
 20
7.779076101951309
 30
0.0
 10
3.426858958794714
 20
7.778938894383724
 30
0.0
 10
3.423018432726181
 20
7.778690760873451
 30
0.0
 10
3.419332282841307
 20
7.778233995997648
 30
0.0
 10
3.417684421371823
 20
7.778029803204908
 30
0.0
  0
SPLINE
  5
63
330
1F
100
AcDbEntity
  8
0
  6
Continuous
 62
     7
370
    15
100
AcDbSpline
210
0.0
220
0.0
230
1.0
 70
     8
 71
     3
 72
     9
 73
     5
 74
     0
 42
0.00000001
 43
0.00000001
 12
1.0
 22
0.0
 32
0.0
 13
1.0
 23
0.0
 33
0.0
 40
0.0
 40
0.0
 40
0.0
 40
0.0
 40
0.5113768460555101
 40
1.0
 40
1.0
 40
1.0
 40
1.0
 10
3.305350859058721
 20
7.718444655704284
 30
0.0
 10
3.304928224332096
 20
7.716712150170022
 30
0.0
 10
3.304101759993937
 20
7.713324226865273
 30
0.0
 10
3.304021727339442
 20
7.709799110300295
 30
0.0
 10
3.303982621531384
 20
7.708076656726292
 30
0.0
  0
LINE
  5
64
330
1F
100
AcDbEntity
  8
0
  6
Continuous
 62
     7
370
    15
100
AcDbLine
 10
4.0951700875
 20
7.970940698
 30
0.0
 11
4.0951700875
 21
8.0465915174
 31
0.0
  0
LINE
  5
65
330
1F
100
AcDbEntity
  8
0
  6
Continuous
 62
     7
370
    15
100
AcDbLine
 10
4.017045085
 20
8.0465915174
 30
0.0
 11
4.017045085
 21
7.970940698
 31
0.0
  0
LINE
  5
66
330
1F
100
AcDbEntity
  8
0
  6
Continuous
 62
     7
370
    15
100
AcDbLine
 10
3.507107595
 20
7.1265160929
 30
0.0
 11
3.5678575832
 21
7.1265160929
 31
0.0
  0
LINE
  5
67
330
1F
100
AcDbEntity
  8
0
  6
Continuous
 62
     7
370
    15
100
AcDbLine
 10
3.5678575832
 20
8.2347661236
 30
0.0
 11
3.507107595
 21
8.2347661236
 31
0.0
  0
LINE
  5
68
330
1F
100
AcDbEntity
  8
0
  6
Continuous
 62
     7
370
    15
100
AcDbLine
 10
3.5678575832
 20
7.1265160929
 30
0.0
 11
3.797188159
 21
7.155096696
 31
0.0
  0
LINE
  5
69
330
1F
100
AcDbEntity
  8
0
  6
Continuous
 62
     7
370
    15
100
AcDbLine
 10
3.797188159
 20
8.2061855204
 30
0.0
 11
3.5678575832
 21
8.2347661236
 31
0.0
  0
LINE
  5
6A
330
1F
100
AcDbEntity
  8
0
  6
Continuous
 62
     7
370
    15
100
AcDbLine
 10
3.507107595
 20
8.2347661236
 30
0.0
 11
3.4289826109
 21
8.1566411028
 31
0.0
  0
LINE
  5
6B
330
1F
100
AcDbEntity
  8
0
  6
Continuous
 62
     7
370
    15
100
AcDbLine
 10
3.4289826109
 20
7.2046411137
 30
0.0
 11
3.507107595
 21
7.1265160929
 31
0.0
  0
LINE
  5
6C
330
1F
100
AcDbEntity
  8
0
  6
Continuous
 62
     7
370
    15
100
AcDbLine
 10
3.797188159
 20
7.155096696
 30
0.0
 11
3.8186075882
 21
7.1765161253
 31
0.0
  0
LINE
  5
6D
330
1F
100
AcDbEntity
  8
0
  6
Continuous
 62
     7
370
    15
100
AcDbLine
 10
3.8186075882
 20
8.1847660912
 30
0.0
 11
3.797188159
 21
8.2061855204
 31
0.0
  0
LINE
  5
6E
330
1F
100
AcDbEntity
  8
0
  6
Continuous
 62
     7
370
    15
100
AcDbLine
 10
4.5443575893
 20
8.2347661236
 30
0.0
 11
4.3150270135
 21
8.2061855204
 31
0.0
  0
LINE
  5
6F
330
1F
100
AcDbEntity
  8
0
  6
Continuous
 62
     7
370
    15
100
AcDbLine
 10
4.3150270135
 20
7.155096696
 30
0.0
 11
4.5443575893
 21
7.1265160929
 31
0.0
  0
LINE
  5
70
330
1F
100
AcDbEntity
  8
0
  6
Continuous
 62
     7
370
    15
100
AcDbLine
 10
4.6051075775
 20
8.2347661236
 30
0.0
 11
4.5443575893
 21
8.2347661236
 31
0.0
  0
LINE
  5
71
330
1F
100
AcDbEntity
  8
0
  6
Continuous
 62
     7
370
    15
100
AcDbLine
 10
4.5443575893
 20
7.1265160929
 30
0.0
 11
4.6051075775
 21
7.1265160929
 31
0.0
  0
LINE
  5
72
330
1F
100
AcDbEntity
  8
0
  6
Continuous
 62
     7
370
    15
100
AcDbLine
 10
4.6051075775
 20
7.1265160929
 30
0.0
 11
4.6832325617
 21
7.2046411137
 31
0.0
  0
LINE
  5
73
330
1F
100
AcDbEntity
  8
0
  6
Continuous
 62
     7
370
    15
100
AcDbLine
 10
4.6832325617
 20
8.1566411028
 30
0.0
 11
4.6051075775
 21
8.2347661236
 31
0.0
  0
LINE
  5
74
330
1F
100
AcDbEntity
  8
0
  6
Continuous
 62
     7
370
    15
100
AcDbLine
 10
4.3150270135
 20
8.2061855204
 30
0.0
 11
4.2936075843
 21
8.1847660912
 31
0.0
  0
LINE
  5
75
330
1F
100
AcDbEntity
  8
0
  6
Continuous
 62
     7
370
    15
100
AcDbLine
 10
4.2936075843
 20
7.1765161253
 30
0.0
 11
4.3150270135
 21
7.155096696
 31
0.0
  0
LINE
  5
76
330
1F
100
AcDbEntity
  8
0
  6
Continuous
 62
     7
370
    15
100
AcDbLine
 10
3.8186407162
 20
8.1453910927
 30
0.0
 11
3.8186075882
 21
8.1453910927
 31
0.0
  0
LINE
  5
77
330
1F
100
AcDbEntity
  8
0
  6
Continuous
 62
     7
370
    15
100
AcDbLine
 10
3.8186075882
 20
7.2158911237
 30
0.0
 11
3.8186407162
 21
7.2158911237
 31
0.0
  0
LINE
  5
78
330
1F
100
AcDbEntity
  8
0
  6
Continuous
 62
     7
370
    15
100
AcDbLine
 10
4.2935744563
 20
7.2158911237
 30
0.0
 11
4.2936075843
 21
7.2158911237
 31
0.0
  0
LINE
  5
79
330
1F
100
AcDbEntity
  8
0
  6
Continuous
 62
     7
370
    15
100
AcDbLine
 10
4.2936075843
 20
8.1453910927
 30
0.0
 11
4.2935744563
 21
8.1453910927
 31
0.0
  0
LINE
  5
7A
330
1F
100
AcDbEntity
  8
0
  6
Continuous
 62
     7
370
    15
100
AcDbLine
 10
3.8258575861
 20
8.1328910938
 30
0.0
 11
3.8186407162
 21
8.1328910938
 31
0.0
  0
LINE
  5
7B
330
1F
100
AcDbEntity
  8
0
  6
Continuous
 62
     7
370
    15
100
AcDbLine
 10
3.8186407162
 20
7.2283911227
 30
0.0
 11
3.8258575861
 21
7.2283911227
 31
0.0
  0
LINE
  5
7C
330
1F
100
AcDbEntity
  8
0
  6
Continuous
 62
     7
370
    15
100
AcDbLine
 10
4.2863575864
 20
7.2283911227
 30
0.0
 11
4.2935744563
 21
7.2283911227
 31
0.0
  0
LINE
  5
7D
330
1F
100
AcDbEntity
  8
0
  6
Continuous
 62
     7
370
    15
100
AcDbLine
 10
4.2935744563
 20
8.1328910938
 30
0.0
 11
4.2863575864
 21
8.1328910938
 31
0.0
  0
ARC
  5
7E
330
1F
100
AcDbEntity
  8
0
  6
Continuous
 62
     7
370
    15
100
AcDbCircle
 10
3.3352326005
 20
7.5131527412
 30
0.0
 40
0.0657927532835514
100
AcDbArc
 50
67.6826806733
 51
112.3173193267
  0
ARC
  5
7F
330
1F
100
AcDbEntity
  8
0
  6
Continuous
 62
     7
370
    15
100
AcDbCircle
 10
3.3289750464
 20
7.5199008109
 30
0.0
 40
0.0562275776872736
100
AcDbArc
 50
152.4848656571
 51
207.2383902875
  0
ARC
  5
80
330
1F
100
AcDbEntity
  8
0
  6
Continuous
 62
     7
370
    15
100
AcDbCircle
 10
3.3288661262
 20
7.5608881762
 30
0.0
 40
0.0561335654392729
100
AcDbArc
 50
159.2073049324
 51
179.968645552
  0
LINE
  5
81
330
1F
100
AcDbEntity
  8
0
  6
Continuous
 62
     7
370
    15
100
AcDbLine
 10
3.276388487
 20
7.5808149056
 30
0.0
 11
3.276388487
 21
7.5500510202
 31
0.0
  0
ARC
  5
82
330
1F
100
AcDbEntity
  8
0
  6
Continuous
 62
     7
370
    15
100
AcDbCircle
 10
3.3300550724
 20
7.5297035166
 30
0.0
 40
0.0573944534972502
100
AcDbArc
 50
151.343432748
 51
159.2359474748
  0
LINE
  5
83
330
1F
100
AcDbEntity
  8
0
  6
Continuous
 62
     7
370
    15
100
AcDbLine
 10
3.2825278827
 20
7.563543391
 30
0.0
 11
3.2825278827
 21
7.5926514014
 31
0.0
  0
ARC
  5
84
330
1F
100
AcDbEntity
  8
0
  6
Continuous
 62
     7
370
    15
100
AcDbCircle
 10
3.3333720069
 20
7.5580180754
 30
0.0
 40
0.0615190396132446
100
AcDbArc
 50
113.8299763105
 51
145.7386109037
  0
LINE
  5
85
330
1F
100
AcDbEntity
  8
0
  6
Continuous
 62
     7
370
    15
100
AcDbLine
 10
3.3085168425
 20
7.6142925193
 30
0.0
 11
3.3085168425
 21
7.5835286293
 31
0.0
  0
ARC
  5
86
330
1F
100
AcDbEntity
  8
0
  6
Continuous
 62
     7
370
    15
100
AcDbCircle
 10
3.3350093364
 20
7.5241469261
 30
0.0
 40
0.0650233719949381
100
AcDbArc
 50
101.7945421543
 51
114.0435140256
  0
LINE
  5
87
330
1F
100
AcDbEntity
  8
0
  6
Continuous
 62
     7
370
    15
100
AcDbLine
 10
3.3217183766
 20
7.5877974508
 30
0.0
 11
3.3217183766
 21
7.6185613408
 31
0.0
  0
ARC
  5
88
330
1F
100
AcDbEntity
  8
0
  6
Continuous
 62
     7
370
    15
100
AcDbCircle
 10
3.3352273763
 20
7.5539986833
 30
0.0
 40
0.0659608203384495
100
AcDbArc
 50
71.3736546854
 51
101.8179899674
  0
LINE
  5
89
330
1F
100
AcDbEntity
  8
0
  6
Continuous
 62
     7
370
    15
100
AcDbLine
 10
3.3562949372
 20
7.6165045846
 30
0.0
 11
3.3562949372
 21
7.5857406854
 31
0.0
  0
ARC
  5
8A
330
1F
100
AcDbEntity
  8
0
  6
Continuous
 62
     7
370
    15
100
AcDbCircle
 10
3.3357964765
 20
7.5250154629
 30
0.0
 40
0.0640916495146937
100
AcDbArc
 50
58.9800332067
 51
71.3473288052
  0
LINE
  5
8B
330
1F
100
AcDbEntity
  8
0
  6
Continuous
 62
     7
370
    15
100
AcDbLine
 10
3.3688252591
 20
7.5799412224
 30
0.0
 11
3.3688252591
 21
7.610705117
 31
0.0
  0
ARC
  5
8C
330
1F
100
AcDbEntity
  8
0
  6
Continuous
 62
     7
370
    15
100
AcDbCircle
 10
3.3379722226
 20
7.5589487441
 30
0.0
 40
0.0602547259413819
100
AcDbArc
 50
26.8416197574
 51
59.1999623741
  0
LINE
  5
8D
330
1F
100
AcDbEntity
  8
0
  6
Continuous
 62
     7
370
    15
100
AcDbLine
 10
3.3917349878
 20
7.5861553073
 30
0.0
 11
3.3917349878
 21
7.5740172866
 31
0.0
  0
ARC
  5
8E
330
1F
100
AcDbEntity
  8
0
  6
Continuous
 62
     7
370
    15
100
AcDbCircle
 10
3.3139433353
 20
7.6200584293
 30
0.0
 40
0.0079178622282766
100
AcDbArc
 50
226.7370011015
 51
349.1010550784
  0
ARC
  5
8F
330
1F
100
AcDbEntity
  8
0
  6
Continuous
 62
     7
370
    15
100
AcDbCircle
 10
3.3641258315
 20
7.6169877722
 30
0.0
 40
0.0078457871368792
100
AcDbArc
 50
183.5308298035
 51
306.7964976884
  0
ARC
  5
90
330
1F
100
AcDbEntity
  8
0
  6
Continuous
 62
     7
370
    15
100
AcDbCircle
 10
3.2763762165
 20
7.5887507701
 30
0.0
 40
0.0079358739519519
100
AcDbArc
 50
270.0885912599
 51
320.8206175979
  0
ARC
  5
91
330
1F
100
AcDbEntity
  8
0
  6
Continuous
 62
     7
370
    15
100
AcDbCircle
 10
3.3972000358
 20
7.5815260337
 30
0.0
 40
0.007889533153978
100
AcDbArc
 50
226.1560992543
 51
252.1262794987
  0
LWPOLYLINE
  5
92
330
1F
100
AcDbEntity
  8
0
  6
Continuous
 62
     7
370
    15
100
AcDbPolyline
 90
        3
 70
   128
 43
0.0
 10
4.7735278786
 20
7.9246924289
 10
4.7746814719
 20
7.924745595
 10
4.7804373387
 20
7.9246924289
  0
ARC
  5
93
330
1F
100
AcDbEntity
  8
0
  6
Continuous
 62
     7
370
    15
100
AcDbCircle
 10
4.7769846848
 20
7.8622892423
 30
0.0
 40
0.0624979043577088
100
AcDbArc
 50
334.1576959162
 51
25.8423040838
  0
LINE
  5
94
330
1F
100
AcDbEntity
  8
0
  6
Continuous
 62
     7
370
    15
100
AcDbLine
 10
4.7664618535
 20
7.9246924289
 30
0.0
 11
4.7703554419
 21
7.9252319177
 31
0.0
  0
LINE
  5
95
330
1F
100
AcDbEntity
  8
0
  6
Continuous
 62
     7
370
    15
100
AcDbLine
 10
4.7703554419
 20
7.9252319177
 30
0.0
 11
4.7703554419
 21
7.9246924289
 31
0.0
  0
ARC
  5
96
330
1F
100
AcDbEntity
  8
0
  6
Continuous
 62
     7
370
    15
100
AcDbCircle
 10
4.7769826641
 20
7.8624854656
 30
0.0
 40
0.0625015772148885
100
AcDbArc
 50
84.4346883838
 51
96.0866784527
  0
LINE
  5
97
330
1F
100
AcDbEntity
  8
0
  6
Continuous
 62
     7
370
    15
100
AcDbLine
 10
4.7843087807
 20
7.9246924289
 30
0.0
 11
4.7843087807
 21
7.925153397
 31
0.0
  0
LINE
  5
98
330
1F
100
AcDbEntity
  8
0
  6
Continuous
 62
     7
370
    15
100
AcDbLine
 10
4.7843087807
 20
7.925153397
 30
0.0
 11
4.7875032904
 21
7.9246924289
 31
0.0
  0
ARC
  5
99
330
1F
100
AcDbEntity
  8
0
  6
Continuous
 62
     7
370
    15
100
AcDbCircle
 10
4.7769824454
 20
7.8630848925
 30
0.0
 40
0.0625001946751262
100
AcDbArc
 50
6.0872170859
 51
25.8419295234
  0
LINE
  5
9A
330
1F
100
AcDbEntity
  8
0
  6
Continuous
 62
     7
370
    15
100
AcDbLine
 10
4.8391302407
 20
7.8697125524
 30
0.0
 11
4.8391302407
 21
7.8691153326
 31
0.0
  0
ARC
  5
9B
330
1F
100
AcDbEntity
  8
0
  6
Continuous
 62
     7
370
    15
100
AcDbCircle
 10
4.7769883931
 20
7.862488336
 30
0.0
 40
0.0624942101876833
100
AcDbArc
 50
359.9999785111
 51
6.0871907051
  0
LINE
  5
9C
330
1F
100
AcDbEntity
  8
0
  6
Continuous
 62
     7
370
    15
100
AcDbLine
 10
4.7843087807
 20
7.925153397
 30
0.0
 11
4.7840532903
 21
7.9246924289
 31
0.0
  0
LINE
  5
9D
330
1F
100
AcDbEntity
  8
0
  6
Continuous
 62
     7
370
    15
100
AcDbLine
 10
4.7706505318
 20
7.9246924289
 30
0.0
 11
4.7703554419
 21
7.9252319177
 31
0.0
  0
LWPOLYLINE
  5
9E
330
1F
100
AcDbEntity
  8
0
  6
Continuous
 62
     7
370
    15
100
AcDbPolyline
 90
        9
 70
   128
 43
0.0
 10
3.3024826055
 20
7.5210546768
 10
3.2978979318
 20
7.5212028451
 10
3.2934895494
 20
7.521641685
 10
3.2894267097
 20
7.5223542935
 10
3.2858656108
 20
7.5233133174
 10
3.2829430179
 20
7.5244818889
 10
3.280771423
 20
7.5258151101
 10
3.2794341318
 20
7.5272617218
 10
3.2789825503
 20
7.5287661652
  0
ARC
  5
9F
330
1F
100
AcDbEntity
  8
0
  6
Continuous
 62
     7
370
    15
100
AcDbCircle
 10
3.3018500392
 20
7.5280963303
 30
0.0
 40
0.0228772971302182
100
AcDbArc
 50
88.4155469643
 51
178.3221708004
  0
LINE
  5
A0
330
1F
100
AcDbEntity
  8
0
  6
Continuous
 62
     7
370
    15
100
AcDbLine
 10
3.3024826055
 20
7.5509648804
 30
0.0
 11
3.3024826055
 21
7.5210546768
 31
0.0
  0
LINE
  5
A1
330
1F
100
AcDbEntity
  8
0
  6
Continuous
 62
     7
370
    15
100
AcDbLine
 10
3.4289826109
 20
7.5210546768
 30
0.0
 11
3.3024826055
 21
7.5210546768
 31
0.0
  0
LINE
  5
A2
330
1F
100
AcDbEntity
  8
0
  6
Continuous
 62
     7
370
    15
100
AcDbLine
 10
3.4289826109
 20
7.5509648804
 30
0.0
 11
3.3024826055
 21
7.5509648804
 31
0.0
  0
LINE
  5
A3
330
1F
100
AcDbEntity
  8
0
  6
Continuous
 62
     7
370
    15
100
AcDbLine
 10
3.4289826109
 20
7.4473738246
 30
0.0
 11
3.3024826055
 21
7.4473738246
 31
0.0
  0
LINE
  5
A4
330
1F
100
AcDbEntity
  8
0
  6
Continuous
 62
     7
370
    15
100
AcDbLine
 10
3.3024826055
 20
7.5210546768
 30
0.0
 11
3.3024826055
 21
7.4473738246
 31
0.0
  0
LINE
  5
A5
330
1F
100
AcDbEntity
  8
0
  6
Continuous
 62
     7
370
    15
100
AcDbLine
 10
3.2789825503
 20
7.4550853039
 30
0.0
 11
3.2789825503
 21
7.5287661652
 31
0.0
  0
LWPOLYLINE
  5
A6
330
1F
100
AcDbEntity
  8
0
  6
Continuous
 62
     7
370
    15
100
AcDbPolyline
 90
        9
 70
   128
 43
0.0
 10
3.3024826055
 20
7.4473738246
 10
3.2978979318
 20
7.4475220113
 10
3.2934895494
 20
7.4479608329
 10
3.2894267097
 20
7.4486734413
 10
3.2858656108
 20
7.4496324652
 10
3.2829430179
 20
7.4508010367
 10
3.280771423
 20
7.452134258
 10
3.2794341318
 20
7.4535808696
 10
3.2789825503
 20
7.4550853039
  0
LINE
  5
A7
330
1F
100
AcDbEntity
  8
0
  6
Continuous
 62
     7
370
    15
100
AcDbLine
 10
3.2789825503
 20
7.5287661652
 30
0.0
 11
3.2789825503
 21
7.5518185714
 31
0.0
  0
ARC
  5
A8
330
1F
100
AcDbEntity
  8
0
  6
Continuous
 62
     7
370
    15
100
AcDbCircle
 10
3.3018500212
 20
7.5511487556
 30
0.0
 40
0.022877278572615
100
AcDbArc
 50
88.4155005628
 51
178.322217202
  0
LINE
  5
A9
330
1F
100
AcDbEntity
  8
0
  6
Continuous
 62
     7
370
    15
100
AcDbLine
 10
3.3024826055
 20
7.5740172866
 30
0.0
 11
3.3024826055
 21
7.5509648804
 31
0.0
  0
LINE
  5
AA
330
1F
100
AcDbEntity
  8
0
  6
Continuous
 62
     7
370
    15
100
AcDbLine
 10
3.4289826109
 20
7.5740172866
 30
0.0
 11
3.3024826055
 21
7.5740172866
 31
0.0
  0
LINE
  5
AB
330
1F
100
AcDbEntity
  8
0
  6
Continuous
 62
     7
370
    15
100
AcDbLine
 10
4.6832325617
 20
7.9242449174
 30
0.0
 11
4.809732567
 21
7.9242449174
 31
0.0
  0
LINE
  5
AC
330
1F
100
AcDbEntity
  8
0
  6
Continuous
 62
     7
370
    15
100
AcDbLine
 10
4.809732567
 20
7.900595704
 30
0.0
 11
4.809732567
 21
7.9242449174
 31
0.0
  0
LINE
  5
AD
330
1F
100
AcDbEntity
  8
0
  6
Continuous
 62
     7
370
    15
100
AcDbLine
 10
4.6832325617
 20
7.900595704
 30
0.0
 11
4.809732567
 21
7.900595704
 31
0.0
  0
ARC
  5
AE
330
1F
100
AcDbEntity
  8
0
  6
Continuous
 62
     7
370
    15
100
AcDbCircle
 10
4.8097327426
 20
7.9007450379
 30
0.0
 40
0.0234998795922283
100
AcDbArc
 50
0.000868121
 51
90.0004281418
  0
ARC
  5
AF
330
1F
100
AcDbEntity
  8
0
  6
Continuous
 62
     7
370
    15
100
AcDbCircle
 10
4.8156083384
 20
8.8228791332
 30
0.0
 40
0.922302146013568
100
AcDbArc
 50
269.6349795127
 51
271.0949324461
  0
LINE
  5
B0
330
1F
100
AcDbEntity
  8
0
  6
Continuous
 62
     7
370
    15
100
AcDbLine
 10
4.809732567
 20
7.8225972734
 30
0.0
 11
4.809732567
 21
7.900595704
 31
0.0
  0
LINE
  5
B1
330
1F
100
AcDbEntity
  8
0
  6
Continuous
 62
     7
370
    15
100
AcDbLine
 10
4.6832325617
 20
7.8225972734
 30
0.0
 11
4.809732567
 21
7.8225972734
 31
0.0
  0
LINE
  5
B2
330
1F
100
AcDbEntity
  8
0
  6
Continuous
 62
     7
370
    15
100
AcDbLine
 10
4.8332326222
 20
7.9007453939
 30
0.0
 11
4.8332326222
 21
7.8227469816
 31
0.0
  0
ARC
  5
B3
330
1F
100
AcDbEntity
  8
0
  6
Continuous
 62
     7
370
    15
100
AcDbCircle
 10
4.8156066776
 20
8.74502848
 30
0.0
 40
0.9224499098066811
100
AcDbArc
 50
269.635141144
 51
271.0948602076
  0
LINE
  5
B4
330
1F
100
AcDbEntity
  8
0
  6
Continuous
 62
     7
370
    15
100
AcDbLine
 10
4.809732567
 20
7.7992474581
 30
0.0
 11
4.809732567
 21
7.8225972734
 31
0.0
  0
LINE
  5
B5
330
1F
100
AcDbEntity
  8
0
  6
Continuous
 62
     7
370
    15
100
AcDbLine
 10
4.6832325617
 20
7.7992474581
 30
0.0
 11
4.809732567
 21
7.7992474581
 31
0.0
  0
ARC
  5
B6
330
1F
100
AcDbEntity
  8
0
  6
Continuous
 62
     7
370
    15
100
AcDbCircle
 10
4.8097327608
 20
7.8227473194
 30
0.0
 40
0.0234998613532459
100
AcDbArc
 50
269.9995273894
 51
359.9991763477
  0
LINE
  5
B7
330
1F
100
AcDbEntity
  8
0
  6
Continuous
 62
     7
370
    15
100
AcDbLine
 10
4.6832325617
 20
7.9246924289
 30
0.0
 11
4.809732567
 21
7.9246924289
 31
0.0
  0
LINE
  5
B8
330
1F
100
AcDbEntity
  8
0
  6
Continuous
 62
     7
370
    15
100
AcDbLine
 10
4.809732567
 20
7.9242449174
 30
0.0
 11
4.809732567
 21
7.9246924289
 31
0.0
  0
ARC
  5
B9
330
1F
100
AcDbEntity
  8
0
  6
Continuous
 62
     7
370
    15
100
AcDbCircle
 10
4.8097327426
 20
7.9011925494
 30
0.0
 40
0.0234998795922283
100
AcDbArc
 50
0.000868121
 51
90.0004281418
  0
LINE
  5
BA
330
1F
100
AcDbEntity
  8
0
  6
Continuous
 62
     7
370
    15
100
AcDbLine
 10
4.8332326222
 20
7.9011929054
 30
0.0
 11
4.8332326222
 21
7.9007453939
 31
0.0
  0
LINE
  5
BB
330
1F
100
AcDbEntity
  8
0
  6
Continuous
 62
     7
370
    15
100
AcDbLine
 10
4.0560450863
 20
7.9608285882
 30
0.0
 11
4.0561700863
 21
7.9608285882
 31
0.0
  0
ARC
  5
BC
330
1F
100
AcDbEntity
  8
0
  6
Continuous
 62
     7
370
    15
100
AcDbCircle
 10
3.8357950863
 20
8.1294701799
 30
0.0
 40
0.0156249999999997
100
AcDbArc
 50
129.494192118
 51
167.3532525666
  0
ARC
  5
BD
330
1F
100
AcDbEntity
  8
0
  6
Continuous
 62
     7
370
    15
100
AcDbCircle
 10
4.7769762656
 20
7.8622225923
 30
0.0
 40
0.0587559863499066
100
AcDbArc
 50
343.2273676078
 51
16.7726323922
  0
ARC
  5
BE
330
1F
100
AcDbEntity
  8
0
  6
Continuous
 62
     7
370
    15
100
AcDbCircle
 10
3.3291215977
 20
7.5164670881
 30
0.0
 40
0.0526352128727075
100
AcDbArc
 50
162.2839222992
 51
197.7160777008
  0
LWPOLYLINE
  5
BF
330
1F
100
AcDbEntity
  8
0
  6
Continuous
 62
     7
370
    15
100
AcDbPolyline
 90
        3
 70
   128
 43
0.0
 10
3.2810250067
 20
7.5788830713
 10
3.2824749367
 20
7.5819036272
 10
3.2825278827
 20
7.5820055227
  0
LWPOLYLINE
  5
C0
330
1F
100
AcDbEntity
  8
0
  6
Continuous
 62
     7
370
    15
100
AcDbPolyline
 90
        3
 70
   128
 43
0.0
 10
3.312919285
 20
7.6088239279
 10
3.3144985734
 20
7.609411399
 10
3.3195598349
 20
7.6109712039
  0
ARC
  5
C1
330
1F
100
AcDbEntity
  8
0
  6
Continuous
 62
     7
370
    15
100
AcDbCircle
 10
3.3595714377
 20
7.727275571
 30
0.0
 40
0.0626860545577552
100
AcDbArc
 50
48.6958514631
 51
143.9761051939
  0
ARC
  5
C2
330
1F
100
AcDbEntity
  8
0
  6
Continuous
 62
     7
370
    15
100
AcDbCircle
 10
3.3486336748
 20
7.7372864404
 30
0.0
 40
0.0479811363868573
100
AcDbArc
 50
145.9632553886
 51
217.5781419444
  0
LINE
  5
C3
330
1F
100
AcDbEntity
  8
0
  6
Continuous
 62
     7
370
    15
100
AcDbLine
 10
3.301030769
 20
7.7872548283
 30
0.0
 11
3.301030769
 21
7.7576522178
 31
0.0
  0
ARC
  5
C4
330
1F
100
AcDbEntity
  8
0
  6
Continuous
 62
     7
370
    15
100
AcDbCircle
 10
3.3475858158
 20
7.7513613393
 30
0.0
 40
0.0469782488109341
100
AcDbArc
 50
170.6028135688
 51
179.9943812344
  0
LINE
  5
C5
330
1F
100
AcDbEntity
  8
0
  6
Continuous
 62
     7
370
    15
100
AcDbLine
 10
3.3012380066
 20
7.759031831
 30
0.0
 11
3.3012380066
 21
7.8012069938
 31
0.0
  0
ARC
  5
C6
330
1F
100
AcDbEntity
  8
0
  6
Continuous
 62
     7
370
    15
100
AcDbCircle
 10
3.3522279048
 20
7.7919954049
 30
0.0
 40
0.0518152785419064
100
AcDbArc
 50
122.8798702123
 51
169.7596698967
  0
LINE
  5
C7
330
1F
100
AcDbEntity
  8
0
  6
Continuous
 62
     7
370
    15
100
AcDbLine
 10
3.3240984558
 20
7.8355104275
 30
0.0
 11
3.3240984558
 21
7.7933352739
 31
0.0
  0
ARC
  5
C8
330
1F
100
AcDbEntity
  8
0
  6
Continuous
 62
     7
370
    15
100
AcDbCircle
 10
3.3579950066
 20
7.7425778475
 30
0.0
 40
0.061035174228792
100
AcDbArc
 50
109.3902095089
 51
123.7355779746
  0
LINE
  5
C9
330
1F
100
AcDbEntity
  8
0
  6
Continuous
 62
     7
370
    15
100
AcDbLine
 10
3.3377313317
 20
7.8001510702
 30
0.0
 11
3.3377313317
 21
7.8423262238
 31
0.0
  0
ARC
  5
CA
330
1F
100
AcDbEntity
  8
0
  6
Continuous
 62
     7
370
    15
100
AcDbCircle
 10
3.3593526939
 20
7.7808158479
 30
0.0
 40
0.0651997672415293
100
AcDbArc
 50
69.2754693058
 51
109.366960529
  0
LINE
  5
CB
330
1F
100
AcDbEntity
  8
0
  6
Continuous
 62
     7
370
    15
100
AcDbLine
 10
3.382425282
 20
7.8417967082
 30
0.0
 11
3.382425282
 21
7.7996215454
 31
0.0
  0
ARC
  5
CC
330
1F
100
AcDbEntity
  8
0
  6
Continuous
 62
     7
370
    15
100
AcDbCircle
 10
3.3609232472
 20
7.7429728082
 30
0.0
 40
0.0605922183905542
100
AcDbArc
 50
54.7995830841
 51
69.2148522375
  0
LINE
  5
CD
330
1F
100
AcDbEntity
  8
0
  6
Continuous
 62
     7
370
    15
100
AcDbLine
 10
3.3958509203
 20
7.7924851762
 30
0.0
 11
3.3958509203
 21
7.834660339
 31
0.0
  0
ARC
  5
CE
330
1F
100
AcDbEntity
  8
0
  6
Continuous
 62
     7
370
    15
100
AcDbCircle
 10
3.3668327627
 20
7.7922124289
 30
0.0
 40
0.0514186594183584
100
AcDbArc
 50
8.5166533986
 51
55.6427836077
  0
LINE
  5
CF
330
1F
100
AcDbEntity
  8
0
  6
Continuous
 62
     7
370
    15
100
AcDbLine
 10
3.4176844214
 20
7.7998273714
 30
0.0
 11
3.4176844214
 21
7.7743663597
 31
0.0
  0
ARC
  5
D0
330
1F
100
AcDbEntity
  8
0
  6
Continuous
 62
     7
370
    15
100
AcDbCircle
 10
3.3593575952
 20
7.72757126
 30
0.0
 40
0.0516258528425782
100
AcDbArc
 50
65.0162530013
 51
114.9837469987
  0
ARC
  5
D1
330
1F
100
AcDbEntity
  8
0
  6
Continuous
 62
     7
370
    15
100
AcDbCircle
 10
3.330968594
 20
7.8399759715
 30
0.0
 40
0.0081938929825664
100
AcDbArc
 50
213.0235986309
 51
325.622853265
  0
ARC
  5
D2
330
1F
100
AcDbEntity
  8
0
  6
Continuous
 62
     7
370
    15
100
AcDbCircle
 10
3.3890807919
 20
7.8393114099
 30
0.0
 40
0.0082138358138719
100
AcDbArc
 50
216.5528690803
 51
325.5109770515
  0
LINE
  5
D3
330
1F
100
AcDbEntity
  8
0
  6
Continuous
 62
     7
370
    15
100
AcDbLine
 10
3.3012380066
 20
7.7872523808
 30
0.0
 11
3.301030769
 21
7.7872548283
 31
0.0
  0
ARC
  5
D4
330
1F
100
AcDbEntity
  8
0
  6
Continuous
 62
     7
370
    15
100
AcDbCircle
 10
4.7469974892
 20
7.639187089
 30
0.0
 40
0.0584647538188735
100
AcDbArc
 50
231.2099374297
 51
33.5316449446
  0
ARC
  5
D5
330
1F
100
AcDbEntity
  8
0
  6
Continuous
 62
     7
370
    15
100
AcDbCircle
 10
4.7469826185
 20
7.6377624058
 30
0.0
 40
0.0593968456392561
100
AcDbArc
 50
82.8188729596
 51
97.1811270404
  0
ARC
  5
D6
330
1F
100
AcDbEntity
  8
0
  6
Continuous
 62
     7
370
    15
100
AcDbCircle
 10
4.7469740904
 20
7.6216755285
 30
0.0
 40
0.0592399401869847
100
AcDbArc
 50
233.9277198734
 51
278.2257142551
  0
LINE
  5
D7
330
1F
100
AcDbEntity
  8
0
  6
Continuous
 62
     7
370
    15
100
AcDbLine
 10
4.7120932949
 20
7.5737933751
 30
0.0
 11
4.7120932949
 21
7.5876812555
 31
0.0
  0
ARC
  5
D8
330
1F
100
AcDbEntity
  8
0
  6
Continuous
 62
     7
370
    15
100
AcDbCircle
 10
4.7466205929
 20
7.6349877429
 30
0.0
 40
0.0585665267673032
100
AcDbArc
 50
224.9419503568
 51
233.8756427685
  0
LINE
  5
D9
330
1F
100
AcDbEntity
  8
0
  6
Continuous
 62
     7
370
    15
100
AcDbLine
 10
4.7008683646
 20
7.5936169336
 30
0.0
 11
4.7008683646
 21
7.5845407734
 31
0.0
  0
LWPOLYLINE
  5
DA
330
1F
100
AcDbEntity
  8
0
  6
Continuous
 62
     7
370
    15
100
AcDbPolyline
 90
        3
 70
   128
 43
0.0
 10
4.7008683646
 20
7.5845407734
 10
4.697542003
 20
7.5891541293
 10
4.6949207333
 20
7.5936169336
  0
LWPOLYLINE
  5
DB
330
1F
100
AcDbEntity
  8
0
  6
Continuous
 62
     7
370
    15
100
AcDbPolyline
 90
        3
 70
   128
 43
0.0
 10
4.8057325732
 20
7.6205402592
 10
4.8057262666
 20
7.6196867836
 10
4.8053628308
 20
7.6140320744
  0
LINE
  5
DC
330
1F
100
AcDbEntity
  8
0
  6
Continuous
 62
     7
370
    15
100
AcDbLine
 10
4.8053628308
 20
7.6140320744
 30
0.0
 11
4.8053628308
 21
7.6279199502
 31
0.0
  0
ARC
  5
DD
330
1F
100
AcDbEntity
  8
0
  6
Continuous
 62
     7
370
    15
100
AcDbCircle
 10
4.7481545186
 20
7.6344451341
 30
0.0
 40
0.0575792410867254
100
AcDbArc
 50
338.0609810332
 51
353.4929605088
  0
LINE
  5
DE
330
1F
100
AcDbEntity
  8
0
  6
Continuous
 62
     7
370
    15
100
AcDbLine
 10
4.801563988
 20
7.6129324033
 30
0.0
 11
4.801563988
 21
7.5990445275
 31
0.0
  0
ARC
  5
DF
330
1F
100
AcDbEntity
  8
0
  6
Continuous
 62
     7
370
    15
100
AcDbCircle
 10
4.7474256744
 20
7.6209451184
 30
0.0
 40
0.0584002815730037
100
AcDbArc
 50
293.2443981977
 51
337.9751735348
  0
LINE
  5
E0
330
1F
100
AcDbEntity
  8
0
  6
Continuous
 62
     7
370
    15
100
AcDbLine
 10
4.7704735805
 20
7.5672851994
 30
0.0
 11
4.7704735805
 21
7.5811730706
 31
0.0
  0
ARC
  5
E1
330
1F
100
AcDbEntity
  8
0
  6
Continuous
 62
     7
370
    15
100
AcDbCircle
 10
4.7470080634
 20
7.635580343
 30
0.0
 40
0.0592518503975469
100
AcDbArc
 50
278.1908579845
 51
293.3302351778
  0
LINE
  5
E2
330
1F
100
AcDbEntity
  8
0
  6
Continuous
 62
     7
370
    15
100
AcDbLine
 10
4.7554497341
 20
7.5769329221
 30
0.0
 11
4.7554497341
 21
7.5630450417
 31
0.0
  0
ARC
  5
E3
330
1F
100
AcDbEntity
  8
0
  6
Continuous
 62
     7
370
    15
100
AcDbCircle
 10
4.7469826185
 20
7.640084289
 30
0.0
 40
0.0473847361884631
100
AcDbArc
 50
258.707336898
 51
281.292663102
  0
ARC
  5
E4
330
1F
100
AcDbEntity
  8
0
  6
Continuous
 62
     7
370
    15
100
AcDbCircle
 10
4.7629327132
 20
7.5651707225
 30
0.0
 40
0.0078317106784824
100
AcDbArc
 50
15.6636209823
 51
162.8375307496
  0
ARC
  5
E5
330
1F
100
AcDbEntity
  8
0
  6
Continuous
 62
     7
370
    15
100
AcDbCircle
 10
4.7065528855
 20
7.5791059824
 30
0.0
 40
0.0078645235868231
100
AcDbArc
 50
45.2123497798
 51
136.286596354
  0
LWPOLYLINE
  5
E6
330
1F
100
AcDbEntity
  8
0
  6
Continuous
 62
     7
370
    15
100
AcDbPolyline
 90
        3
 70
   128
 43
0.0
 10
4.8020493757
 20
7.6141794177
 10
4.8022948929
 20
7.6142168814
 10
4.8053628308
 20
7.6140320744
  0
LWPOLYLINE
  5
E7
330
1F
100
AcDbEntity
  8
0
  6
Continuous
 62
     7
370
    15
100
AcDbPolyline
 90
        9
 70
   128
 43
0.0
 10
3.3341076069
 20
7.7196385086
 10
3.3295229332
 20
7.7198416441
 10
3.3251145507
 20
7.7204432455
 10
3.321051711
 20
7.7214201947
 10
3.3174906122
 20
7.7227349453
 10
3.3145680192
 20
7.724336976
 10
3.3123964243
 20
7.7261647194
 10
3.3110591331
 20
7.7281479369
 10
3.3106075517
 20
7.7302104131
  0
ARC
  5
E8
330
1F
100
AcDbEntity
  8
0
  6
Continuous
 62
     7
370
    15
100
AcDbCircle
 10
3.3329186615
 20
7.7288789871
 30
0.0
 40
0.0223508013071267
100
AcDbArc
 50
86.9507260207
 51
176.5848973339
  0
LINE
  5
E9
330
1F
100
AcDbEntity
  8
0
  6
Continuous
 62
     7
370
    15
100
AcDbLine
 10
3.3341076069
 20
7.7511981432
 30
0.0
 11
3.3341076069
 21
7.7196385086
 31
0.0
  0
LINE
  5
EA
330
1F
100
AcDbEntity
  8
0
  6
Continuous
 62
     7
370
    15
100
AcDbLine
 10
3.4231075787
 20
7.7511981432
 30
0.0
 11
3.4231075787
 21
7.7196385086
 31
0.0
  0
LINE
  5
EB
330
1F
100
AcDbEntity
  8
0
  6
Continuous
 62
     7
370
    15
100
AcDbLine
 10
3.4231075787
 20
7.7196385086
 30
0.0
 11
3.3341076069
 21
7.7196385086
 31
0.0
  0
LINE
  5
EC
330
1F
100
AcDbEntity
  8
0
  6
Continuous
 62
     7
370
    15
100
AcDbLine
 10
3.4231075787
 20
7.7511981432
 30
0.0
 11
3.3341076069
 21
7.7511981432
 31
0.0
  0
LINE
  5
ED
330
1F
100
AcDbEntity
  8
0
  6
Continuous
 62
     7
370
    15
100
AcDbLine
 10
3.3106075517
 20
7.6862254899
 30
0.0
 11
3.3106075517
 21
7.7302104131
 31
0.0
  0
LINE
  5
EE
330
1F
100
AcDbEntity
  8
0
  6
Continuous
 62
     7
370
    15
100
AcDbLine
 10
3.3341076069
 20
7.7196385086
 30
0.0
 11
3.3341076069
 21
7.6756535842
 31
0.0
  0
LWPOLYLINE
  5
EF
330
1F
100
AcDbEntity
  8
0
  6
Continuous
 62
     7
370
    15
100
AcDbPolyline
 90
        9
 70
   128
 43
0.0
 10
3.3341076069
 20
7.6756535842
 10
3.3295229332
 20
7.6758567207
 10
3.3251145507
 20
7.6764583229
 10
3.321051711
 20
7.6774352718
 10
3.3174906122
 20
7.6787500238
 10
3.3145680192
 20
7.6803520539
 10
3.3123964243
 20
7.6821797968
 10
3.3110591331
 20
7.6841630135
 10
3.3106075517
 20
7.6862254899
  0
LINE
  5
F0
330
1F
100
AcDbEntity
  8
0
  6
Continuous
 62
     7
370
    15
100
AcDbLine
 10
3.4231075787
 20
7.6756535842
 30
0.0
 11
3.3341076069
 21
7.6756535842
 31
0.0
  0
LINE
  5
F1
330
1F
100
AcDbEntity
  8
0
  6
Continuous
 62
     7
370
    15
100
AcDbLine
 10
3.4231075787
 20
7.7196385086
 30
0.0
 11
3.4231075787
 21
7.6756535842
 31
0.0
  0
LINE
  5
F2
330
1F
100
AcDbEntity
  8
0
  6
Continuous
 62
     7
370
    15
100
AcDbLine
 10
3.428537776
 20
7.7434858756
 30
0.0
 11
3.428537776
 21
7.7469536084
 31
0.0
  0
LINE
  5
F3
330
1F
100
AcDbEntity
  8
0
  6
Continuous
 62
     7
370
    15
100
AcDbLine
 10
3.428537776
 20
7.6820786083
 30
0.0
 11
3.428537776
 21
7.7434858756
 31
0.0
  0
LINE
  5
F4
330
1F
100
AcDbEntity
  8
0
  6
Continuous
 62
     7
370
    15
100
AcDbLine
 10
3.4250665094
 20
7.738116141
 30
0.0
 11
3.4250665094
 21
7.74094111
 31
0.0
  0
LINE
  5
F5
330
1F
100
AcDbEntity
  8
0
  6
Continuous
 62
     7
370
    15
100
AcDbLine
 10
3.4250665094
 20
7.6880911085
 30
0.0
 11
3.4250665094
 21
7.738116141
 31
0.0
  0
LINE
  5
F6
330
1F
100
AcDbEntity
  8
0
  6
Continuous
 62
     7
370
    15
100
AcDbLine
 10
3.3106075517
 20
7.7302104131
 30
0.0
 11
3.3106075517
 21
7.7533786342
 31
0.0
  0
ARC
  5
F7
330
1F
100
AcDbEntity
  8
0
  6
Continuous
 62
     7
370
    15
100
AcDbCircle
 10
3.3329186592
 20
7.752047206
 30
0.0
 40
0.0223507990800895
100
AcDbArc
 50
86.9507196482
 51
176.5848912738
  0
LINE
  5
F8
330
1F
100
AcDbEntity
  8
0
  6
Continuous
 62
     7
370
    15
100
AcDbLine
 10
3.3341076069
 20
7.7743663597
 30
0.0
 11
3.3341076069
 21
7.7511981432
 31
0.0
  0
LINE
  5
F9
330
1F
100
AcDbEntity
  8
0
  6
Continuous
 62
     7
370
    15
100
AcDbLine
 10
3.4231075787
 20
7.7743663597
 30
0.0
 11
3.3341076069
 21
7.7743663597
 31
0.0
  0
LINE
  5
FA
330
1F
100
AcDbEntity
  8
0
  6
Continuous
 62
     7
370
    15
100
AcDbLine
 10
3.4231075787
 20
7.7743663597
 30
0.0
 11
3.4231075787
 21
7.7511981432
 31
0.0
  0
LINE
  5
FB
330
1F
100
AcDbEntity
  8
0
  6
Continuous
 62
     7
370
    15
100
AcDbLine
 10
3.4231075787
 20
7.6756535842
 30
0.0
 11
3.4231075787
 21
7.6627254903
 31
0.0
  0
ARC
  5
FC
330
1F
100
AcDbEntity
  8
0
  6
Continuous
 62
     7
370
    15
100
AcDbCircle
 10
3.3593575585
 20
7.7237955775
 30
0.0
 40
0.0522119990616232
100
AcDbArc
 50
75.5961133706
 51
104.4038866294
  0
LWPOLYLINE
  5
FD
330
1F
100
AcDbEntity
  8
0
  6
Continuous
 62
     7
370
    15
100
AcDbPolyline
 90
        3
 70
   128
 43
0.0
 10
3.3593575952
 20
7.7771919612
 10
3.3685024495
 20
7.7763875588
 10
3.3762868396
 20
7.7743663597
  0
LWPOLYLINE
  5
FE
330
1F
100
AcDbEntity
  8
0
  6
Continuous
 62
     7
370
    15
100
AcDbPolyline
 90
        3
 70
   128
 43
0.0
 10
3.3424283507
 20
7.7743663597
 10
3.3502127408
 20
7.7763875588
 10
3.3593575952
 20
7.7771919612
  0
LWPOLYLINE
  5
FF
330
1F
100
AcDbEntity
  8
0
  6
Continuous
 62
     7
370
    15
100
AcDbPolyline
 90
        9
 70
   128
 43
0.0
 10
4.7722326068
 20
7.6279679509
 10
4.7768172072
 20
7.6279010625
 10
4.781225663
 20
7.6277029594
 10
4.7852885027
 20
7.6273812589
 10
4.7888496016
 20
7.6269483223
 10
4.7917721211
 20
7.6264207913
 10
4.7939437894
 20
7.6258189332
 10
4.7952810073
 20
7.6251658754
 10
4.7957325887
 20
7.6244867249
  0
ARC
  5
100
330
1F
100
AcDbEntity
  8
0
  6
Continuous
 62
     7
370
    15
100
AcDbCircle
 10
4.7723615591
 20
7.6246170426
 30
0.0
 40
0.0233713929524652
100
AcDbArc
 50
269.6838675301
 51
359.6805198329
  0
LINE
  5
101
330
1F
100
AcDbEntity
  8
0
  6
Continuous
 62
     7
370
    15
100
AcDbLine
 10
4.7722326068
 20
7.6012460054
 30
0.0
 11
4.7722326068
 21
7.6279679509
 31
0.0
  0
LINE
  5
102
330
1F
100
AcDbEntity
  8
0
  6
Continuous
 62
     7
370
    15
100
AcDbLine
 10
4.6832325617
 20
7.6279679509
 30
0.0
 11
4.7722326068
 21
7.6279679509
 31
0.0
  0
LINE
  5
103
330
1F
100
AcDbEntity
  8
0
  6
Continuous
 62
     7
370
    15
100
AcDbLine
 10
4.6832325617
 20
7.6012460054
 30
0.0
 11
4.7722326068
 21
7.6012460054
 31
0.0
  0
LINE
  5
104
330
1F
100
AcDbEntity
  8
0
  6
Continuous
 62
     7
370
    15
100
AcDbLine
 10
4.7957325887
 20
7.6731933383
 30
0.0
 11
4.7957325887
 21
7.6244867249
 31
0.0
  0
LINE
  5
105
330
1F
100
AcDbEntity
  8
0
  6
Continuous
 62
     7
370
    15
100
AcDbLine
 10
4.7722326068
 20
7.6279679509
 30
0.0
 11
4.7722326068
 21
7.6766745661
 31
0.0
  0
LWPOLYLINE
  5
106
330
1F
100
AcDbEntity
  8
0
  6
Continuous
 62
     7
370
    15
100
AcDbPolyline
 90
        9
 70
   128
 43
0.0
 10
4.7722326068
 20
7.6766745661
 10
4.7768172072
 20
7.6766076751
 10
4.781225663
 20
7.6764095734
 10
4.7852885027
 20
7.6760878733
 10
4.7888496016
 20
7.675654938
 10
4.7917721211
 20
7.6751274048
 10
4.7939437894
 20
7.6745255467
 10
4.7952810073
 20
7.6738724923
 10
4.7957325887
 20
7.6731933383
  0
LINE
  5
107
330
1F
100
AcDbEntity
  8
0
  6
Continuous
 62
     7
370
    15
100
AcDbLine
 10
4.6832325617
 20
7.6766745661
 30
0.0
 11
4.7722326068
 21
7.6766745661
 31
0.0
  0
LINE
  5
108
330
1F
100
AcDbEntity
  8
0
  6
Continuous
 62
     7
370
    15
100
AcDbLine
 10
4.7957325887
 20
7.6244867249
 30
0.0
 11
4.7957325887
 21
7.6168576484
 31
0.0
  0
ARC
  5
109
330
1F
100
AcDbEntity
  8
0
  6
Continuous
 62
     7
370
    15
100
AcDbCircle
 10
4.7723615617
 20
7.6169879682
 30
0.0
 40
0.0233713903809611
100
AcDbArc
 50
269.6838611636
 51
359.6805149008
  0
LINE
  5
10A
330
1F
100
AcDbEntity
  8
0
  6
Continuous
 62
     7
370
    15
100
AcDbLine
 10
4.7722326068
 20
7.5936169336
 30
0.0
 11
4.7722326068
 21
7.6012460054
 31
0.0
  0
LINE
  5
10B
330
1F
100
AcDbEntity
  8
0
  6
Continuous
 62
     7
370
    15
100
AcDbLine
 10
4.6832325617
 20
7.5936169336
 30
0.0
 11
4.7722326068
 21
7.5936169336
 31
0.0
  0
LWPOLYLINE
  5
10C
330
1F
100
AcDbEntity
  8
0
  6
Continuous
 62
     7
370
    15
100
AcDbPolyline
 90
        3
 70
   128
 43
0.0
 10
4.7494031039
 20
7.5936169336
 10
4.7469826185
 20
7.5935550868
 10
4.7445621332
 20
7.5936169336
  0
CIRCLE
  5
10D
330
1F
100
AcDbEntity
  8
0
  6
Continuous
 62
     7
370
    15
100
AcDbCircle
 10
4.0561075863
 20
7.3525161082
 30
0.0
 40
0.0608726291492561
  0
CIRCLE
  5
10E
330
1F
100
AcDbEntity
  8
0
  6
Continuous
 62
     7
370
    15
100
AcDbCircle
 10
4.0561075863
 20
7.3525161082
 30
0.0
 40
0.0685578333233927
  0
CIRCLE
  5
10F
330
1F
100
AcDbEntity
  8
0
  6
Continuous
 62
     7
370
    15
100
AcDbCircle
 10
4.0561075863
 20
7.3525161082
 30
0.0
 40
0.0543750000000003
  0
CIRCLE
  5
110
330
1F
100
AcDbEntity
  8
0
  6
Continuous
 62
     7
370
    15
100
AcDbCircle
 10
4.0561075863
 20
7.3525161082
 30
0.0
 40
0.0703125
  0
CIRCLE
  5
111
330
1F
100
AcDbEntity
  8
0
  6
Continuous
 62
     7
370
    15
100
AcDbCircle
 10
4.0561075863
 20
7.3525161082
 30
0.0
 40
0.0740625000000001
  0
CIRCLE
  5
112
330
1F
100
AcDbEntity
  8
0
  6
Continuous
 62
     7
370
    15
100
AcDbCircle
 10
4.0561075863
 20
7.3525161082
 30
0.0
 40
0.0794312499999998
  0
CIRCLE
  5
113
330
1F
100
AcDbEntity
  8
0
  6
Continuous
 62
     7
370
    15
100
AcDbCircle
 10
4.0561075863
 20
7.3525161082
 30
0.0
 40
0.08984375
  0
LINE
  5
114
330
1F
100
AcDbEntity
  8
0
  6
Continuous
 62
     7
370
    15
100
AcDbLine
 10
4.0561075863
 20
7.4614909699
 30
0.0
 11
4.1504825819
 21
7.4070035393
 31
0.0
  0
LINE
  5
115
330
1F
100
AcDbEntity
  8
0
  6
Continuous
 62
     7
370
    15
100
AcDbLine
 10
4.1504825819
 20
7.4070035393
 30
0.0
 11
4.1504825819
 21
7.2980286782
 31
0.0
  0
LINE
  5
116
330
1F
100
AcDbEntity
  8
0
  6
Continuous
 62
     7
370
    15
100
AcDbLine
 10
4.0561075863
 20
7.2435412477
 30
0.0
 11
3.9617325906
 21
7.2980286782
 31
0.0
  0
LINE
  5
117
330
1F
100
AcDbEntity
  8
0
  6
Continuous
 62
     7
370
    15
100
AcDbLine
 10
4.1504825819
 20
7.2980286782
 30
0.0
 11
4.0561075863
 21
7.2435412477
 31
0.0
  0
LINE
  5
118
330
1F
100
AcDbEntity
  8
0
  6
Continuous
 62
     7
370
    15
100
AcDbLine
 10
3.9617325906
 20
7.4070035393
 30
0.0
 11
4.0561075863
 21
7.4614909699
 31
0.0
  0
LINE
  5
119
330
1F
100
AcDbEntity
  8
0
  6
Continuous
 62
     7
370
    15
100
AcDbLine
 10
3.9617325906
 20
7.2980286782
 30
0.0
 11
3.9617325906
 21
7.4070035393
 31
0.0
  0
LWPOLYLINE
  5
11A
330
1F
100
AcDbEntity
  8
0
  6
Continuous
 62
     7
370
    15
100
AcDbPolyline
 90
        3
 70
   128
 43
0.0
 10
4.1515450871
 20
7.3525161088
 10
4.1506561782
 20
7.3655115053
 10
4.1504825819
 20
7.3667173847
  0
ARC
  5
11B
330
1F
100
AcDbEntity
  8
0
  6
Continuous
 62
     7
370
    15
100
AcDbCircle
 10
4.0561075863
 20
7.3525161082
 30
0.0
 40
0.0954375000000001
100
AcDbArc
 50
51.442511743
 51
68.557488257
  0
ARC
  5
11C
330
1F
100
AcDbEntity
  8
0
  6
Continuous
 62
     7
370
    15
100
AcDbCircle
 10
4.0561075863
 20
7.3525161082
 30
0.0
 40
0.0954375000000002
100
AcDbArc
 50
111.4425117431
 51
128.557488257
  0
ARC
  5
11D
330
1F
100
AcDbEntity
  8
0
  6
Continuous
 62
     7
370
    15
100
AcDbCircle
 10
4.0561075863
 20
7.3525161082
 30
0.0
 40
0.0954375
100
AcDbArc
 50
171.4425117431
 51
188.5574882569
  0
ARC
  5
11E
330
1F
100
AcDbEntity
  8
0
  6
Continuous
 62
     7
370
    15
100
AcDbCircle
 10
4.0561075863
 20
7.3525161082
 30
0.0
 40
0.0954375
100
AcDbArc
 50
231.4425117431
 51
248.5574882569
  0
ARC
  5
11F
330
1F
100
AcDbEntity
  8
0
  6
Continuous
 62
     7
370
    15
100
AcDbCircle
 10
4.0561075863
 20
7.3525161082
 30
0.0
 40
0.0954375000000003
100
AcDbArc
 50
291.4425117431
 51
308.5574882569
  0
LWPOLYLINE
  5
120
330
1F
100
AcDbEntity
  8
0
  6
Continuous
 62
     7
370
    15
100
AcDbPolyline
 90
        3
 70
   128
 43
0.0
 10
4.1504825819
 20
7.3383148328
 10
4.1506561782
 20
7.3395207122
 10
4.1515450871
 20
7.3525161088
  0
CIRCLE
  5
121
330
1F
100
AcDbEntity
  8
0
  6
Continuous
 62
     7
370
    15
100
AcDbCircle
 10
4.0561075863
 20
8.0087661082
 30
0.0
 40
0.0608726291492561
  0
CIRCLE
  5
122
330
1F
100
AcDbEntity
  8
0
  6
Continuous
 62
     7
370
    15
100
AcDbCircle
 10
4.0561075863
 20
8.0087661082
 30
0.0
 40
0.0685578333233927
  0
CIRCLE
  5
123
330
1F
100
AcDbEntity
  8
0
  6
Continuous
 62
     7
370
    15
100
AcDbCircle
 10
4.0561075863
 20
8.0087661082
 30
0.0
 40
0.0543750000000003
  0
CIRCLE
  5
124
330
1F
100
AcDbEntity
  8
0
  6
Continuous
 62
     7
370
    15
100
AcDbCircle
 10
4.0561075863
 20
8.0087661082
 30
0.0
 40
0.0703125
  0
CIRCLE
  5
125
330
1F
100
AcDbEntity
  8
0
  6
Continuous
 62
     7
370
    15
100
AcDbCircle
 10
4.0561075863
 20
8.0087661082
 30
0.0
 40
0.0740625000000001
  0
CIRCLE
  5
126
330
1F
100
AcDbEntity
  8
0
  6
Continuous
 62
     7
370
    15
100
AcDbCircle
 10
4.0561075863
 20
8.0087661082
 30
0.0
 40
0.0794312499999998
  0
CIRCLE
  5
127
330
1F
100
AcDbEntity
  8
0
  6
Continuous
 62
     7
370
    15
100
AcDbCircle
 10
4.0561075863
 20
8.0087661082
 30
0.0
 40
0.08984375
  0
LINE
  5
128
330
1F
100
AcDbEntity
  8
0
  6
Continuous
 62
     7
370
    15
100
AcDbLine
 10
4.0561075863
 20
8.1177409688
 30
0.0
 11
4.1504825819
 21
8.0632535383
 31
0.0
  0
LINE
  5
129
330
1F
100
AcDbEntity
  8
0
  6
Continuous
 62
     7
370
    15
100
AcDbLine
 10
4.1504825819
 20
8.0632535383
 30
0.0
 11
4.1504825819
 21
7.9542786772
 31
0.0
  0
LINE
  5
12A
330
1F
100
AcDbEntity
  8
0
  6
Continuous
 62
     7
370
    15
100
AcDbLine
 10
4.1504825819
 20
7.9542786772
 30
0.0
 11
4.0561075863
 21
7.8997912466
 31
0.0
  0
LINE
  5
12B
330
1F
100
AcDbEntity
  8
0
  6
Continuous
 62
     7
370
    15
100
AcDbLine
 10
4.0561075863
 20
7.8997912466
 30
0.0
 11
3.9617325906
 21
7.9542786772
 31
0.0
  0
LINE
  5
12C
330
1F
100
AcDbEntity
  8
0
  6
Continuous
 62
     7
370
    15
100
AcDbLine
 10
3.9617325906
 20
7.9542786772
 30
0.0
 11
3.9617325906
 21
8.0632535383
 31
0.0
  0
LINE
  5
12D
330
1F
100
AcDbEntity
  8
0
  6
Continuous
 62
     7
370
    15
100
AcDbLine
 10
3.9617325906
 20
8.0632535383
 30
0.0
 11
4.0561075863
 21
8.1177409688
 31
0.0
  0
LWPOLYLINE
  5
12E
330
1F
100
AcDbEntity
  8
0
  6
Continuous
 62
     7
370
    15
100
AcDbPolyline
 90
        3
 70
   128
 43
0.0
 10
4.1515450871
 20
8.0087661077
 10
4.1506561782
 20
8.0217615043
 10
4.1504825819
 20
8.0229673837
  0
ARC
  5
12F
330
1F
100
AcDbEntity
  8
0
  6
Continuous
 62
     7
370
    15
100
AcDbCircle
 10
4.0561075863
 20
8.0087661082
 30
0.0
 40
0.0954374999999994
100
AcDbArc
 50
51.442511743
 51
68.557488257
  0
ARC
  5
130
330
1F
100
AcDbEntity
  8
0
  6
Continuous
 62
     7
370
    15
100
AcDbCircle
 10
4.0561075863
 20
8.0087661082
 30
0.0
 40
0.0954375000000002
100
AcDbArc
 50
111.4425117431
 51
128.557488257
  0
ARC
  5
131
330
1F
100
AcDbEntity
  8
0
  6
Continuous
 62
     7
370
    15
100
AcDbCircle
 10
4.0561075863
 20
8.0087661082
 30
0.0
 40
0.0954375
100
AcDbArc
 50
171.4425117431
 51
188.557488257
  0
ARC
  5
132
330
1F
100
AcDbEntity
  8
0
  6
Continuous
 62
     7
370
    15
100
AcDbCircle
 10
4.0561075863
 20
8.0087661082
 30
0.0
 40
0.0954375000000004
100
AcDbArc
 50
231.4425117431
 51
248.5574882569
  0
ARC
  5
133
330
1F
100
AcDbEntity
  8
0
  6
Continuous
 62
     7
370
    15
100
AcDbCircle
 10
4.0561075863
 20
8.0087661082
 30
0.0
 40
0.0954375000000001
100
AcDbArc
 50
291.4425117431
 51
308.5574882569
  0
LWPOLYLINE
  5
134
330
1F
100
AcDbEntity
  8
0
  6
Continuous
 62
     7
370
    15
100
AcDbPolyline
 90
        3
 70
   128
 43
0.0
 10
4.1504825819
 20
7.9945648318
 10
4.1506561782
 20
7.9957707112
 10
4.1515450871
 20
8.0087661077
  0
LINE
  5
135
330
1F
100
AcDbEntity
  8
0
  6
Continuous
 62
     7
370
    15
100
AcDbLine
 10
3.9454825884
 20
7.1221411134
 30
0.0
 11
3.9454825884
 21
7.2158911237
 31
0.0
  0
LINE
  5
136
330
1F
100
AcDbEntity
  8
0
  6
Continuous
 62
     7
370
    15
100
AcDbLine
 10
4.164232588
 20
7.1221411134
 30
0.0
 11
4.164232588
 21
7.2158911237
 31
0.0
  0
LINE
  5
137
330
1F
100
AcDbEntity
  8
0
  6
Continuous
 62
     7
370
    15
100
AcDbLine
 10
3.9454825884
 20
7.1221411134
 30
0.0
 11
4.164232588
 21
7.1221411134
 31
0.0
  0
LINE
  5
138
330
1F
100
AcDbEntity
  8
0
  6
Continuous
 62
     7
370
    15
100
AcDbLine
 10
4.0561075863
 20
7.9667660996
 30
0.0
 11
4.0906422167
 21
7.9667660996
 31
0.0
  0
LINE
  5
139
330
1F
100
AcDbEntity
  8
0
  6
Continuous
 62
     7
370
    15
100
AcDbLine
 10
4.0215729558
 20
7.9667660996
 30
0.0
 11
4.0561075863
 21
7.9667660996
 31
0.0
  0
LINE
  5
13A
330
1F
100
AcDbEntity
  8
0
  6
Continuous
 62
     7
370
    15
100
AcDbLine
 10
4.0561075863
 20
7.9655161107
 30
0.0
 11
4.0231518868
 21
7.9655161107
 31
0.0
  0
LINE
  5
13B
330
1F
100
AcDbEntity
  8
0
  6
Continuous
 62
     7
370
    15
100
AcDbLine
 10
4.0890632858
 20
7.9655161107
 30
0.0
 11
4.0561075863
 21
7.9655161107
 31
0.0
  0
LINE
  5
13C
330
1F
100
AcDbEntity
  8
0
  6
Continuous
 62
     7
370
    15
100
AcDbLine
 10
3.507107595
 20
7.1265160929
 30
0.0
 11
3.507107595
 21
8.2347661236
 31
0.0
  0
LINE
  5
13D
330
1F
100
AcDbEntity
  8
0
  6
Continuous
 62
     7
370
    15
100
AcDbLine
 10
3.5678575832
 20
7.1265160929
 30
0.0
 11
3.5678575832
 21
8.2347661236
 31
0.0
  0
LINE
  5
13E
330
1F
100
AcDbEntity
  8
0
  6
Continuous
 62
     7
370
    15
100
AcDbLine
 10
3.797188159
 20
7.155096696
 30
0.0
 11
3.797188159
 21
8.2061855204
 31
0.0
  0
LINE
  5
13F
330
1F
100
AcDbEntity
  8
0
  6
Continuous
 62
     7
370
    15
100
AcDbLine
 10
3.4289826109
 20
7.2046411137
 30
0.0
 11
3.4289826109
 21
8.1566411028
 31
0.0
  0
LINE
  5
140
330
1F
100
AcDbEntity
  8
0
  6
Continuous
 62
     7
370
    15
100
AcDbLine
 10
3.8186075882
 20
7.6806411082
 30
0.0
 11
3.8186075882
 21
7.1765161253
 31
0.0
  0
LINE
  5
141
330
1F
100
AcDbEntity
  8
0
  6
Continuous
 62
     7
370
    15
100
AcDbLine
 10
3.8186075882
 20
8.1847660912
 30
0.0
 11
3.8186075882
 21
7.6806411082
 31
0.0
  0
LINE
  5
142
330
1F
100
AcDbEntity
  8
0
  6
Continuous
 62
     7
370
    15
100
AcDbLine
 10
4.5443575893
 20
8.2347661236
 30
0.0
 11
4.5443575893
 21
7.1265160929
 31
0.0
  0
LINE
  5
143
330
1F
100
AcDbEntity
  8
0
  6
Continuous
 62
     7
370
    15
100
AcDbLine
 10
4.3150270135
 20
8.2061855204
 30
0.0
 11
4.3150270135
 21
7.155096696
 31
0.0
  0
LINE
  5
144
330
1F
100
AcDbEntity
  8
0
  6
Continuous
 62
     7
370
    15
100
AcDbLine
 10
4.6051075775
 20
8.2347661236
 30
0.0
 11
4.6051075775
 21
7.1265160929
 31
0.0
  0
LINE
  5
145
330
1F
100
AcDbEntity
  8
0
  6
Continuous
 62
     7
370
    15
100
AcDbLine
 10
4.6832325617
 20
8.1566411028
 30
0.0
 11
4.6832325617
 21
7.2046411137
 31
0.0
  0
LINE
  5
146
330
1F
100
AcDbEntity
  8
0
  6
Continuous
 62
     7
370
    15
100
AcDbLine
 10
4.2936075843
 20
7.6806411082
 30
0.0
 11
4.2936075843
 21
8.1847660912
 31
0.0
  0
LINE
  5
147
330
1F
100
AcDbEntity
  8
0
  6
Continuous
 62
     7
370
    15
100
AcDbLine
 10
4.2936075843
 20
7.1765161253
 30
0.0
 11
4.2936075843
 21
7.6806411082
 31
0.0
  0
LINE
  5
148
330
1F
100
AcDbEntity
  8
0
  6
Continuous
 62
     7
370
    15
100
AcDbLine
 10
3.8258575861
 20
7.2158911237
 30
0.0
 11
4.2863575864
 21
7.2158911237
 31
0.0
  0
LINE
  5
149
330
1F
100
AcDbEntity
  8
0
  6
Continuous
 62
     7
370
    15
100
AcDbLine
 10
3.8258575861
 20
7.2158911237
 30
0.0
 11
3.8258575861
 21
8.1391411116
 31
0.0
  0
LINE
  5
14A
330
1F
100
AcDbEntity
  8
0
  6
Continuous
 62
     7
370
    15
100
AcDbLine
 10
4.2863575864
 20
8.1391411116
 30
0.0
 11
3.8258575861
 21
8.1391411116
 31
0.0
  0
LINE
  5
14B
330
1F
100
AcDbEntity
  8
0
  6
Continuous
 62
     7
370
    15
100
AcDbLine
 10
4.2863575864
 20
7.2158911237
 30
0.0
 11
4.2863575864
 21
8.1391411116
 31
0.0
  0
LINE
  5
14C
330
1F
100
AcDbEntity
  8
0
  6
Continuous
 62
     7
370
    15
100
AcDbLine
 10
3.8258575861
 20
8.1703910906
 30
0.0
 11
4.2863575864
 21
8.1703910906
 31
0.0
  0
LINE
  5
14D
330
1F
100
AcDbEntity
  8
0
  6
Continuous
 62
     7
370
    15
100
AcDbLine
 10
4.2863575864
 20
8.1703910906
 30
0.0
 11
4.2863575864
 21
8.1391411116
 31
0.0
  0
LINE
  5
14E
330
1F
100
AcDbEntity
  8
0
  6
Continuous
 62
     7
370
    15
100
AcDbLine
 10
3.8258575861
 20
8.1391411116
 30
0.0
 11
3.8258575861
 21
8.1703910906
 31
0.0
  0
LINE
  5
14F
330
1F
100
AcDbEntity
  8
0
  6
Continuous
 62
     7
370
    15
100
AcDbLine
 10
3.8186407162
 20
8.1453910927
 30
0.0
 11
3.8186407162
 21
7.2158911237
 31
0.0
  0
LINE
  5
150
330
1F
100
AcDbEntity
  8
0
  6
Continuous
 62
     7
370
    15
100
AcDbLine
 10
4.2935744563
 20
8.1453910927
 30
0.0
 11
4.2935744563
 21
7.2158911237
 31
0.0
  0
LINE
  5
151
330
1F
100
AcDbEntity
  8
0
  6
Continuous
 62
     8
370
    15
100
AcDbLine
 10
3.3024826055
 20
7.4473738246
 30
0.0
 11
3.3024826055
 21
7.431585322
 31
0.0
  0
LINE
  5
152
330
1F
100
AcDbEntity
  8
0
  6
Continuous
 62
     8
370
    15
100
AcDbLine
 10
3.3341076069
 20
7.6756535842
 30
0.0
 11
3.3341076069
 21
7.6627254903
 31
0.0
  0
LINE
  5
153
330
1F
100
AcDbEntity
  8
0
  6
Continuous
 62
     8
370
    15
100
AcDbLine
 10
4.7722326068
 20
7.6766745661
 30
0.0
 11
4.7722326068
 21
7.6966933385
 31
0.0
  0
ARC
  5
154
330
1F
100
AcDbEntity
  8
0
  6
Continuous
 62
     8
370
    15
100
AcDbCircle
 10
4.7469825819
 20
7.5624391649
 30
0.0
 40
0.0231258397802977
100
AcDbArc
 50
180.4893905972
 51
359.5106094028
  0
ARC
  5
155
330
1F
100
AcDbEntity
  8
0
  6
Continuous
 62
     8
370
    15
100
AcDbCircle
 10
3.3606332826
 20
8.0051115539
 30
0.0
 40
0.0218817477951269
100
AcDbArc
 50
3.1219748959
 51
93.3421905724
  0
ARC
  5
156
330
1F
100
AcDbEntity
  8
0
  6
Continuous
 62
     8
370
    15
100
AcDbCircle
 10
3.3580820334
 20
8.0051113356
 30
0.0
 40
0.0218819583144351
100
AcDbArc
 50
86.6581710416
 51
176.8774829526
  0
LWPOLYLINE
  5
157
330
1F
100
AcDbEntity
  8
0
  6
Continuous
 62
     8
370
    15
100
AcDbPolyline
 90
        3
 70
   128
 43
0.0
 10
3.3053387592
 20
7.7166786009
 10
3.3042104656
 20
7.7116348475
 10
3.3039826215
 20
7.7080766567
  0
ENDSEC
  0
SECTION
  2
OBJECTS
  0
DICTIONARY
  5
C
330
0
100
AcDbDictionary
281
     1
  3
ACAD_GROUP
350
D
  3
ACAD_LAYOUT
350
1A
  3
ACAD_MLINESTYLE
350
17
  3
ACAD_PLOTSETTINGS
350
19
  3
ACAD_PLOTSTYLENAME
350
E
  0
DICTIONARY
  5
D
102
{ACAD_REACTORS
330
C
102
}
330
C
100
AcDbDictionary
281
     1
  0
DICTIONARY
  5
1A
102
{ACAD_REACTORS
330
C
102
}
330
C
100
AcDbDictionary
281
     1
  3
Layout1
350
1E
  3
Layout2
350
26
  3
Model
350
22
  0
DICTIONARY
  5
17
102
{ACAD_REACTORS
330
C
102
}
330
C
100
AcDbDictionary
281
     1
  3
Standard
350
18
  0
DICTIONARY
  5
19
102
{ACAD_REACTORS
330
C
102
}
330
C
100
AcDbDictionary
281
     1
  0
ACDBDICTIONARYWDFLT
  5
E
102
{ACAD_REACTORS
330
C
102
}
330
C
100
AcDbDictionary
281
     1
  3
Normal
350
F
100
AcDbDictionaryWithDefault
340
F
  0
LAYOUT
  5
1E
102
{ACAD_REACTORS
330
1A
102
}
330
1A
100
AcDbPlotSettings
  1

  2
none_device
  4

  6

 40
0.0
 41
0.0
 42
0.0
 43
0.0
 44
0.0
 45
0.0
 46
0.0
 47
0.0
 48
0.0
 49
0.0
140
0.0
141
0.0
142
1.0
143
1.0
 70
   688
 72
     0
 73
     0
 74
     5
  7

 75
    16
147
1.0
148
0.0
149
0.0
100
AcDbLayout
  1
Layout1
 70
     1
 71
     1
 10
0.0
 20
0.0
 11
12.0
 21
9.0
 12
0.0
 22
0.0
 32
0.0
 14
1.0000000000E+20
 24
1.0000000000E+20
 34
1.0000000000E+20
 15
-1.0000000000E+20
 25
-1.0000000000E+20
 35
-1.0000000000E+20
146
0.0
 13
0.0
 23
0.0
 33
0.0
 16
1.0
 26
0.0
 36
0.0
 17
0.0
 27
1.0
 37
0.0
 76
     0
330
1B
  0
LAYOUT
  5
26
102
{ACAD_REACTORS
330
1A
102
}
330
1A
100
AcDbPlotSettings
  1

  2
none_device
  4

  6

 40
0.0
 41
0.0
 42
0.0
 43
0.0
 44
0.0
 45
0.0
 46
0.0
 47
0.0
 48
0.0
 49
0.0
140
0.0
141
0.0
142
1.0
143
1.0
 70
   688
 72
     0
 73
     0
 74
     5
  7

 75
    16
147
1.0
148
0.0
149
0.0
100
AcDbLayout
  1
Layout2
 70
     1
 71
     2
 10
0.0
 20
0.0
 11
0.0
 21
0.0
 12
0.0
 22
0.0
 32
0.0
 14
0.0
 24
0.0
 34
0.0
 15
0.0
 25
0.0
 35
0.0
146
0.0
 13
0.0
 23
0.0
 33
0.0
 16
1.0
 26
0.0
 36
0.0
 17
0.0
 27
1.0
 37
0.0
 76
     0
330
23
  0
LAYOUT
  5
22
102
{ACAD_REACTORS
330
1A
102
}
330
1A
100
AcDbPlotSettings
  1

  2
none_device
  4

  6

 40
0.0
 41
0.0
 42
0.0
 43
0.0
 44
0.0
 45
0.0
 46
0.0
 47
0.0
 48
0.0
 49
0.0
140
0.0
141
0.0
142
1.0
143
1.0
 70
  1712
 72
     0
 73
     0
 74
     0
  7

 75
     0
147
1.0
148
0.0
149
0.0
100
AcDbLayout
  1
Model
 70
     1
 71
     0
 10
0.0
 20
0.0
 11
8.5
 21
11.0
 12
0.0
 22
0.0
 32
0.0
 14
0.0
 24
0.0
 34
0.0
 15
8.5
 25
11.0
 35
0.0
146
0.0
 13
0.0
 23
0.0
 33
0.0
 16
1.0
 26
0.0
 36
0.0
 17
0.0
 27
1.0
 37
0.0
 76
     0
330
1F
331
29
  0
MLINESTYLE
  5
18
102
{ACAD_REACTORS
330
17
102
}
330
17
100
AcDbMlineStyle
  2
Standard
 70
     0
  3

 62
   256
 51
90.0
 52
90.0
 71
     2
 49
0.5
 62
   256
  6
BYLAYER
 49
-0.5
 62
   256
  6
BYLAYER
  0
ACDBPLACEHOLDER
  5
F
102
{ACAD_REACTORS
330
E
102
}
330
E
  0
ENDSEC
  0
EOF
