  0
SECTION
  2
HEADER
  9
$ACADVER
  1
AC1015
  9
$ACADMAINTVER
 70
     6
  9
$DWGCODEPAGE
  3
ANSI_1252
  9
$INSBASE
 10
0.0
 20
0.0
 30
0.0
  9
$EXTMIN
 10
0.0
 20
0.0
 30
0.0
  9
$EXTMAX
 10
8.5
 20
11.0
 30
0.0
  9
$LIMMIN
 10
0.0
 20
0.0
  9
$LIMMAX
 10
8.5
 20
11.0
  9
$ORTHOMODE
 70
     0
  9
$REGENMODE
 70
     1
  9
$FILLMODE
 70
     1
  9
$QTEXTMODE
 70
     0
  9
$MIRRTEXT
 70
     1
  9
$LTSCALE
 40
1.0
  9
$ATTMODE
 70
     1
  9
$TEXTSIZE
 40
0.125
  9
$TRACEWID
 40
0.05
  9
$TEXTSTYLE
  7
Standard
  9
$CLAYER
  8
0
  9
$CELTYPE
  6
ByLayer
  9
$CECOLOR
 62
   256
  9
$CELTSCALE
 40
1.0
  9
$DISPSILH
 70
     0
  9
$DIMSCALE
 40
1.0
  9
$DIMASZ
 40
0.13
  9
$DIMEXO
 40
0.05
  9
$DIMDLI
 40
0.38
  9
$DIMRND
 40
0.0
  9
$DIMDLE
 40
0.0
  9
$DIMEXE
 40
0.125
  9
$DIMTP
 40
0.0
  9
$DIMTM
 40
0.0
  9
$DIMTXT
 40
0.1527777778
  9
$DIMCEN
 40
0.09
  9
$DIMTSZ
 40
0.0
  9
$DIMTOL
 70
     0
  9
$DIMLIM
 70
     0
  9
$DIMTIH
 70
     1
  9
$DIMTOH
 70
     1
  9
$DIMSE1
 70
     0
  9
$DIMSE2
 70
     0
  9
$DIMTAD
 70
     1
  9
$DIMZIN
 70
     0
  9
$DIMBLK
  1

  9
$DIMASO
 70
     1
  9
$DIMSHO
 70
     1
  9
$DIMPOST
  1

  9
$DIMAPOST
  1

  9
$DIMALT
 70
     0
  9
$DIMALTD
 70
     2
  9
$DIMALTF
 40
25.4
  9
$DIMLFAC
 40
8.0
  9
$DIMTOFL
 70
     0
  9
$DIMTVP
 40
0.0
  9
$DIMTIX
 70
     0
  9
$DIMSOXD
 70
     0
  9
$DIMSAH
 70
     0
  9
$DIMBLK1
  1

  9
$DIMBLK2
  1

  9
$DIMSTYLE
  2
Standard
  9
$DIMCLRD
 70
     0
  9
$DIMCLRE
 70
     0
  9
$DIMCLRT
 70
     0
  9
$DIMTFAC
 40
1.0
  9
$DIMGAP
 40
0.06
  9
$DIMJUST
 70
     0
  9
$DIMSD1
 70
     0
  9
$DIMSD2
 70
     0
  9
$DIMTOLJ
 70
     1
  9
$DIMTZIN
 70
     0
  9
$DIMALTZ
 70
     0
  9
$DIMALTTZ
 70
     0
  9
$DIMUPT
 70
     0
  9
$DIMDEC
 70
     2
  9
$DIMTDEC
 70
     2
  9
$DIMALTU
 70
     2
  9
$DIMALTTD
 70
     2
  9
$DIMTXSTY
  7
Standard
  9
$DIMAUNIT
 70
     0
  9
$DIMADEC
 70
     2
  9
$DIMALTRND
 40
0.0
  9
$DIMAZIN
 70
     0
  9
$DIMDSEP
 70
    46
  9
$DIMATFIT
 70
     3
  9
$DIMFRAC
 70
     0
  9
$DIMLDRBLK
  1

  9
$DIMLUNIT
 70
     2
  9
$DIMLWD
 70
    -2
  9
$DIMLWE
 70
    -2
  9
$DIMTMOVE
 70
     0
  9
$LUNITS
 70
     2
  9
$LUPREC
 70
     3
  9
$SKETCHINC
 40
0.1
  9
$FILLETRAD
 40
0.5
  9
$AUNITS
 70
     0
  9
$AUPREC
 70
     2
  9
$MENU
  1
.
  9
$ELEVATION
 40
0.0
  9
$PELEVATION
 40
0.0
  9
$THICKNESS
 40
0.0
  9
$LIMCHECK
 70
     0
  9
$CHAMFERA
 40
0.5
  9
$CHAMFERB
 40
0.5
  9
$CHAMFERC
 40
1.0
  9
$CHAMFERD
 40
0.0
  9
$SKPOLY
 70
     0
  9
$TDCREATE
 40
2456115.491469595
  9
$TDUCREATE
 40
2456115.741469595
  9
$TDUPDATE
 40
2456115.491470173
  9
$TDUUPDATE
 40
2456115.741470173
  9
$TDINDWG
 40
0.0000000116
  9
$TDUSRTIMER
 40
0.0000000116
  9
$USRTIMER
 70
     1
  9
$ANGBASE
 50
0.0
  9
$ANGDIR
 70
     0
  9
$PDMODE
 70
     0
  9
$PDSIZE
 40
-1.0
  9
$PLINEWID
 40
0.0
  9
$SPLFRAME
 70
     0
  9
$SPLINETYPE
 70
     6
  9
$SPLINESEGS
 70
     8
  9
$HANDSEED
  5
187
  9
$SURFTAB1
 70
     6
  9
$SURFTAB2
 70
     6
  9
$SURFTYPE
 70
     6
  9
$SURFU
 70
     6
  9
$SURFV
 70
     6
  9
$UCSBASE
  2

  9
$UCSNAME
  2

  9
$UCSORG
 10
0.0
 20
0.0
 30
0.0
  9
$UCSXDIR
 10
1.0
 20
0.0
 30
0.0
  9
$UCSYDIR
 10
0.0
 20
1.0
 30
0.0
  9
$UCSORTHOREF
  2

  9
$UCSORTHOVIEW
 70
     0
  9
$UCSORGTOP
 10
0.0
 20
0.0
 30
0.0
  9
$UCSORGBOTTOM
 10
0.0
 20
0.0
 30
0.0
  9
$UCSORGLEFT
 10
0.0
 20
0.0
 30
0.0
  9
$UCSORGRIGHT
 10
0.0
 20
0.0
 30
0.0
  9
$UCSORGFRONT
 10
0.0
 20
0.0
 30
0.0
  9
$UCSORGBACK
 10
0.0
 20
0.0
 30
0.0
  9
$PUCSBASE
  2

  9
$PUCSNAME
  2

  9
$PUCSORG
 10
0.0
 20
0.0
 30
0.0
  9
$PUCSXDIR
 10
1.0
 20
0.0
 30
0.0
  9
$PUCSYDIR
 10
0.0
 20
1.0
 30
0.0
  9
$PUCSORTHOREF
  2

  9
$PUCSORTHOVIEW
 70
     0
  9
$PUCSORGTOP
 10
0.0
 20
0.0
 30
0.0
  9
$PUCSORGBOTTOM
 10
0.0
 20
0.0
 30
0.0
  9
$PUCSORGLEFT
 10
0.0
 20
0.0
 30
0.0
  9
$PUCSORGRIGHT
 10
0.0
 20
0.0
 30
0.0
  9
$PUCSORGFRONT
 10
0.0
 20
0.0
 30
0.0
  9
$PUCSORGBACK
 10
0.0
 20
0.0
 30
0.0
  9
$USERI1
 70
     0
  9
$USERI2
 70
     0
  9
$USERI3
 70
     0
  9
$USERI4
 70
     0
  9
$USERI5
 70
     0
  9
$USERR1
 40
0.0
  9
$USERR2
 40
0.0
  9
$USERR3
 40
0.0
  9
$USERR4
 40
0.0
  9
$USERR5
 40
0.0
  9
$WORLDVIEW
 70
     1
  9
$SHADEDGE
 70
     3
  9
$SHADEDIF
 70
    70
  9
$TILEMODE
 70
     1
  9
$MAXACTVP
 70
    64
  9
$PINSBASE
 10
0.0
 20
0.0
 30
0.0
  9
$PLIMCHECK
 70
     0
  9
$PEXTMIN
 10
1.0000000000E+20
 20
1.0000000000E+20
 30
1.0000000000E+20
  9
$PEXTMAX
 10
-1.0000000000E+20
 20
-1.0000000000E+20
 30
-1.0000000000E+20
  9
$PLIMMIN
 10
0.0
 20
0.0
  9
$PLIMMAX
 10
12.0
 20
9.0
  9
$UNITMODE
 70
     0
  9
$VISRETAIN
 70
     1
  9
$PLINEGEN
 70
     0
  9
$PSLTSCALE
 70
     1
  9
$TREEDEPTH
 70
  3020
  9
$CMLSTYLE
  2
Standard
  9
$CMLJUST
 70
     0
  9
$CMLSCALE
 40
1.0
  9
$PROXYGRAPHICS
 70
     1
  9
$MEASUREMENT
 70
     0
  9
$CELWEIGHT
370
    -1
  9
$ENDCAPS
280
     0
  9
$JOINSTYLE
280
     0
  9
$LWDISPLAY
290
     1
  9
$INSUNITS
 70
     1
  9
$HYPERLINKBASE
  1

  9
$STYLESHEET
  1

  9
$XEDIT
290
     1
  9
$CEPSNTYPE
380
     0
  9
$PSTYLEMODE
290
     1
  9
$FINGERPRINTGUID
  2
{51E337BF-A5A3-45D3-A4AE-3EB19E5706A3}
  9
$VERSIONGUID
  2
{FAEB1C32-E019-11D5-929B-00C0DF256EC4}
  9
$EXTNAMES
290
     1
  9
$PSVPSCALE
 40
0.0
  9
$OLESTARTUP
290
     0
  0
ENDSEC
  0
SECTION
  2
CLASSES
  0
CLASS
  1
ACDBDICTIONARYWDFLT
  2
AcDbDictionaryWithDefault
  3
ObjectDBX Classes
 90
        0
280
     0
281
     0
  0
CLASS
  1
VISUALSTYLE
  2
AcDbVisualStyle
  3
ObjectDBX Classes
 90
     4095
280
     0
281
     0
  0
CLASS
  1
MATERIAL
  2
AcDbMaterial
  3
ObjectDBX Classes
 90
     1153
280
     0
281
     0
  0
CLASS
  1
ACDBPLACEHOLDER
  2
AcDbPlaceHolder
  3
ObjectDBX Classes
 90
        0
280
     0
281
     0
  0
CLASS
  1
LAYOUT
  2
AcDbLayout
  3
ObjectDBX Classes
 90
        0
280
     0
281
     0
  0
ENDSEC
  0
SECTION
  2
TABLES
  0
TABLE
  2
VPORT
  5
8
330
0
100
AcDbSymbolTable
 70
     1
  0
VPORT
  5
29
330
8
100
AcDbSymbolTableRecord
100
AcDbViewportTableRecord
  2
*Active
 70
     0
 10
0.0
 20
0.0
 11
1.0
 21
1.0
 12
4.25
 22
5.5
 13
0.0
 23
0.0
 14
0.5
 24
0.5
 15
0.5
 25
0.5
 16
0.0
 26
0.0
 36
1.0
 17
0.0
 27
0.0
 37
0.0
 40
11.0
 41
0.7727272727
 42
50.0
 43
0.0
 44
0.0
 50
0.0
 51
0.0
 71
     0
 72
  2000
 73
     1
 74
     3
 75
     0
 76
     0
 77
     0
 78
     0
281
     0
 65
     1
110
0.0
120
0.0
130
0.0
111
1.0
121
0.0
131
0.0
112
0.0
122
1.0
132
0.0
 79
     0
146
0.0
  0
ENDTAB
  0
TABLE
  2
LTYPE
  5
5
330
0
100
AcDbSymbolTable
 70
     6
  0
LTYPE
  5
14
330
5
100
AcDbSymbolTableRecord
100
AcDbLinetypeTableRecord
  2
ByBlock
 70
     0
  3

 72
    65
 73
     0
 40
0.0
  0
LTYPE
  5
15
330
5
100
AcDbSymbolTableRecord
100
AcDbLinetypeTableRecord
  2
ByLayer
 70
     0
  3

 72
    65
 73
     0
 40
0.0
  0
LTYPE
  5
16
330
5
100
AcDbSymbolTableRecord
100
AcDbLinetypeTableRecord
  2
Continuous
 70
     0
  3
Solid line
 72
    65
 73
     0
 40
0.0
  0
LTYPE
  5
3F
330
5
100
AcDbSymbolTableRecord
100
AcDbLinetypeTableRecord
  2
HIDDEN
 70
     0
  3
Hidden __ __ __ __ __ __ __ __ __ __ __ __ __ __
 72
    65
 73
     2
 40
0.075
 49
0.05
 74
     0
 49
-0.025
 74
     0
  0
LTYPE
  5
40
330
5
100
AcDbSymbolTableRecord
100
AcDbLinetypeTableRecord
  2
PHANTOM
 70
     0
  3
Phantom ______  __  __  ______  __  __  ______
 72
    65
 73
     6
 40
0.5
 49
0.25
 74
     0
 49
-0.05
 74
     0
 49
0.05
 74
     0
 49
-0.05
 74
     0
 49
0.05
 74
     0
 49
-0.05
 74
     0
  0
LTYPE
  5
41
330
5
100
AcDbSymbolTableRecord
100
AcDbLinetypeTableRecord
  2
CENTER
 70
     0
  3
Center ____ _ ____ _ ____ _ ____ _ ____ _ ____
 72
    65
 73
     4
 40
0.4
 49
0.25
 74
     0
 49
-0.05
 74
     0
 49
0.05
 74
     0
 49
-0.05
 74
     0
  0
LTYPE
  5
42
330
5
100
AcDbSymbolTableRecord
100
AcDbLinetypeTableRecord
  2
CENTERX2
 70
     0
  3
Center (2x) ________  __  ________  __  _____
 72
    65
 73
     4
 40
0.8
 49
0.5
 74
     0
 49
-0.1
 74
     0
 49
0.1
 74
     0
 49
-0.1
 74
     0
  0
LTYPE
  5
43
330
5
100
AcDbSymbolTableRecord
100
AcDbLinetypeTableRecord
  2
DOT2
 70
     0
  3
Dot (.5x) ........................................
 72
    65
 73
     2
 40
0.025
 49
0.0
 74
     0
 49
-0.025
 74
     0
  0
ENDTAB
  0
TABLE
  2
LAYER
  5
2
330
0
100
AcDbSymbolTable
 70
     1
  0
LAYER
  5
10
330
2
100
AcDbSymbolTableRecord
100
AcDbLayerTableRecord
  2
0
 70
     0
 62
     7
  6
Continuous
370
    -3
390
F
  0
ENDTAB
  0
TABLE
  2
STYLE
  5
3
330
0
100
AcDbSymbolTable
 70
     1
  0
STYLE
  5
11
330
3
100
AcDbSymbolTableRecord
100
AcDbTextStyleTableRecord
  2
Standard
 70
     0
 40
0.0
 41
1.0
 50
0.0
 71
     0
 42
0.125
  3
txt
  4

  0
ENDTAB
  0
TABLE
  2
VIEW
  5
6
330
0
100
AcDbSymbolTable
 70
     0
  0
ENDTAB
  0
TABLE
  2
UCS
  5
7
330
0
100
AcDbSymbolTable
 70
     0
  0
ENDTAB
  0
TABLE
  2
APPID
  5
9
330
0
100
AcDbSymbolTable
 70
     1
  0
APPID
  5
12
330
9
100
AcDbSymbolTableRecord
100
AcDbRegAppTableRecord
  2
ACAD
 70
     0
  0
ENDTAB
  0
TABLE
  2
DIMSTYLE
  5
A
330
0
100
AcDbSymbolTable
 70
     1
100
AcDbDimStyleTable
  0
DIMSTYLE
105
27
330
A
100
AcDbSymbolTableRecord
100
AcDbDimStyleTableRecord
  2
Standard
 70
     0
178
     0
340
11
  0
ENDTAB
  0
TABLE
  2
BLOCK_RECORD
  5
1
330
0
100
AcDbSymbolTable
 70
     1
  0
BLOCK_RECORD
  5
1F
330
1
100
AcDbSymbolTableRecord
100
AcDbBlockTableRecord
  2
*Model_Space
340
22
  0
BLOCK_RECORD
  5
1B
330
1
100
AcDbSymbolTableRecord
100
AcDbBlockTableRecord
  2
*Paper_Space
340
1E
  0
BLOCK_RECORD
  5
23
330
1
100
AcDbSymbolTableRecord
100
AcDbBlockTableRecord
  2
*Paper_Space0
340
26
  0
ENDTAB
  0
ENDSEC
  0
SECTION
  2
BLOCKS
  0
BLOCK
  5
20
330
1F
100
AcDbEntity
  8
0
100
AcDbBlockBegin
  2
*Model_Space
 70
     0
 10
0.0
 20
0.0
 30
0.0
  3
*Model_Space
  1

  0
ENDBLK
  5
21
330
1F
100
AcDbEntity
  8
0
100
AcDbBlockEnd
  0
BLOCK
  5
1C
330
1B
100
AcDbEntity
 67
     1
  8
0
100
AcDbBlockBegin
  2
*Paper_Space
 70
     0
 10
0.0
 20
0.0
 30
0.0
  3
*Paper_Space
  1

  0
ENDBLK
  5
1D
330
1B
100
AcDbEntity
 67
     1
  8
0
100
AcDbBlockEnd
  0
BLOCK
  5
24
330
23
100
AcDbEntity
  8
0
100
AcDbBlockBegin
  2
*Paper_Space0
 70
     0
 10
0.0
 20
0.0
 30
0.0
  3
*Paper_Space0
  1

  0
ENDBLK
  5
25
330
23
100
AcDbEntity
  8
0
100
AcDbBlockEnd
  0
ENDSEC
  0
SECTION
  2
ENTITIES
  0
LINE
  5
44
330
1F
100
AcDbEntity
  8
0
  6
Continuous
 62
     7
370
    15
100
AcDbLine
 10
4.0382210988
 20
7.46427184
 30
0.0
 11
4.0307210921
 21
7.46427184
 31
0.0
  0
LINE
  5
45
330
1F
100
AcDbEntity
  8
0
  6
Continuous
 62
     7
370
    15
100
AcDbLine
 10
4.0417210934
 20
7.4577093158
 30
0.0
 11
4.0382210988
 21
7.4577093158
 31
0.0
  0
LINE
  5
46
330
1F
100
AcDbEntity
  8
0
  6
Continuous
 62
     7
370
    15
100
AcDbLine
 10
3.7504711146
 20
7.2895278678
 30
0.0
 11
3.7504711146
 21
7.3344920759
 31
0.0
  0
LINE
  5
47
330
1F
100
AcDbEntity
  8
0
  6
Continuous
 62
     7
370
    15
100
AcDbLine
 10
3.7192210989
 20
7.3344920759
 30
0.0
 11
3.7192210989
 21
7.2895278678
 31
0.0
  0
SPLINE
  5
48
330
1F
100
AcDbEntity
  8
0
  6
Continuous
 62
     7
370
    15
100
AcDbSpline
210
0.0
220
0.0
230
1.0
 70
     8
 71
     3
 72
    17
 73
    13
 74
     0
 42
0.00000001
 43
0.00000001
 12
1.0
 22
0.0
 32
0.0
 13
1.0
 23
0.0
 33
0.0
 40
0.0
 40
0.0
 40
0.0
 40
0.0
 40
0.0579041207228136
 40
0.1831350867173592
 40
0.2978635785032647
 40
0.4067012479834661
 40
0.5222399240713418
 40
0.6342600587912888
 40
0.7447989122396225
 40
0.8549955339522156
 40
0.9652860706641244
 40
0.9999999999999999
 40
0.9999999999999999
 40
0.9999999999999999
 40
0.9999999999999999
 10
3.750471114603152
 20
7.33449207585214
 30
0.0
 10
3.750490164651336
 20
7.335171989666439
 30
0.0
 10
3.750550414805943
 20
7.337322373331501
 30
0.0
 10
3.751252307774796
 20
7.340892412238286
 30
0.0
 10
3.752949811439904
 20
7.34535143032284
 30
0.0
 10
3.755576139315575
 20
7.349965620041857
 30
0.0
 10
3.75923608708796
 20
7.354766695010725
 30
0.0
 10
3.764045860528885
 20
7.359716283526933
 30
0.0
 10
3.769842707724216
 20
7.364610862938887
 30
0.0
 10
3.776706875539868
 20
7.36939114457927
 30
0.0
 10
3.782569278003324
 20
7.373010907185919
 30
0.0
 10
3.786423420599446
 20
7.374938586938917
 30
0.0
 10
3.787346098620191
 20
7.375400071612815
 30
0.0
  0
SPLINE
  5
49
330
1F
100
AcDbEntity
  8
0
  6
Continuous
 62
     7
370
    15
100
AcDbSpline
210
0.0
220
0.0
230
1.0
 70
     8
 71
     3
 72
    18
 73
    14
 74
     0
 42
0.00000001
 43
0.00000001
 12
1.0
 22
0.0
 32
0.0
 13
1.0
 23
0.0
 33
0.0
 40
0.0
 40
0.0
 40
0.0
 40
0.0
 40
0.0826128254361504
 40
0.1781718752203942
 40
0.2741416202697431
 40
0.3704284966033984
 40
0.4666897344316036
 40
0.5623090306949452
 40
0.6564689592453657
 40
0.7483268344445402
 40
0.8373847038594715
 40
0.923747982987737
 40
1.0
 40
1.0
 40
1.0
 40
1.0
 10
3.787346098620191
 20
7.409947005857016
 30
0.0
 10
3.784033152943417
 20
7.408500256691062
 30
0.0
 10
3.776888091137122
 20
7.405380038849454
 30
0.0
 10
3.76688487545151
 20
7.400036293853495
 30
0.0
 10
3.75718908756804
 20
7.394032216370414
 30
0.0
 10
3.748426723737926
 20
7.387563180483661
 30
0.0
 10
3.740655461145705
 20
7.38066162836983
 30
0.0
 10
3.733973792759719
 20
7.373360614400226
 30
0.0
 10
3.728470971699086
 20
7.365724464376681
 30
0.0
 10
3.724206797530982
 20
7.357842682778243
 30
0.0
 10
3.721243250493941
 20
7.34982162558781
 30
0.0
 10
3.719517648588476
 20
7.342015710202125
 30
0.0
 10
3.719315764503211
 20
7.336893795396255
 30
0.0
 10
3.719221098939333
 20
7.33449207585214
 30
0.0
  0
SPLINE
  5
4A
330
1F
100
AcDbEntity
  8
0
  6
Continuous
 62
     7
370
    15
100
AcDbSpline
210
0.0
220
0.0
230
1.0
 70
     8
 71
     3
 72
    11
 73
     7
 74
     0
 42
0.00000001
 43
0.00000001
 12
1.0
 22
0.0
 32
0.0
 13
1.0
 23
0.0
 33
0.0
 40
0.0
 40
0.0
 40
0.0
 40
0.0
 40
0.1781313638225134
 40
0.5084392399026229
 40
0.8458209390292201
 40
1.0
 40
1.0
 40
1.0
 40
1.0
 10
4.769060924433417
 20
7.051140088325146
 30
0.0
 10
4.768002720204889
 20
7.050732597091786
 30
0.0
 10
4.764982294480475
 20
7.049569497407875
 30
0.0
 10
4.758830241949806
 20
7.047661356000791
 30
0.0
 10
4.752396080369732
 20
7.045848492258927
 30
0.0
 10
4.747980926270616
 20
7.044837389343222
 30
0.0
 10
4.746596103948939
 20
7.044520254798027
 30
0.0
  0
SPLINE
  5
4B
330
1F
100
AcDbEntity
  8
0
  6
Continuous
 62
     7
370
    15
100
AcDbSpline
210
0.0
220
0.0
230
1.0
 70
     8
 71
     3
 72
    17
 73
    13
 74
     0
 42
0.00000001
 43
0.00000001
 12
1.0
 22
0.0
 32
0.0
 13
1.0
 23
0.0
 33
0.0
 40
0.0
 40
0.0
 40
0.0
 40
0.0
 40
0.0698431881786894
 40
0.1810961972967194
 40
0.2935182383657239
 40
0.407615693155054
 40
0.5241459493169532
 40
0.6441058010272805
 40
0.7543857812401913
 40
0.849240706748005
 40
0.9316448795526076
 40
1.0
 40
1.0
 40
1.0
 40
1.0
 10
4.746596103948939
 20
7.012506371291808
 30
0.0
 10
4.748943528427359
 20
7.013001559290794
 30
0.0
 10
4.755030158456266
 20
7.014285530797562
 30
0.0
 10
4.763969856735893
 20
7.016602364202777
 30
0.0
 10
4.773502481956511
 20
7.01944733147915
 30
0.0
 10
4.782226108346632
 20
7.022575038240527
 30
0.0
 10
4.790197389521437
 20
7.026041731186194
 30
0.0
 10
4.797147644998698
 20
7.029833153601457
 30
0.0
 10
4.802885992935995
 20
7.033876721609585
 30
0.0
 10
4.807326534905446
 20
7.038098556713673
 30
0.0
 10
4.810667781524458
 20
7.042320073301983
 30
0.0
 10
4.812127246317443
 20
7.045470866455619
 30
0.0
 10
4.812788975949901
 20
7.046899453979982
 30
0.0
  0
LINE
  5
4C
330
1F
100
AcDbEntity
  8
0
  6
Continuous
 62
     7
370
    15
100
AcDbLine
 10
3.6860961183
 20
7.2482621653
 30
0.0
 11
3.6860961183
 21
7.1921589909
 31
0.0
  0
LINE
  5
4D
330
1F
100
AcDbEntity
  8
0
  6
Continuous
 62
     7
370
    15
100
AcDbLine
 10
3.7835960953
 20
7.2170157246
 30
0.0
 11
3.7835960953
 21
7.2482621653
 31
0.0
  0
LINE
  5
4E
330
1F
100
AcDbEntity
  8
0
  6
Continuous
 62
     7
370
    15
100
AcDbLine
 10
3.6660961126
 20
7.0851511775
 30
0.0
 11
3.6660961126
 21
7.0493153102
 31
0.0
  0
LINE
  5
4F
330
1F
100
AcDbEntity
  8
0
  6
Continuous
 62
     7
370
    15
100
AcDbLine
 10
4.8678460899
 20
7.2564687947
 30
0.0
 11
4.8678460899
 21
7.2585361841
 31
0.0
  0
LINE
  5
50
330
1F
100
AcDbEntity
  8
0
  6
Continuous
 62
     7
370
    15
100
AcDbLine
 10
4.8478460843
 20
7.0873690315
 30
0.0
 11
4.8478460843
 21
7.1141742139
 31
0.0
  0
ARC
  5
51
330
1F
100
AcDbEntity
  8
0
  6
Continuous
 62
     7
370
    15
100
AcDbCircle
 10
3.6983461013
 20
7.0067918667
 30
0.0
 40
0.0235000000000003
100
AcDbArc
 50
180.0
 51
270.0
  0
LINE
  5
52
330
1F
100
AcDbEntity
  8
0
  6
Continuous
 62
     7
370
    15
100
AcDbLine
 10
3.6983460901
 20
6.9832918729
 30
0.0
 11
3.7873460986
 21
6.9832918729
 31
0.0
  0
LINE
  5
53
330
1F
100
AcDbEntity
  8
0
  6
Continuous
 62
     7
370
    15
100
AcDbLine
 10
4.8355961125
 20
7.3077500098
 30
0.0
 11
4.7465961039
 21
7.3077500098
 31
0.0
  0
ARC
  5
54
330
1F
100
AcDbEntity
  8
0
  6
Continuous
 62
     7
370
    15
100
AcDbCircle
 10
4.8224711013
 20
7.1444016491
 30
0.0
 40
0.0235000000000012
100
AcDbArc
 50
0.0
 51
90.0
  0
LINE
  5
55
330
1F
100
AcDbEntity
  8
0
  6
Continuous
 62
     7
370
    15
100
AcDbLine
 10
4.8224711008
 20
7.1679016495
 30
0.0
 11
4.7465961039
 21
7.1679016495
 31
0.0
  0
ARC
  5
56
330
1F
100
AcDbEntity
  8
0
  6
Continuous
 62
     7
370
    15
100
AcDbCircle
 10
3.7114711013
 20
7.1490300954
 30
0.0
 40
0.0235000000000003
100
AcDbArc
 50
180.0
 51
270.0
  0
LINE
  5
57
330
1F
100
AcDbEntity
  8
0
  6
Continuous
 62
     7
370
    15
100
AcDbLine
 10
3.7114711018
 20
7.1255300954
 30
0.0
 11
3.7873460986
 21
7.1255300954
 31
0.0
  0
LINE
  5
58
330
1F
100
AcDbEntity
  8
0
  6
Continuous
 62
     7
370
    15
100
AcDbLine
 10
4.5825975685
 20
6.803146844
 30
0.0
 11
4.7153460883
 21
6.803146844
 31
0.0
  0
LINE
  5
59
330
1F
100
AcDbEntity
  8
0
  6
Continuous
 62
     7
370
    15
100
AcDbLine
 10
4.7153460883
 20
7.4906468219
 30
0.0
 11
4.5188460999
 21
7.4906468219
 31
0.0
  0
ARC
  5
5A
330
1F
100
AcDbEntity
  8
0
  6
Continuous
 62
     7
370
    15
100
AcDbCircle
 10
4.5188461013
 20
7.475021833
 30
0.0
 40
0.015625
100
AcDbArc
 50
90.0
 51
180.0
  0
LINE
  5
5B
330
1F
100
AcDbEntity
  8
0
  6
Continuous
 62
     7
370
    15
100
AcDbLine
 10
4.7153460883
 20
6.803146844
 30
0.0
 11
4.7465961039
 21
6.834396823
 31
0.0
  0
LINE
  5
5C
330
1F
100
AcDbEntity
  8
0
  6
Continuous
 62
     7
370
    15
100
AcDbLine
 10
4.7465961039
 20
7.4593968429
 30
0.0
 11
4.7153460883
 21
7.4906468219
 31
0.0
  0
LINE
  5
5D
330
1F
100
AcDbEntity
  8
0
  6
Continuous
 62
     7
370
    15
100
AcDbLine
 10
3.8185961143
 20
7.4906468219
 30
0.0
 11
3.7873460986
 21
7.4593968429
 31
0.0
  0
LINE
  5
5E
330
1F
100
AcDbEntity
  8
0
  6
Continuous
 62
     7
370
    15
100
AcDbLine
 10
3.7873460986
 20
6.834396823
 30
0.0
 11
3.8185961143
 21
6.803146844
 31
0.0
  0
LINE
  5
5F
330
1F
100
AcDbEntity
  8
0
  6
Continuous
 62
     7
370
    15
100
AcDbLine
 10
4.0150961026
 20
7.4906468219
 30
0.0
 11
3.8185961143
 21
7.4906468219
 31
0.0
  0
LINE
  5
60
330
1F
100
AcDbEntity
  8
0
  6
Continuous
 62
     7
370
    15
100
AcDbLine
 10
3.8185961143
 20
6.803146844
 30
0.0
 11
4.0150961026
 21
6.803146844
 31
0.0
  0
ARC
  5
61
330
1F
100
AcDbEntity
  8
0
  6
Continuous
 62
     7
370
    15
100
AcDbCircle
 10
4.0150961013
 20
7.475021833
 30
0.0
 40
0.015625
100
AcDbArc
 50
0.0
 51
90.0
  0
ARC
  5
62
330
1F
100
AcDbEntity
  8
0
  6
Continuous
 62
     7
370
    15
100
AcDbCircle
 10
4.0150961013
 20
6.818771833
 30
0.0
 40
0.015625
100
AcDbArc
 50
270.0
 51
0.0
  0
LINE
  5
63
330
1F
100
AcDbEntity
  8
0
  6
Continuous
 62
     7
370
    15
100
AcDbLine
 10
4.0417210934
 20
7.4460863917
 30
0.0
 11
4.0346473684
 21
7.4338343299
 31
0.0
  0
LINE
  5
64
330
1F
100
AcDbEntity
  8
0
  6
Continuous
 62
     7
370
    15
100
AcDbLine
 10
4.0346473684
 20
6.859959336
 30
0.0
 11
4.0417210934
 21
6.8477072742
 31
0.0
  0
LINE
  5
65
330
1F
100
AcDbEntity
  8
0
  6
Continuous
 62
     7
370
    15
100
AcDbLine
 10
4.4922211092
 20
6.8477072742
 30
0.0
 11
4.4992948341
 21
6.859959336
 31
0.0
  0
LINE
  5
66
330
1F
100
AcDbEntity
  8
0
  6
Continuous
 62
     7
370
    15
100
AcDbLine
 10
4.4992948341
 20
7.4338343299
 30
0.0
 11
4.4922211092
 21
7.4460863917
 31
0.0
  0
LINE
  5
67
330
1F
100
AcDbEntity
  8
0
  6
Continuous
 62
     7
370
    15
100
AcDbLine
 10
4.5032211104
 20
7.4338343299
 30
0.0
 11
4.4992948341
 21
7.4338343299
 31
0.0
  0
LINE
  5
68
330
1F
100
AcDbEntity
  8
0
  6
Continuous
 62
     7
370
    15
100
AcDbLine
 10
4.4992948341
 20
6.859959336
 30
0.0
 11
4.5032211104
 21
6.859959336
 31
0.0
  0
LINE
  5
69
330
1F
100
AcDbEntity
  8
0
  6
Continuous
 62
     7
370
    15
100
AcDbLine
 10
4.0346473684
 20
7.4338343299
 30
0.0
 11
4.0307210921
 21
7.4338343299
 31
0.0
  0
LINE
  5
6A
330
1F
100
AcDbEntity
  8
0
  6
Continuous
 62
     7
370
    15
100
AcDbLine
 10
4.0307210921
 20
6.859959336
 30
0.0
 11
4.0346473684
 21
6.859959336
 31
0.0
  0
ARC
  5
6B
330
1F
100
AcDbEntity
  8
0
  6
Continuous
 62
     7
370
    15
100
AcDbCircle
 10
4.6359546062
 20
6.8482262251
 30
0.0
 40
0.0250000000000006
100
AcDbArc
 50
289.2215775252
 51
109.2215775252
  0
LINE
  5
6C
330
1F
100
AcDbEntity
  8
0
  6
Continuous
 62
     7
370
    15
100
AcDbLine
 10
4.5130070191
 20
6.778883471
 30
0.0
 11
4.6441851603
 21
6.8246199159
 31
0.0
  0
ARC
  5
6D
330
1F
100
AcDbEntity
  8
0
  6
Continuous
 62
     7
370
    15
100
AcDbCircle
 10
4.4851577749
 20
6.8587587424
 30
0.0
 40
0.0845910310529075
100
AcDbArc
 50
274.1952675712
 51
289.2215775252
  0
LINE
  5
6E
330
1F
100
AcDbEntity
  8
0
  6
Continuous
 62
     7
370
    15
100
AcDbLine
 10
4.4304875673
 20
6.8650034378
 30
0.0
 11
4.4588367515
 21
6.8563604526
 31
0.0
  0
LINE
  5
6F
330
1F
100
AcDbEntity
  8
0
  6
Continuous
 62
     7
370
    15
100
AcDbLine
 10
4.4695189481
 20
6.8471468307
 30
0.0
 11
4.4588367515
 21
6.8563604526
 31
0.0
  0
ARC
  5
70
330
1F
100
AcDbEntity
  8
0
  6
Continuous
 62
     7
370
    15
100
AcDbCircle
 10
4.5052055816
 20
6.8473175791
 30
0.0
 40
0.0234374999999997
100
AcDbArc
 50
233.7479978376
 51
332.0550055912
  0
LINE
  5
71
330
1F
100
AcDbEntity
  8
0
  6
Continuous
 62
     7
370
    15
100
AcDbLine
 10
4.6277240338
 20
6.8718325439
 30
0.0
 11
4.5259102183
 21
6.8363341939
 31
0.0
  0
CIRCLE
  5
72
330
1F
100
AcDbEntity
  8
0
  6
Continuous
 62
     7
370
    15
100
AcDbCircle
 10
4.6359546062
 20
6.8482262251
 30
0.0
 40
0.0120624999999996
  0
ARC
  5
73
330
1F
100
AcDbEntity
  8
0
  6
Continuous
 62
     7
370
    15
100
AcDbCircle
 10
4.4366960757
 20
6.8350143488
 30
0.0
 40
0.0306250000000006
100
AcDbArc
 50
101.6964480541
 51
156.6614886008
  0
LINE
  5
74
330
1F
100
AcDbEntity
  8
0
  6
Continuous
 62
     7
370
    15
100
AcDbLine
 10
4.3607211024
 20
6.8221468512
 30
0.0
 11
4.3607211024
 21
6.8471468307
 31
0.0
  0
LINE
  5
75
330
1F
100
AcDbEntity
  8
0
  6
Continuous
 62
     7
370
    15
100
AcDbLine
 10
4.3607211024
 20
6.8471468307
 30
0.0
 11
4.491346106
 21
6.8471468307
 31
0.0
  0
LINE
  5
76
330
1F
100
AcDbEntity
  8
0
  6
Continuous
 62
     7
370
    15
100
AcDbLine
 10
4.491346106
 20
6.8471468307
 30
0.0
 11
4.491346106
 21
6.7690218282
 31
0.0
  0
LINE
  5
77
330
1F
100
AcDbEntity
  8
0
  6
Continuous
 62
     7
370
    15
100
AcDbLine
 10
4.0425960966
 20
6.7690218282
 30
0.0
 11
4.491346106
 21
6.7690218282
 31
0.0
  0
LINE
  5
78
330
1F
100
AcDbEntity
  8
0
  6
Continuous
 62
     7
370
    15
100
AcDbLine
 10
4.0425960966
 20
6.8471468307
 30
0.0
 11
4.0425960966
 21
6.7690218282
 31
0.0
  0
LINE
  5
79
330
1F
100
AcDbEntity
  8
0
  6
Continuous
 62
     7
370
    15
100
AcDbLine
 10
4.0425960966
 20
6.8471468307
 30
0.0
 11
4.1732211001
 21
6.8471468307
 31
0.0
  0
LINE
  5
7A
330
1F
100
AcDbEntity
  8
0
  6
Continuous
 62
     7
370
    15
100
AcDbLine
 10
4.1732211001
 20
6.8221468512
 30
0.0
 11
4.1732211001
 21
6.8471468307
 31
0.0
  0
LINE
  5
7B
330
1F
100
AcDbEntity
  8
0
  6
Continuous
 62
     7
370
    15
100
AcDbLine
 10
4.1732211001
 20
6.8221468512
 30
0.0
 11
4.3607211024
 21
6.8221468512
 31
0.0
  0
CIRCLE
  5
7C
330
1F
100
AcDbEntity
  8
0
  6
Continuous
 62
     7
370
    15
100
AcDbCircle
 10
4.4678461013
 20
6.808146833
 30
0.0
 40
0.0120624999999999
  0
LINE
  5
7D
330
1F
100
AcDbEntity
  8
0
  6
Continuous
 62
     7
370
    15
100
AcDbLine
 10
4.204471102
 20
6.8221468512
 30
0.0
 11
4.204471102
 21
6.8471468307
 31
0.0
  0
LINE
  5
7E
330
1F
100
AcDbEntity
  8
0
  6
Continuous
 62
     7
370
    15
100
AcDbLine
 10
4.1766592296
 20
6.8471468307
 30
0.0
 11
4.1732211001
 21
6.8471468307
 31
0.0
  0
LINE
  5
7F
330
1F
100
AcDbEntity
  8
0
  6
Continuous
 62
     7
370
    15
100
AcDbLine
 10
4.3294711005
 20
6.8221468512
 30
0.0
 11
4.3294711005
 21
6.8471468307
 31
0.0
  0
LINE
  5
80
330
1F
100
AcDbEntity
  8
0
  6
Continuous
 62
     7
370
    15
100
AcDbLine
 10
4.3607211024
 20
6.8471468307
 30
0.0
 11
4.357282973
 21
6.8471468307
 31
0.0
  0
CIRCLE
  5
81
330
1F
100
AcDbEntity
  8
0
  6
Continuous
 62
     7
370
    15
100
AcDbCircle
 10
4.2669711013
 20
6.951646833
 30
0.0
 40
0.0250000000000008
  0
CIRCLE
  5
82
330
1F
100
AcDbEntity
  8
0
  6
Continuous
 62
     7
370
    15
100
AcDbCircle
 10
4.2669711013
 20
6.951646833
 30
0.0
 40
0.0268125000000008
  0
CIRCLE
  5
83
330
1F
100
AcDbEntity
  8
0
  6
Continuous
 62
     7
370
    15
100
AcDbCircle
 10
4.2669711013
 20
7.342146833
 30
0.0
 40
0.0250000000000008
  0
CIRCLE
  5
84
330
1F
100
AcDbEntity
  8
0
  6
Continuous
 62
     7
370
    15
100
AcDbCircle
 10
4.2669711013
 20
7.342146833
 30
0.0
 40
0.0268125000000008
  0
ARC
  5
85
330
1F
100
AcDbEntity
  8
0
  6
Continuous
 62
     7
370
    15
100
AcDbCircle
 10
4.2585873039
 20
6.8793170826
 30
0.0
 40
0.0156249999999999
100
AcDbArc
 50
42.8043312779
 51
123.9722817378
  0
ARC
  5
86
330
1F
100
AcDbEntity
  8
0
  6
Continuous
 62
     7
370
    15
100
AcDbCircle
 10
4.2098980043
 20
6.906430216
 30
0.0
 40
0.0156250000000002
100
AcDbArc
 50
357.8043312779
 51
78.9722817378
  0
ARC
  5
87
330
1F
100
AcDbEntity
  8
0
  6
Continuous
 62
     7
370
    15
100
AcDbCircle
 10
4.1946413509
 20
6.9600306304
 30
0.0
 40
0.0156250000000005
100
AcDbArc
 50
312.8043312779
 51
33.9722817378
  0
ARC
  5
88
330
1F
100
AcDbEntity
  8
0
  6
Continuous
 62
     7
370
    15
100
AcDbCircle
 10
4.3240441982
 20
6.9968634499
 30
0.0
 40
0.0156250000000002
100
AcDbArc
 50
177.8043312779
 51
258.9722817378
  0
ARC
  5
89
330
1F
100
AcDbEntity
  8
0
  6
Continuous
 62
     7
370
    15
100
AcDbCircle
 10
4.3393008517
 20
6.9432630356
 30
0.0
 40
0.0156250000000011
100
AcDbArc
 50
132.8043312779
 51
213.9722817378
  0
CIRCLE
  5
8A
330
1F
100
AcDbEntity
  8
0
  6
Continuous
 62
     7
370
    15
100
AcDbCircle
 10
4.2669711013
 20
6.951646833
 30
0.0
 40
0.0316874999999998
  0
ARC
  5
8B
330
1F
100
AcDbEntity
  8
0
  6
Continuous
 62
     7
370
    15
100
AcDbCircle
 10
4.3133849767
 20
6.9258007927
 30
0.0
 40
0.015625000000001
100
AcDbArc
 50
267.8043312779
 51
33.9722817378
  0
ARC
  5
8C
330
1F
100
AcDbEntity
  8
0
  6
Continuous
 62
     7
370
    15
100
AcDbCircle
 10
4.2753548987
 20
7.0239765833
 30
0.0
 40
0.0156250000000004
100
AcDbArc
 50
222.8043312779
 51
303.9722817378
  0
ARC
  5
8D
330
1F
100
AcDbEntity
  8
0
  6
Continuous
 62
     7
370
    15
100
AcDbCircle
 10
4.3121877183
 20
6.894573736
 30
0.0
 40
0.0156250000000002
100
AcDbArc
 50
87.8043312779
 51
168.9722817378
  0
ARC
  5
8E
330
1F
100
AcDbEntity
  8
0
  6
Continuous
 62
     7
370
    15
100
AcDbCircle
 10
4.2928171415
 20
6.9980607084
 30
0.0
 40
0.0156250000000001
100
AcDbArc
 50
357.8043312779
 51
123.9722817378
  0
ARC
  5
8F
330
1F
100
AcDbEntity
  8
0
  6
Continuous
 62
     7
370
    15
100
AcDbCircle
 10
4.3180665776
 20
6.9661904887
 30
0.0
 40
0.0156250000000004
100
AcDbArc
 50
312.8043312779
 51
78.9722817378
  0
ARC
  5
90
330
1F
100
AcDbEntity
  8
0
  6
Continuous
 62
     7
370
    15
100
AcDbCircle
 10
4.2205572259
 20
6.9774928732
 30
0.0
 40
0.0156250000000006
100
AcDbArc
 50
87.8043312779
 51
213.9722817378
  0
ARC
  5
91
330
1F
100
AcDbEntity
  8
0
  6
Continuous
 62
     7
370
    15
100
AcDbCircle
 10
4.2524274456
 20
7.0027423093
 30
0.0
 40
0.0156250000000005
100
AcDbArc
 50
42.8043312779
 51
168.9722817378
  0
ARC
  5
92
330
1F
100
AcDbEntity
  8
0
  6
Continuous
 62
     7
370
    15
100
AcDbCircle
 10
4.2217544843
 20
7.0087199299
 30
0.0
 40
0.0156250000000004
100
AcDbArc
 50
267.8043312779
 51
348.9722817378
  0
ARC
  5
93
330
1F
100
AcDbEntity
  8
0
  6
Continuous
 62
     7
370
    15
100
AcDbCircle
 10
4.281514757
 20
6.9005513566
 30
0.0
 40
0.0156249999999995
100
AcDbArc
 50
222.8043312779
 51
348.9722817378
  0
ARC
  5
94
330
1F
100
AcDbEntity
  8
0
  6
Continuous
 62
     7
370
    15
100
AcDbCircle
 10
4.2158756249
 20
6.9371031772
 30
0.0
 40
0.0156249999999999
100
AcDbArc
 50
132.8043312779
 51
258.9722817378
  0
ARC
  5
95
330
1F
100
AcDbEntity
  8
0
  6
Continuous
 62
     7
370
    15
100
AcDbCircle
 10
4.2411250611
 20
6.9052329576
 30
0.0
 40
0.0156250000000001
100
AcDbArc
 50
177.8043312779
 51
303.9722817378
  0
ARC
  5
96
330
1F
100
AcDbEntity
  8
0
  6
Continuous
 62
     7
370
    15
100
AcDbCircle
 10
4.2669711013
 20
6.951646833
 30
0.0
 40
0.0687500000000002
100
AcDbArc
 50
330.8883065078
 51
15.8883065078
  0
ARC
  5
97
330
1F
100
AcDbEntity
  8
0
  6
Continuous
 62
     7
370
    15
100
AcDbCircle
 10
4.2669711013
 20
6.951646833
 30
0.0
 40
0.0687500000000001
100
AcDbArc
 50
15.8883065078
 51
60.8883065078
  0
ARC
  5
98
330
1F
100
AcDbEntity
  8
0
  6
Continuous
 62
     7
370
    15
100
AcDbCircle
 10
4.2669711013
 20
6.951646833
 30
0.0
 40
0.0687499999999998
100
AcDbArc
 50
60.8883065078
 51
105.8883065078
  0
ARC
  5
99
330
1F
100
AcDbEntity
  8
0
  6
Continuous
 62
     7
370
    15
100
AcDbCircle
 10
4.2669711013
 20
6.951646833
 30
0.0
 40
0.0687500000000009
100
AcDbArc
 50
195.8883065078
 51
240.8883065078
  0
ARC
  5
9A
330
1F
100
AcDbEntity
  8
0
  6
Continuous
 62
     7
370
    15
100
AcDbCircle
 10
4.2669711013
 20
6.951646833
 30
0.0
 40
0.0687500000000002
100
AcDbArc
 50
105.8883065078
 51
150.8883065078
  0
ARC
  5
9B
330
1F
100
AcDbEntity
  8
0
  6
Continuous
 62
     7
370
    15
100
AcDbCircle
 10
4.2669711013
 20
6.951646833
 30
0.0
 40
0.0687500000000002
100
AcDbArc
 50
285.8883065078
 51
330.8883065078
  0
ARC
  5
9C
330
1F
100
AcDbEntity
  8
0
  6
Continuous
 62
     7
370
    15
100
AcDbCircle
 10
4.2669711013
 20
6.951646833
 30
0.0
 40
0.0687500000000009
100
AcDbArc
 50
150.8883065078
 51
195.8883065078
  0
ARC
  5
9D
330
1F
100
AcDbEntity
  8
0
  6
Continuous
 62
     7
370
    15
100
AcDbCircle
 10
4.2669711013
 20
6.951646833
 30
0.0
 40
0.0687499999999998
100
AcDbArc
 50
240.8883065078
 51
285.8883065078
  0
ARC
  5
9E
330
1F
100
AcDbEntity
  8
0
  6
Continuous
 62
     7
370
    15
100
AcDbCircle
 10
4.2227292114
 20
7.371556369
 30
0.0
 40
0.0156250000000009
100
AcDbArc
 50
83.3022853763
 51
209.4702358362
  0
ARC
  5
9F
330
1F
100
AcDbEntity
  8
0
  6
Continuous
 62
     7
370
    15
100
AcDbCircle
 10
4.3274173655
 20
7.3827440003
 30
0.0
 40
0.015625
100
AcDbArc
 50
173.3022853763
 51
254.4702358362
  0
CIRCLE
  5
A0
330
1F
100
AcDbEntity
  8
0
  6
Continuous
 62
     7
370
    15
100
AcDbCircle
 10
4.2669711013
 20
7.342146833
 30
0.0
 40
0.0316875000000006
  0
ARC
  5
A1
330
1F
100
AcDbEntity
  8
0
  6
Continuous
 62
     7
370
    15
100
AcDbCircle
 10
4.3384195969
 20
7.3281114019
 30
0.0
 40
0.0156250000000009
100
AcDbArc
 50
128.3022853763
 51
209.4702358362
  0
ARC
  5
A2
330
1F
100
AcDbEntity
  8
0
  6
Continuous
 62
     7
370
    15
100
AcDbCircle
 10
4.1955226057
 20
7.356182264
 30
0.0
 40
0.0156249999999996
100
AcDbArc
 50
308.3022853763
 51
29.4702358362
  0
ARC
  5
A3
330
1F
100
AcDbEntity
  8
0
  6
Continuous
 62
     7
370
    15
100
AcDbCircle
 10
4.2065248371
 20
7.3015496657
 30
0.0
 40
0.0156250000000006
100
AcDbArc
 50
353.3022853763
 51
74.4702358362
  0
ARC
  5
A4
330
1F
100
AcDbEntity
  8
0
  6
Continuous
 62
     7
370
    15
100
AcDbCircle
 10
4.226373934
 20
7.4025930972
 30
0.0
 40
0.0156250000000007
100
AcDbArc
 50
263.3022853763
 51
344.4702358362
  0
ARC
  5
A5
330
1F
100
AcDbEntity
  8
0
  6
Continuous
 62
     7
370
    15
100
AcDbCircle
 10
4.3190505239
 20
7.352634891
 30
0.0
 40
0.0156250000000006
100
AcDbArc
 50
308.3022853763
 51
74.4702358362
  0
ARC
  5
A6
330
1F
100
AcDbEntity
  8
0
  6
Continuous
 62
     7
370
    15
100
AcDbCircle
 10
4.2810065323
 20
7.4135953286
 30
0.0
 40
0.0156249999999997
100
AcDbArc
 50
218.3022853763
 51
299.4702358362
  0
ARC
  5
A7
330
1F
100
AcDbEntity
  8
0
  6
Continuous
 62
     7
370
    15
100
AcDbCircle
 10
4.2529356703
 20
7.2706983374
 30
0.0
 40
0.0156250000000003
100
AcDbArc
 50
38.3022853763
 51
119.4702358362
  0
ARC
  5
A8
330
1F
100
AcDbEntity
  8
0
  6
Continuous
 62
     7
370
    15
100
AcDbCircle
 10
4.2564830433
 20
7.3942262556
 30
0.0
 40
0.0156250000000003
100
AcDbArc
 50
38.3022853763
 51
164.4702358362
  0
ARC
  5
A9
330
1F
100
AcDbEntity
  8
0
  6
Continuous
 62
     7
370
    15
100
AcDbCircle
 10
4.2148916786
 20
7.331658775
 30
0.0
 40
0.015625000000001
100
AcDbArc
 50
128.3022853763
 51
254.4702358362
  0
ARC
  5
AA
330
1F
100
AcDbEntity
  8
0
  6
Continuous
 62
     7
370
    15
100
AcDbCircle
 10
4.2963806373
 20
7.3863887228
 30
0.0
 40
0.0156249999999998
100
AcDbArc
 50
353.3022853763
 51
119.4702358362
  0
ARC
  5
AB
330
1F
100
AcDbEntity
  8
0
  6
Continuous
 62
     7
370
    15
100
AcDbCircle
 10
4.3112129911
 20
7.312737297
 30
0.0
 40
0.0156250000000005
100
AcDbArc
 50
263.3022853763
 51
29.4702358362
  0
ARC
  5
AC
330
1F
100
AcDbEntity
  8
0
  6
Continuous
 62
     7
370
    15
100
AcDbCircle
 10
4.3075682686
 20
7.2817005688
 30
0.0
 40
0.0156250000000008
100
AcDbArc
 50
83.3022853763
 51
164.4702358362
  0
ARC
  5
AD
330
1F
100
AcDbEntity
  8
0
  6
Continuous
 62
     7
370
    15
100
AcDbCircle
 10
4.2375615653
 20
7.2979049431
 30
0.0
 40
0.0156250000000008
100
AcDbArc
 50
173.3022853763
 51
299.4702358362
  0
ARC
  5
AE
330
1F
100
AcDbEntity
  8
0
  6
Continuous
 62
     7
370
    15
100
AcDbCircle
 10
4.2774591593
 20
7.2900674103
 30
0.0
 40
0.0156250000000006
100
AcDbArc
 50
218.3022853763
 51
344.4702358362
  0
ARC
  5
AF
330
1F
100
AcDbEntity
  8
0
  6
Continuous
 62
     7
370
    15
100
AcDbCircle
 10
4.2669711013
 20
7.342146833
 30
0.0
 40
0.0687500000000004
100
AcDbArc
 50
326.3862606063
 51
11.3862606063
  0
ARC
  5
B0
330
1F
100
AcDbEntity
  8
0
  6
Continuous
 62
     7
370
    15
100
AcDbCircle
 10
4.2669711013
 20
7.342146833
 30
0.0
 40
0.0687500000000008
100
AcDbArc
 50
236.3862606063
 51
281.3862606063
  0
ARC
  5
B1
330
1F
100
AcDbEntity
  8
0
  6
Continuous
 62
     7
370
    15
100
AcDbCircle
 10
4.2669711013
 20
7.342146833
 30
0.0
 40
0.0687500000000008
100
AcDbArc
 50
281.3862606063
 51
326.3862606063
  0
ARC
  5
B2
330
1F
100
AcDbEntity
  8
0
  6
Continuous
 62
     7
370
    15
100
AcDbCircle
 10
4.2669711013
 20
7.342146833
 30
0.0
 40
0.0687500000000009
100
AcDbArc
 50
191.3862606063
 51
236.3862606063
  0
ARC
  5
B3
330
1F
100
AcDbEntity
  8
0
  6
Continuous
 62
     7
370
    15
100
AcDbCircle
 10
4.2669711013
 20
7.342146833
 30
0.0
 40
0.0687500000000009
100
AcDbArc
 50
146.3862606062
 51
191.3862606063
  0
ARC
  5
B4
330
1F
100
AcDbEntity
  8
0
  6
Continuous
 62
     7
370
    15
100
AcDbCircle
 10
4.2669711013
 20
7.342146833
 30
0.0
 40
0.0687499999999999
100
AcDbArc
 50
56.3862606063
 51
101.3862606062
  0
ARC
  5
B5
330
1F
100
AcDbEntity
  8
0
  6
Continuous
 62
     7
370
    15
100
AcDbCircle
 10
4.2669711013
 20
7.342146833
 30
0.0
 40
0.0687500000000001
100
AcDbArc
 50
11.3862606063
 51
56.3862606063
  0
ARC
  5
B6
330
1F
100
AcDbEntity
  8
0
  6
Continuous
 62
     7
370
    15
100
AcDbCircle
 10
4.2669711013
 20
7.342146833
 30
0.0
 40
0.0687500000000004
100
AcDbArc
 50
101.3862606062
 51
146.3862606062
  0
CIRCLE
  5
B7
330
1F
100
AcDbEntity
  8
0
  6
Continuous
 62
     7
370
    15
100
AcDbCircle
 10
4.2669711013
 20
7.342146833
 30
0.0
 40
0.078125
  0
CIRCLE
  5
B8
330
1F
100
AcDbEntity
  8
0
  6
Continuous
 62
     7
370
    15
100
AcDbCircle
 10
4.2669711013
 20
6.951646833
 30
0.0
 40
0.078125
  0
LINE
  5
B9
330
1F
100
AcDbEntity
  8
0
  6
Continuous
 62
     7
370
    15
100
AcDbLine
 10
4.0382210988
 20
7.4400242151
 30
0.0
 11
4.0382210988
 21
7.46427184
 31
0.0
  0
LINE
  5
BA
330
1F
100
AcDbEntity
  8
0
  6
Continuous
 62
     7
370
    15
100
AcDbLine
 10
4.0319710994
 20
7.4527919326
 30
0.0
 11
4.0307210921
 21
7.4527919326
 31
0.0
  0
LINE
  5
BB
330
1F
100
AcDbEntity
  8
0
  6
Continuous
 62
     7
370
    15
100
AcDbLine
 10
4.0319710994
 20
7.4527919326
 30
0.0
 11
4.0319710994
 21
7.4608237831
 31
0.0
  0
LINE
  5
BC
330
1F
100
AcDbEntity
  8
0
  6
Continuous
 62
     7
370
    15
100
AcDbLine
 10
4.0307210921
 20
7.4608237831
 30
0.0
 11
4.0319710994
 21
7.4608237831
 31
0.0
  0
ARC
  5
BD
330
1F
100
AcDbEntity
  8
0
  6
Continuous
 62
     7
370
    15
100
AcDbCircle
 10
3.7381197737
 20
7.1882147778
 30
0.0
 40
0.0467004128713866
100
AcDbArc
 50
38.0767997482
 51
61.3825343809
  0
LWPOLYLINE
  5
BE
330
1F
100
AcDbEntity
  8
0
  6
Continuous
 62
     7
370
    15
100
AcDbPolyline
 90
       16
 70
   128
 43
0.0
 10
3.6879710833
 20
7.1801932696
 10
3.6869752281
 20
7.1839229988
 10
3.6861111514
 20
7.1910764064
 10
3.6865764461
 20
7.1982593509
 10
3.6883583888
 20
7.2052758902
 10
3.6914083969
 20
7.2119346312
 10
3.6956432746
 20
7.2180539476
 10
3.7009475234
 20
7.2234669209
 10
3.7071764214
 20
7.2280258916
 10
3.7141600574
 20
7.2316065061
 10
3.7217079869
 20
7.2341110946
 10
3.7296142922
 20
7.2354713389
 10
3.7376632659
 20
7.2356501418
 10
3.7456354238
 20
7.2346426177
 10
3.7533132984
 20
7.2324762477
 10
3.7604873789
 20
7.2292101287
  0
ARC
  5
BF
330
1F
100
AcDbEntity
  8
0
  6
Continuous
 62
     7
370
    15
100
AcDbCircle
 10
3.725688889
 20
7.2481990501
 30
0.0
 40
0.0395928210337092
100
AcDbArc
 50
154.6886903085
 51
179.9086643258
  0
LINE
  5
C0
330
1F
100
AcDbEntity
  8
0
  6
Continuous
 62
     7
370
    15
100
AcDbLine
 10
3.689897051
 20
7.2651264188
 30
0.0
 11
3.689897051
 21
7.2230490312
 31
0.0
  0
ARC
  5
C1
330
1F
100
AcDbEntity
  8
0
  6
Continuous
 62
     7
370
    15
100
AcDbCircle
 10
3.7288594299
 20
7.2046181562
 30
0.0
 40
0.0431017879506288
100
AcDbArc
 50
135.9456153744
 51
154.6838442342
  0
LINE
  5
C2
330
1F
100
AcDbEntity
  8
0
  6
Continuous
 62
     7
370
    15
100
AcDbLine
 10
3.6978830321
 20
7.2345885899
 30
0.0
 11
3.6978830321
 21
7.276665973
 31
0.0
  0
ARC
  5
C3
330
1F
100
AcDbEntity
  8
0
  6
Continuous
 62
     7
370
    15
100
AcDbCircle
 10
3.7339437784
 20
7.2411064298
 30
0.0
 40
0.0506444324763921
100
AcDbArc
 50
95.9259545494
 51
135.4009527628
  0
LINE
  5
C4
330
1F
100
AcDbEntity
  8
0
  6
Continuous
 62
     7
370
    15
100
AcDbLine
 10
3.7287150893
 20
7.2914802261
 30
0.0
 11
3.7287150893
 21
7.249402843
 31
0.0
  0
ARC
  5
C5
330
1F
100
AcDbEntity
  8
0
  6
Continuous
 62
     7
370
    15
100
AcDbCircle
 10
3.7348448594
 20
7.1952887957
 30
0.0
 40
0.0544601156093119
100
AcDbArc
 50
80.4382189123
 51
96.4626337132
  0
LINE
  5
C6
330
1F
100
AcDbEntity
  8
0
  6
Continuous
 62
     7
370
    15
100
AcDbLine
 10
3.7438912839
 20
7.2489923002
 30
0.0
 11
3.7438912839
 21
7.2910696833
 31
0.0
  0
ARC
  5
C7
330
1F
100
AcDbEntity
  8
0
  6
Continuous
 62
     7
370
    15
100
AcDbCircle
 10
3.7361157578
 20
7.241836218
 30
0.0
 40
0.0498436848102205
100
AcDbArc
 50
41.1209920532
 51
81.0253056469
  0
LINE
  5
C8
330
1F
100
AcDbEntity
  8
0
  6
Continuous
 62
     7
370
    15
100
AcDbLine
 10
3.7736641267
 20
7.2746159817
 30
0.0
 11
3.7736641267
 21
7.2325385986
 31
0.0
  0
ARC
  5
C9
330
1F
100
AcDbEntity
  8
0
  6
Continuous
 62
     7
370
    15
100
AcDbCircle
 10
3.7414974255
 20
7.2050460335
 30
0.0
 40
0.0423147468466956
100
AcDbArc
 50
21.5495715917
 51
40.5201876673
  0
LINE
  5
CA
330
1F
100
AcDbEntity
  8
0
  6
Continuous
 62
     7
370
    15
100
AcDbLine
 10
3.7808543769
 20
7.2205884971
 30
0.0
 11
3.7808543769
 21
7.2626658756
 31
0.0
  0
ARC
  5
CB
330
1F
100
AcDbEntity
  8
0
  6
Continuous
 62
     7
370
    15
100
AcDbCircle
 10
3.7441976495
 20
7.2482255431
 30
0.0
 40
0.0393984628072328
100
AcDbArc
 50
0.0532584487
 51
21.5011684896
  0
LWPOLYLINE
  5
CC
330
1F
100
AcDbEntity
  8
0
  6
Continuous
 62
     7
370
    15
100
AcDbPolyline
 90
        3
 70
   128
 43
0.0
 10
3.7553920178
 20
7.2218474005
 10
3.7611468213
 20
7.2179682174
 10
3.7622716683
 20
7.2170157246
  0
ARC
  5
CD
330
1F
100
AcDbEntity
  8
0
  6
Continuous
 62
     7
370
    15
100
AcDbCircle
 10
3.7349070741
 20
7.1847620744
 30
0.0
 40
0.0423669013029216
100
AcDbArc
 50
61.0849119224
 51
131.2188197324
  0
ARC
  5
CE
330
1F
100
AcDbEntity
  8
0
  6
Continuous
 62
     7
370
    15
100
AcDbCircle
 10
3.7363737607
 20
7.2938838106
 30
0.0
 40
0.008026983723514
100
AcDbArc
 50
197.4238558904
 51
339.4769967351
  0
ARC
  5
CF
330
1F
100
AcDbEntity
  8
0
  6
Continuous
 62
     7
370
    15
100
AcDbCircle
 10
3.6923303074
 20
7.2731763741
 30
0.0
 40
0.0084096680147433
100
AcDbArc
 50
253.1815313573
 51
311.3211316692
  0
ARC
  5
D0
330
1F
100
AcDbEntity
  8
0
  6
Continuous
 62
     7
370
    15
100
AcDbCircle
 10
3.7788826325
 20
7.270922503
 30
0.0
 40
0.008488796855938
100
AcDbArc
 50
232.0660894109
 51
283.4311112823
  0
ARC
  5
D1
330
1F
100
AcDbEntity
  8
0
  6
Continuous
 62
     7
370
    15
100
AcDbCircle
 10
3.7113811219
 20
7.0493308606
 30
0.0
 40
0.0452589779758103
100
AcDbArc
 50
137.8786850007
 51
216.1725230431
  0
ARC
  5
D2
330
1F
100
AcDbEntity
  8
0
  6
Continuous
 62
     7
370
    15
100
AcDbCircle
 10
3.7148497378
 20
7.0454464072
 30
0.0
 40
0.0505804606279807
100
AcDbArc
 50
64.9053933287
 51
117.7112104024
  0
ARC
  5
D3
330
1F
100
AcDbEntity
  8
0
  6
Continuous
 62
     7
370
    15
100
AcDbCircle
 10
3.7158475383
 20
7.0832363047
 30
0.0
 40
0.0483818394132122
100
AcDbArc
 50
42.1552601163
 51
60.9465024353
  0
LINE
  5
D4
330
1F
100
AcDbEntity
  8
0
  6
Continuous
 62
     7
370
    15
100
AcDbLine
 10
3.7517143936
 20
7.1157073854
 30
0.0
 11
3.7517143936
 21
7.0912525137
 31
0.0
  0
LINE
  5
D5
330
1F
100
AcDbEntity
  8
0
  6
Continuous
 62
     7
370
    15
100
AcDbLine
 10
3.7597387642
 20
7.0912525137
 30
0.0
 11
3.7597387642
 21
7.1033589784
 31
0.0
  0
ARC
  5
D6
330
1F
100
AcDbEntity
  8
0
  6
Continuous
 62
     7
370
    15
100
AcDbCircle
 10
3.7184293557
 20
7.0850807866
 30
0.0
 40
0.0451725527877443
100
AcDbArc
 50
7.8526308824
 51
23.8679732822
  0
ARC
  5
D7
330
1F
100
AcDbEntity
  8
0
  6
Continuous
 62
     7
370
    15
100
AcDbCircle
 10
3.7110267811
 20
7.085137732
 30
0.0
 40
0.0449306705049567
100
AcDbArc
 50
160.0586443005
 51
179.982854195
  0
LINE
  5
D8
330
1F
100
AcDbEntity
  8
0
  6
Continuous
 62
     7
370
    15
100
AcDbLine
 10
3.6687900549
 20
7.1004617036
 30
0.0
 11
3.6687900549
 21
7.073584802
 31
0.0
  0
ARC
  5
D9
330
1F
100
AcDbEntity
  8
0
  6
Continuous
 62
     7
370
    15
100
AcDbCircle
 10
3.7121192152
 20
7.0578482304
 30
0.0
 40
0.0460983277663585
100
AcDbArc
 50
141.7037862809
 51
160.0396554707
  0
LINE
  5
DA
330
1F
100
AcDbEntity
  8
0
  6
Continuous
 62
     7
370
    15
100
AcDbLine
 10
3.6759404489
 20
7.0864166166
 30
0.0
 11
3.6759404489
 21
7.1132935205
 31
0.0
  0
ARC
  5
DB
330
1F
100
AcDbEntity
  8
0
  6
Continuous
 62
     7
370
    15
100
AcDbCircle
 10
3.7141539816
 20
7.0829077529
 30
0.0
 40
0.0488218082350122
100
AcDbArc
 50
108.3472460609
 51
141.5097803074
  0
LINE
  5
DC
330
1F
100
AcDbEntity
  8
0
  6
Continuous
 62
     7
370
    15
100
AcDbLine
 10
3.705658329
 20
7.126260338
 30
0.0
 11
3.705658329
 21
7.1041410098
 31
0.0
  0
ARC
  5
DD
330
1F
100
AcDbEntity
  8
0
  6
Continuous
 62
     7
370
    15
100
AcDbCircle
 10
3.7148466282
 20
7.054128413
 30
0.0
 40
0.0508496281612108
100
AcDbArc
 50
83.2389155007
 51
100.4102736741
  0
LINE
  5
DE
330
1F
100
AcDbEntity
  8
0
  6
Continuous
 62
     7
370
    15
100
AcDbLine
 10
3.7208331303
 20
7.1046244176
 30
0.0
 11
3.7208331303
 21
7.1255300954
 31
0.0
  0
ARC
  5
DF
330
1F
100
AcDbEntity
  8
0
  6
Continuous
 62
     7
370
    15
100
AcDbCircle
 10
3.7572890836
 20
7.1110048953
 30
0.0
 40
0.0080287596130929
100
AcDbArc
 50
226.0253427678
 51
287.7649753219
  0
ARC
  5
E0
330
1F
100
AcDbEntity
  8
0
  6
Continuous
 62
     7
370
    15
100
AcDbCircle
 10
3.6707386797
 20
7.1082810916
 30
0.0
 40
0.0080585339075922
100
AcDbArc
 50
256.0066749614
 51
310.2030398205
  0
ARC
  5
E1
330
1F
100
AcDbEntity
  8
0
  6
Continuous
 62
     7
370
    15
100
AcDbCircle
 10
4.8191080244
 20
7.2585361781
 30
0.0
 40
0.0487380291880901
100
AcDbArc
 50
324.4472599261
 51
35.1020516941
  0
ARC
  5
E2
330
1F
100
AcDbEntity
  8
0
  6
Continuous
 62
     7
370
    15
100
AcDbCircle
 10
4.8190961014
 20
7.2585492081
 30
0.0
 40
0.0487563594338357
100
AcDbArc
 50
259.1890709258
 51
280.8109290742
  0
ARC
  5
E3
330
1F
100
AcDbEntity
  8
0
  6
Continuous
 62
     7
370
    15
100
AcDbCircle
 10
4.819107381
 20
7.256469066
 30
0.0
 40
0.0487387089745126
100
AcDbArc
 50
328.3749520128
 51
359.9996810001
  0
LINE
  5
E4
330
1F
100
AcDbEntity
  8
0
  6
Continuous
 62
     7
370
    15
100
AcDbLine
 10
4.8606082835
 20
7.2309125241
 30
0.0
 11
4.8606082835
 21
7.232463057
 31
0.0
  0
LWPOLYLINE
  5
E5
330
1F
100
AcDbEntity
  8
0
  6
Continuous
 62
     7
370
    15
100
AcDbPolyline
 90
        3
 70
   128
 43
0.0
 10
4.8586301397
 20
7.2294991871
 10
4.8595776688
 20
7.2308604947
 10
4.8606082835
 20
7.232463057
  0
ARC
  5
E6
330
1F
100
AcDbEntity
  8
0
  6
Continuous
 62
     7
370
    15
100
AcDbCircle
 10
4.8190960044
 20
7.256482379
 30
0.0
 40
0.0487569139948487
100
AcDbArc
 50
268.3790049203
 51
289.9754280995
  0
LINE
  5
E7
330
1F
100
AcDbEntity
  8
0
  6
Continuous
 62
     7
370
    15
100
AcDbLine
 10
4.8177167724
 20
7.2077449767
 30
0.0
 11
4.8177167724
 21
7.2092955142
 31
0.0
  0
ARC
  5
E8
330
1F
100
AcDbEntity
  8
0
  6
Continuous
 62
     7
370
    15
100
AcDbCircle
 10
4.8190961883
 20
7.2580330314
 30
0.0
 40
0.0487570340221365
100
AcDbArc
 50
256.3247138523
 51
268.3787927104
  0
LINE
  5
E9
330
1F
100
AcDbEntity
  8
0
  6
Continuous
 62
     7
370
    15
100
AcDbLine
 10
4.8027917414
 20
7.2106582014
 30
0.0
 11
4.8027917414
 21
7.2105323903
 31
0.0
  0
LINE
  5
EA
330
1F
100
AcDbEntity
  8
0
  6
Continuous
 62
     7
370
    15
100
AcDbLine
 10
4.8174735652
 20
7.2093030079
 30
0.0
 11
4.8177167724
 21
7.2077449767
 31
0.0
  0
LINE
  5
EB
330
1F
100
AcDbEntity
  8
0
  6
Continuous
 62
     7
370
    15
100
AcDbLine
 10
4.8598381458
 20
7.231252686
 30
0.0
 11
4.8606082835
 21
7.2309125241
 31
0.0
  0
ARC
  5
EC
330
1F
100
AcDbEntity
  8
0
  6
Continuous
 62
     7
370
    15
100
AcDbCircle
 10
4.8012688796
 20
7.1141741895
 30
0.0
 40
0.0465762040658815
100
AcDbArc
 50
343.3484619246
 51
16.3080953193
  0
ARC
  5
ED
330
1F
100
AcDbEntity
  8
0
  6
Continuous
 62
     7
370
    15
100
AcDbCircle
 10
4.7990732368
 20
7.1159846667
 30
0.0
 40
0.0494552722006883
100
AcDbArc
 50
227.0990916876
 51
321.927844635
  0
LWPOLYLINE
  5
EE
330
1F
100
AcDbEntity
  8
0
  6
Continuous
 62
     7
370
    15
100
AcDbPolyline
 90
        3
 70
   128
 43
0.0
 10
4.8478460843
 20
7.0873690315
 10
4.8477890683
 20
7.0850662127
 10
4.8473678465
 20
7.0807155658
  0
LINE
  5
EF
330
1F
100
AcDbEntity
  8
0
  6
Continuous
 62
     7
370
    15
100
AcDbLine
 10
4.8473678465
 20
7.0807155658
 30
0.0
 11
4.8473678465
 21
7.1008194561
 31
0.0
  0
ARC
  5
F0
330
1F
100
AcDbEntity
  8
0
  6
Continuous
 62
     7
370
    15
100
AcDbCircle
 10
4.8010419364
 20
7.1075267685
 30
0.0
 40
0.0468089519677418
100
AcDbArc
 50
333.4946834719
 51
351.761659238
  0
LINE
  5
F1
330
1F
100
AcDbEntity
  8
0
  6
Continuous
 62
     7
370
    15
100
AcDbLine
 10
4.8429309377
 20
7.0866368295
 30
0.0
 11
4.8429309377
 21
7.0665329438
 31
0.0
  0
ARC
  5
F2
330
1F
100
AcDbEntity
  8
0
  6
Continuous
 62
     7
370
    15
100
AcDbCircle
 10
4.7997572447
 20
7.0882098064
 30
0.0
 40
0.0483099796950692
100
AcDbArc
 50
291.334058739
 51
333.3394604017
  0
LINE
  5
F3
330
1F
100
AcDbEntity
  8
0
  6
Continuous
 62
     7
370
    15
100
AcDbLine
 10
4.8173326568
 20
7.0432102616
 30
0.0
 11
4.8173326568
 21
7.0633141427
 31
0.0
  0
ARC
  5
F4
330
1F
100
AcDbEntity
  8
0
  6
Continuous
 62
     7
370
    15
100
AcDbCircle
 10
4.799118886
 20
7.1095808908
 30
0.0
 40
0.0497227656795885
100
AcDbArc
 50
273.944340881
 51
291.4880073174
  0
LINE
  5
F5
330
1F
100
AcDbEntity
  8
0
  6
Continuous
 62
     7
370
    15
100
AcDbLine
 10
4.8025391844
 20
7.0599759013
 30
0.0
 11
4.8025391844
 21
7.0398720202
 31
0.0
  0
ARC
  5
F6
330
1F
100
AcDbEntity
  8
0
  6
Continuous
 62
     7
370
    15
100
AcDbCircle
 10
4.7990589705
 20
7.0892932954
 30
0.0
 40
0.0495436609016842
100
AcDbArc
 50
232.7361008315
 51
274.0280818355
  0
LINE
  5
F7
330
1F
100
AcDbEntity
  8
0
  6
Continuous
 62
     7
370
    15
100
AcDbLine
 10
4.7690609244
 20
7.0498637181
 30
0.0
 11
4.7690609244
 21
7.0699676083
 31
0.0
  0
ARC
  5
F8
330
1F
100
AcDbEntity
  8
0
  6
Continuous
 62
     7
370
    15
100
AcDbCircle
 10
4.7982499013
 20
7.1082144796
 30
0.0
 40
0.0481125714872856
100
AcDbArc
 50
216.2617553411
 51
232.6501065367
  0
LINE
  5
F9
330
1F
100
AcDbEntity
  8
0
  6
Continuous
 62
     7
370
    15
100
AcDbLine
 10
4.7587043241
 20
7.0797570919
 30
0.0
 11
4.7587043241
 21
7.0607081078
 31
0.0
  0
ARC
  5
FA
330
1F
100
AcDbEntity
  8
0
  6
Continuous
 62
     7
370
    15
100
AcDbCircle
 10
4.7973051384
 20
7.0874681202
 30
0.0
 40
0.0469693637435663
100
AcDbArc
 50
189.4491054355
 51
214.7316327754
  0
ARC
  5
FB
330
1F
100
AcDbEntity
  8
0
  6
Continuous
 62
     7
370
    15
100
AcDbCircle
 10
4.7990960958
 20
7.1158803578
 30
0.0
 40
0.0398639420251369
100
AcDbArc
 50
244.9805023056
 51
295.0194976944
  0
ARC
  5
FC
330
1F
100
AcDbEntity
  8
0
  6
Continuous
 62
     7
370
    15
100
AcDbCircle
 10
4.810372776
 20
7.0396052089
 30
0.0
 40
0.0078381340952158
100
AcDbArc
 50
27.3830822729
 51
178.0492659255
  0
ARC
  5
FD
330
1F
100
AcDbEntity
  8
0
  6
Continuous
 62
     7
370
    15
100
AcDbCircle
 10
4.7625330751
 20
7.0537930229
 30
0.0
 40
0.0079042857178869
100
AcDbArc
 50
34.3240153911
 51
118.9724650563
  0
LWPOLYLINE
  5
FE
330
1F
100
AcDbEntity
  8
0
  6
Continuous
 62
     7
370
    15
100
AcDbPolyline
 90
        3
 70
   128
 43
0.0
 10
4.8429309377
 20
7.0796625022
 10
4.8447926662
 20
7.0804418982
 10
4.8473678465
 20
7.0807155658
  0
LINE
  5
FF
330
1F
100
AcDbEntity
  8
0
  6
Continuous
 62
     7
370
    15
100
AcDbLine
 10
3.7873460986
 20
7.0472374159
 30
0.0
 11
3.6983460901
 21
7.0472374159
 31
0.0
  0
LINE
  5
100
330
1F
100
AcDbEntity
  8
0
  6
Continuous
 62
     7
370
    15
100
AcDbLine
 10
3.6983460901
 20
7.0764881359
 30
0.0
 11
3.6983460901
 21
7.0472374159
 31
0.0
  0
LINE
  5
101
330
1F
100
AcDbEntity
  8
0
  6
Continuous
 62
     7
370
    15
100
AcDbLine
 10
3.7873460986
 20
7.0764881359
 30
0.0
 11
3.6983460901
 21
7.0764881359
 31
0.0
  0
LWPOLYLINE
  5
102
330
1F
100
AcDbEntity
  8
0
  6
Continuous
 62
     7
370
    15
100
AcDbPolyline
 90
        9
 70
   128
 43
0.0
 10
3.6983460901
 20
7.0472374159
 10
3.6937614897
 20
7.0473668752
 10
3.689353034
 20
7.0477502575
 10
3.6852901942
 20
7.048372832
 10
3.6817290954
 20
7.0492106831
 10
3.6788065758
 20
7.0502316088
 10
3.6766349442
 20
7.051396367
 10
3.675297653
 20
7.0526602158
 10
3.6748461082
 20
7.0539745631
  0
ARC
  5
103
330
1F
100
AcDbEntity
  8
0
  6
Continuous
 62
     7
370
    15
100
AcDbCircle
 10
3.6978632431
 20
7.0534705473
 30
0.0
 40
0.0230226525015753
100
AcDbArc
 50
88.7982651075
 51
178.7455708817
  0
LINE
  5
104
330
1F
100
AcDbEntity
  8
0
  6
Continuous
 62
     7
370
    15
100
AcDbLine
 10
3.6748461082
 20
7.006791864
 30
0.0
 11
3.6748461082
 21
7.0539745631
 31
0.0
  0
LINE
  5
105
330
1F
100
AcDbEntity
  8
0
  6
Continuous
 62
     7
370
    15
100
AcDbLine
 10
3.6983460901
 20
7.0472374159
 30
0.0
 11
3.6983460901
 21
7.000054726
 31
0.0
  0
LWPOLYLINE
  5
106
330
1F
100
AcDbEntity
  8
0
  6
Continuous
 62
     7
370
    15
100
AcDbPolyline
 90
        9
 70
   128
 43
0.0
 10
3.6983460901
 20
7.000054726
 10
3.6937614897
 20
7.0001841761
 10
3.689353034
 20
7.0005675584
 10
3.6852901942
 20
7.0011901329
 10
3.6817290954
 20
7.002027984
 10
3.6788065758
 20
7.0030489097
 10
3.6766349442
 20
7.0042136771
 10
3.675297653
 20
7.0054775167
 10
3.6748461082
 20
7.006791864
  0
LINE
  5
107
330
1F
100
AcDbEntity
  8
0
  6
Continuous
 62
     7
370
    15
100
AcDbLine
 10
3.7873460986
 20
7.000054726
 30
0.0
 11
3.6983460901
 21
7.000054726
 31
0.0
  0
LINE
  5
108
330
1F
100
AcDbEntity
  8
0
  6
Continuous
 62
     7
370
    15
100
AcDbLine
 10
3.6748461082
 20
7.0539745631
 30
0.0
 11
3.6748461082
 21
7.0687389409
 31
0.0
  0
ARC
  5
109
330
1F
100
AcDbEntity
  8
0
  6
Continuous
 62
     7
370
    15
100
AcDbCircle
 10
3.6978632412
 20
7.068234927
 30
0.0
 40
0.0230226505830519
100
AcDbArc
 50
88.7982603373
 51
178.7455756519
  0
LINE
  5
10A
330
1F
100
AcDbEntity
  8
0
  6
Continuous
 62
     7
370
    15
100
AcDbLine
 10
3.6983460901
 20
7.0912525137
 30
0.0
 11
3.6983460901
 21
7.0764881359
 31
0.0
  0
LINE
  5
10B
330
1F
100
AcDbEntity
  8
0
  6
Continuous
 62
     7
370
    15
100
AcDbLine
 10
3.7873460986
 20
7.0912525137
 30
0.0
 11
3.6983460901
 21
7.0912525137
 31
0.0
  0
LINE
  5
10C
330
1F
100
AcDbEntity
  8
0
  6
Continuous
 62
     7
370
    15
100
AcDbLine
 10
4.7465961039
 20
7.2353954215
 30
0.0
 11
4.8355961125
 21
7.2353954215
 31
0.0
  0
LINE
  5
10D
330
1F
100
AcDbEntity
  8
0
  6
Continuous
 62
     7
370
    15
100
AcDbLine
 10
4.8355961125
 20
7.2115099628
 30
0.0
 11
4.8355961125
 21
7.2353954215
 31
0.0
  0
LINE
  5
10E
330
1F
100
AcDbEntity
  8
0
  6
Continuous
 62
     7
370
    15
100
AcDbLine
 10
4.7465961039
 20
7.2115099628
 30
0.0
 11
4.8355961125
 21
7.2115099628
 31
0.0
  0
ARC
  5
10F
330
1F
100
AcDbEntity
  8
0
  6
Continuous
 62
     7
370
    15
100
AcDbCircle
 10
4.8414693856
 20
6.8798809281
 30
0.0
 40
0.3555630047248409
100
AcDbArc
 50
87.1584497462
 51
90.9464681632
  0
ARC
  5
110
330
1F
100
AcDbEntity
  8
0
  6
Continuous
 62
     7
370
    15
100
AcDbCircle
 10
4.8355977009
 20
7.2350083563
 30
0.0
 40
0.0234983935353462
100
AcDbArc
 50
269.9961270792
 51
359.9960837034
  0
LINE
  5
111
330
1F
100
AcDbEntity
  8
0
  6
Continuous
 62
     7
370
    15
100
AcDbLine
 10
4.7465961039
 20
7.2846386809
 30
0.0
 11
4.8355961125
 21
7.2846386809
 31
0.0
  0
LINE
  5
112
330
1F
100
AcDbEntity
  8
0
  6
Continuous
 62
     7
370
    15
100
AcDbLine
 10
4.8355961125
 20
7.2353954215
 30
0.0
 11
4.8355961125
 21
7.2846386809
 31
0.0
  0
LINE
  5
113
330
1F
100
AcDbEntity
  8
0
  6
Continuous
 62
     7
370
    15
100
AcDbLine
 10
4.8590960943
 20
7.2842500096
 30
0.0
 11
4.8590960943
 21
7.2350067501
 31
0.0
  0
ARC
  5
114
330
1F
100
AcDbEntity
  8
0
  6
Continuous
 62
     7
370
    15
100
AcDbCircle
 10
4.8414693856
 20
6.9291241876
 30
0.0
 40
0.3555630047234832
100
AcDbArc
 50
87.1584497462
 51
90.9464681632
  0
LINE
  5
115
330
1F
100
AcDbEntity
  8
0
  6
Continuous
 62
     7
370
    15
100
AcDbLine
 10
4.8355961125
 20
7.2846386809
 30
0.0
 11
4.8355961125
 21
7.3077468015
 31
0.0
  0
ARC
  5
116
330
1F
100
AcDbEntity
  8
0
  6
Continuous
 62
     7
370
    15
100
AcDbCircle
 10
4.835597691
 20
7.2842483981
 30
0.0
 40
0.0234984034445679
100
AcDbArc
 50
0.0039292828
 51
90.0038487586
  0
LINE
  5
117
330
1F
100
AcDbEntity
  8
0
  6
Continuous
 62
     7
370
    15
100
AcDbLine
 10
4.8355961125
 20
7.2106582014
 30
0.0
 11
4.8355961125
 21
7.2115099628
 31
0.0
  0
LINE
  5
118
330
1F
100
AcDbEntity
  8
0
  6
Continuous
 62
     7
370
    15
100
AcDbLine
 10
4.7465961039
 20
7.2106582014
 30
0.0
 11
4.8355961125
 21
7.2106582014
 31
0.0
  0
LINE
  5
119
330
1F
100
AcDbEntity
  8
0
  6
Continuous
 62
     7
370
    15
100
AcDbLine
 10
4.8590960943
 20
7.2350067501
 30
0.0
 11
4.8590960943
 21
7.2341549841
 31
0.0
  0
ARC
  5
11A
330
1F
100
AcDbEntity
  8
0
  6
Continuous
 62
     7
370
    15
100
AcDbCircle
 10
4.8355977074
 20
7.2341565884
 30
0.0
 40
0.0234983870243587
100
AcDbArc
 50
269.9961112028
 51
359.9960884037
  0
LWPOLYLINE
  5
11B
330
1F
100
AcDbEntity
  8
0
  6
Continuous
 62
     7
370
    15
100
AcDbPolyline
 90
        9
 70
   128
 43
0.0
 10
4.8224711008
 20
7.1152552333
 10
4.8270557378
 20
7.1151584046
 10
4.8314641569
 20
7.1148716356
 10
4.8355269966
 20
7.1144059468
 10
4.8390880955
 20
7.113779236
 10
4.8420106517
 20
7.1130155858
 10
4.8441822833
 20
7.1121443455
 10
4.8455195378
 20
7.1111989935
 10
4.8459711193
 20
7.1102158592
  0
ARC
  5
11C
330
1F
100
AcDbEntity
  8
0
  6
Continuous
 62
     7
370
    15
100
AcDbCircle
 10
4.8227412502
 20
7.1104924889
 30
0.0
 40
0.0232315161456247
100
AcDbArc
 50
269.333716721
 51
359.3177333634
  0
LINE
  5
11D
330
1F
100
AcDbEntity
  8
0
  6
Continuous
 62
     7
370
    15
100
AcDbLine
 10
4.8224711008
 20
7.0872625435
 30
0.0
 11
4.8224711008
 21
7.1152552333
 31
0.0
  0
LINE
  5
11E
330
1F
100
AcDbEntity
  8
0
  6
Continuous
 62
     7
370
    15
100
AcDbLine
 10
4.7465961039
 20
7.1152552333
 30
0.0
 11
4.8224711008
 21
7.1152552333
 31
0.0
  0
LINE
  5
11F
330
1F
100
AcDbEntity
  8
0
  6
Continuous
 62
     7
370
    15
100
AcDbLine
 10
4.7465961039
 20
7.0872625435
 30
0.0
 11
4.8224711008
 21
7.0872625435
 31
0.0
  0
LINE
  5
120
330
1F
100
AcDbEntity
  8
0
  6
Continuous
 62
     7
370
    15
100
AcDbLine
 10
4.8459711193
 20
7.144401649
 30
0.0
 11
4.8459711193
 21
7.1102158592
 31
0.0
  0
LINE
  5
121
330
1F
100
AcDbEntity
  8
0
  6
Continuous
 62
     7
370
    15
100
AcDbLine
 10
4.8224711008
 20
7.1152552333
 30
0.0
 11
4.8224711008
 21
7.1494410237
 31
0.0
  0
LWPOLYLINE
  5
122
330
1F
100
AcDbEntity
  8
0
  6
Continuous
 62
     7
370
    15
100
AcDbPolyline
 90
        9
 70
   128
 43
0.0
 10
4.8224711008
 20
7.1494410237
 10
4.8270557378
 20
7.1493441936
 10
4.8314641569
 20
7.1490574241
 10
4.8355269966
 20
7.1485917359
 10
4.8390880955
 20
7.147965025
 10
4.8420106517
 20
7.1472013756
 10
4.8441822833
 20
7.1463301342
 10
4.8455195378
 20
7.1453847823
 10
4.8459711193
 20
7.144401649
  0
LINE
  5
123
330
1F
100
AcDbEntity
  8
0
  6
Continuous
 62
     7
370
    15
100
AcDbLine
 10
4.7465961039
 20
7.1494410237
 30
0.0
 11
4.8224711008
 21
7.1494410237
 31
0.0
  0
LINE
  5
124
330
1F
100
AcDbEntity
  8
0
  6
Continuous
 62
     7
370
    15
100
AcDbLine
 10
4.8459711193
 20
7.1102158592
 30
0.0
 11
4.8459711193
 21
7.1027104076
 31
0.0
  0
ARC
  5
125
330
1F
100
AcDbEntity
  8
0
  6
Continuous
 62
     7
370
    15
100
AcDbCircle
 10
4.8227412456
 20
7.102987042
 30
0.0
 40
0.0232315207886964
100
AcDbArc
 50
269.3337281689
 51
359.3177219154
  0
LINE
  5
126
330
1F
100
AcDbEntity
  8
0
  6
Continuous
 62
     7
370
    15
100
AcDbLine
 10
4.8224711008
 20
7.0797570919
 30
0.0
 11
4.8224711008
 21
7.0872625435
 31
0.0
  0
LINE
  5
127
330
1F
100
AcDbEntity
  8
0
  6
Continuous
 62
     7
370
    15
100
AcDbLine
 10
4.7465961039
 20
7.0797570919
 30
0.0
 11
4.8224711008
 21
7.0797570919
 31
0.0
  0
ARC
  5
128
330
1F
100
AcDbEntity
  8
0
  6
Continuous
 62
     7
370
    15
100
AcDbCircle
 10
4.7990960958
 20
7.1181302948
 30
0.0
 40
0.0399328569679944
100
AcDbArc
 50
253.9339052414
 51
286.0660947586
  0
ARC
  5
129
330
1F
100
AcDbEntity
  8
0
  6
Continuous
 62
     7
370
    15
100
AcDbCircle
 10
4.7990961141
 20
7.1164133001
 30
0.0
 40
0.0398922704793269
100
AcDbArc
 50
246.7628862229
 51
293.2371137771
  0
LWPOLYLINE
  5
12A
330
1F
100
AcDbEntity
  8
0
  6
Continuous
 62
     7
370
    15
100
AcDbPolyline
 90
        9
 70
   128
 43
0.0
 10
3.7114711018
 20
7.1697593791
 10
3.7068864648
 20
7.1699620449
 10
3.7024780457
 20
7.1705622529
 10
3.698415206
 20
7.1715369356
 10
3.6948541071
 20
7.1728486407
 10
3.6919315509
 20
7.1744469566
 10
3.6897599193
 20
7.1762704628
 10
3.6884226647
 20
7.178249081
 10
3.6879710833
 20
7.1803067768
  0
ARC
  5
12B
330
1F
100
AcDbEntity
  8
0
  6
Continuous
 62
     7
370
    15
100
AcDbCircle
 10
3.710287632
 20
7.1789823671
 30
0.0
 40
0.0223558137040101
100
AcDbArc
 50
86.9654632577
 51
176.6036778183
  0
LINE
  5
12C
330
1F
100
AcDbEntity
  8
0
  6
Continuous
 62
     7
370
    15
100
AcDbLine
 10
3.7114711018
 20
7.2013068336
 30
0.0
 11
3.7114711018
 21
7.1697593791
 31
0.0
  0
LINE
  5
12D
330
1F
100
AcDbEntity
  8
0
  6
Continuous
 62
     7
370
    15
100
AcDbLine
 10
3.7873460986
 20
7.1697593791
 30
0.0
 11
3.7114711018
 21
7.1697593791
 31
0.0
  0
LINE
  5
12E
330
1F
100
AcDbEntity
  8
0
  6
Continuous
 62
     7
370
    15
100
AcDbLine
 10
3.7873460986
 20
7.2013068336
 30
0.0
 11
3.7114711018
 21
7.2013068336
 31
0.0
  0
LINE
  5
12F
330
1F
100
AcDbEntity
  8
0
  6
Continuous
 62
     7
370
    15
100
AcDbLine
 10
3.6879710833
 20
7.1490300953
 30
0.0
 11
3.6879710833
 21
7.1803067768
 31
0.0
  0
LINE
  5
130
330
1F
100
AcDbEntity
  8
0
  6
Continuous
 62
     7
370
    15
100
AcDbLine
 10
3.7114711018
 20
7.1697593791
 30
0.0
 11
3.7114711018
 21
7.1384826979
 31
0.0
  0
LWPOLYLINE
  5
131
330
1F
100
AcDbEntity
  8
0
  6
Continuous
 62
     7
370
    15
100
AcDbPolyline
 90
        9
 70
   128
 43
0.0
 10
3.7114711018
 20
7.1384826979
 10
3.7068864648
 20
7.1386853637
 10
3.7024780457
 20
7.1392855712
 10
3.698415206
 20
7.140260255
 10
3.6948541071
 20
7.1415719595
 10
3.6919315509
 20
7.1431702754
 10
3.6897599193
 20
7.1449937812
 10
3.6884226647
 20
7.1469724003
 10
3.6879710833
 20
7.1490300953
  0
LINE
  5
132
330
1F
100
AcDbEntity
  8
0
  6
Continuous
 62
     7
370
    15
100
AcDbLine
 10
3.7873460986
 20
7.1384826979
 30
0.0
 11
3.7114711018
 21
7.1384826979
 31
0.0
  0
LINE
  5
133
330
1F
100
AcDbEntity
  8
0
  6
Continuous
 62
     7
370
    15
100
AcDbLine
 10
3.6879710833
 20
7.1803067768
 30
0.0
 11
3.6879710833
 21
7.1960156655
 31
0.0
  0
ARC
  5
134
330
1F
100
AcDbEntity
  8
0
  6
Continuous
 62
     7
370
    15
100
AcDbCircle
 10
3.7102876319
 20
7.1946912583
 30
0.0
 40
0.0223558134674005
100
AcDbArc
 50
86.9654630031
 51
176.6036842861
  0
LINE
  5
135
330
1F
100
AcDbEntity
  8
0
  6
Continuous
 62
     7
370
    15
100
AcDbLine
 10
3.7114711018
 20
7.2170157246
 30
0.0
 11
3.7114711018
 21
7.2013068336
 31
0.0
  0
LINE
  5
136
330
1F
100
AcDbEntity
  8
0
  6
Continuous
 62
     7
370
    15
100
AcDbLine
 10
3.7873460986
 20
7.2170157246
 30
0.0
 11
3.7114711018
 21
7.2170157246
 31
0.0
  0
ARC
  5
137
330
1F
100
AcDbEntity
  8
0
  6
Continuous
 62
     7
370
    15
100
AcDbCircle
 10
3.7348460884
 20
7.1744679287
 30
0.0
 40
0.0435659032157897
100
AcDbArc
 50
77.5888950711
 51
102.4111049289
  0
ARC
  5
138
330
1F
100
AcDbEntity
  8
0
  6
Continuous
 62
     7
370
    15
100
AcDbCircle
 10
3.7348460884
 20
7.1756569726
 30
0.0
 40
0.0433496082417187
100
AcDbArc
 50
72.5682386788
 51
107.4317613212
  0
ARC
  5
139
330
1F
100
AcDbEntity
  8
0
  6
Continuous
 62
     7
370
    15
100
AcDbCircle
 10
3.7348461068
 20
7.1797036921
 30
0.0
 40
0.0428316421167063
100
AcDbArc
 50
60.5905031451
 51
119.4094968549
  0
ARC
  5
13A
330
1F
100
AcDbEntity
  8
0
  6
Continuous
 62
     7
370
    15
100
AcDbCircle
 10
3.7348488536
 20
7.1837608246
 30
0.0
 40
0.0423205843688665
100
AcDbArc
 50
51.7933824511
 51
128.5853711814
  0
LINE
  5
13B
330
1F
100
AcDbEntity
  8
0
  6
Continuous
 62
     7
370
    15
100
AcDbLine
 10
4.7153460883
 20
7.146896833
 30
0.0
 11
4.7153460883
 21
7.4906468219
 31
0.0
  0
LINE
  5
13C
330
1F
100
AcDbEntity
  8
0
  6
Continuous
 62
     7
370
    15
100
AcDbLine
 10
4.7153460883
 20
6.803146844
 30
0.0
 11
4.7153460883
 21
7.146896833
 31
0.0
  0
LINE
  5
13D
330
1F
100
AcDbEntity
  8
0
  6
Continuous
 62
     7
370
    15
100
AcDbLine
 10
4.5032211104
 20
7.146896833
 30
0.0
 11
4.5032211104
 21
7.4750218324
 31
0.0
  0
LINE
  5
13E
330
1F
100
AcDbEntity
  8
0
  6
Continuous
 62
     7
370
    15
100
AcDbLine
 10
4.5032211104
 20
6.8239642502
 30
0.0
 11
4.5032211104
 21
7.146896833
 31
0.0
  0
LINE
  5
13F
330
1F
100
AcDbEntity
  8
0
  6
Continuous
 62
     7
370
    15
100
AcDbLine
 10
4.7465961039
 20
7.146896833
 30
0.0
 11
4.7465961039
 21
7.4593968429
 31
0.0
  0
LINE
  5
140
330
1F
100
AcDbEntity
  8
0
  6
Continuous
 62
     7
370
    15
100
AcDbLine
 10
4.7465961039
 20
6.834396823
 30
0.0
 11
4.7465961039
 21
7.146896833
 31
0.0
  0
LINE
  5
141
330
1F
100
AcDbEntity
  8
0
  6
Continuous
 62
     7
370
    15
100
AcDbLine
 10
3.8185961143
 20
7.146896833
 30
0.0
 11
3.8185961143
 21
6.803146844
 31
0.0
  0
LINE
  5
142
330
1F
100
AcDbEntity
  8
0
  6
Continuous
 62
     7
370
    15
100
AcDbLine
 10
3.8185961143
 20
7.4906468219
 30
0.0
 11
3.8185961143
 21
7.146896833
 31
0.0
  0
LINE
  5
143
330
1F
100
AcDbEntity
  8
0
  6
Continuous
 62
     7
370
    15
100
AcDbLine
 10
3.7873460986
 20
7.146896833
 30
0.0
 11
3.7873460986
 21
6.834396823
 31
0.0
  0
LINE
  5
144
330
1F
100
AcDbEntity
  8
0
  6
Continuous
 62
     7
370
    15
100
AcDbLine
 10
3.7873460986
 20
7.4593968429
 30
0.0
 11
3.7873460986
 21
7.146896833
 31
0.0
  0
LINE
  5
145
330
1F
100
AcDbEntity
  8
0
  6
Continuous
 62
     7
370
    15
100
AcDbLine
 10
4.0307210921
 20
7.146896833
 30
0.0
 11
4.0307210921
 21
6.8187718335
 31
0.0
  0
LINE
  5
146
330
1F
100
AcDbEntity
  8
0
  6
Continuous
 62
     7
370
    15
100
AcDbLine
 10
4.0307210921
 20
7.4750218324
 30
0.0
 11
4.0307210921
 21
7.146896833
 31
0.0
  0
SPLINE
  5
147
330
1F
100
AcDbEntity
  8
0
  6
Continuous
 62
     7
370
    15
100
AcDbSpline
210
0.0
220
0.0
230
1.0
 70
     8
 71
     3
 72
    31
 73
    27
 74
     0
 42
0.00000001
 43
0.00000001
 12
1.0
 22
0.0
 32
0.0
 13
1.0
 23
0.0
 33
0.0
 40
0.0
 40
0.0
 40
0.0
 40
0.0
 40
0.0436332182657583
 40
0.0865377766972014
 40
0.1291773360898922
 40
0.1714363236638289
 40
0.2134158945709082
 40
0.2552659545538505
 40
0.2973694811566238
 40
0.3399407478985556
 40
0.382347458751812
 40
0.4239529468152709
 40
0.4648711632610174
 40
0.505572294118273
 40
0.5460025771083161
 40
0.5865679748069133
 40
0.6270647991481679
 40
0.6682706840331738
 40
0.7095492248503336
 40
0.7504281535131893
 40
0.7910961944485935
 40
0.8320271447794345
 40
0.8731359553359672
 40
0.9146107643654495
 40
0.9569559864804374
 40
1.0
 40
1.0
 40
1.0
 40
1.0
 10
4.22775458872622
 20
7.205496769318493
 30
0.0
 10
4.228265565114283
 20
7.205503789688398
 30
0.0
 10
4.229278984759345
 20
7.205517713190428
 30
0.0
 10
4.230786328084708
 20
7.205657952123536
 30
0.0
 10
4.232266515737372
 20
7.205882836194562
 30
0.0
 10
4.233717471578581
 20
7.206206621475161
 30
0.0
 10
4.235137548875837
 20
7.206611853384022
 30
0.0
 10
4.236532674807655
 20
7.207093275487183
 30
0.0
 10
4.237887989291622
 20
7.207693894783959
 30
0.0
 10
4.239220589986761
 20
7.208357508557023
 30
0.0
 10
4.240496148358456
 20
7.209114020769004
 30
0.0
 10
4.241713821183271
 20
7.209926606723975
 30
0.0
 10
4.242842916320143
 20
7.21082675044591
 30
0.0
 10
4.24391167213941
 20
7.211776341801201
 30
0.0
 10
4.244910130673765
 20
7.212794527450908
 30
0.0
 10
4.245831539993651
 20
7.213879983630829
 30
0.0
 10
4.246672797473858
 20
7.215039561766302
 30
0.0
 10
4.247447402866968
 20
7.216254427553353
 30
0.0
 10
4.248138408545714
 20
7.217524080467644
 30
0.0
 10
4.248740473174498
 20
7.218831136997419
 30
0.0
 10
4.249251251934254
 20
7.220172378670806
 30
0.0
 10
4.249663589756439
 20
7.221549740031465
 30
0.0
 10
4.24998670779169
 20
7.222960605113903
 30
0.0
 10
4.250209348472657
 20
7.224406863009246
 30
0.0
 10
4.250365086140883
 20
7.225885620479663
 30
0.0
 10
4.250376824699665
 20
7.226885794108878
 30
0.0
 10
4.250382742010895
 20
7.227389973434269
 30
0.0
  0
SPLINE
  5
148
330
1F
100
AcDbEntity
  8
0
  6
Continuous
 62
     7
370
    15
100
AcDbSpline
210
0.0
220
0.0
230
1.0
 70
     8
 71
     3
 72
    23
 73
    19
 74
     0
 42
0.00000001
 43
0.00000001
 12
1.0
 22
0.0
 32
0.0
 13
1.0
 23
0.0
 33
0.0
 40
0.0
 40
0.0
 40
0.0
 40
0.0
 40
0.0645039992970557
 40
0.1268993215900402
 40
0.1877465401000115
 40
0.2481497329298263
 40
0.3085860647627419
 40
0.3695830050869942
 40
0.4318269653810495
 40
0.4961797225241575
 40
0.56066785461188
 40
0.6235044551176646
 40
0.6852604113304278
 40
0.7465368217511669
 40
0.8083273517367078
 40
0.8704861878877675
 40
0.934316883359246
 40
0.9999999999999999
 40
0.9999999999999999
 40
0.9999999999999999
 40
0.9999999999999999
 10
4.205333463376445
 20
7.227151891309133
 30
0.0
 10
4.205352285501237
 20
7.226405388188462
 30
0.0
 10
4.205389314443521
 20
7.224936785611715
 30
0.0
 10
4.20571349709122
 20
7.222784657548976
 30
0.0
 10
4.206212846389477
 20
7.220716387182989
 30
0.0
 10
4.206948943005536
 20
7.218743291445585
 30
0.0
 10
4.207869490554248
 20
7.216848410126439
 30
0.0
 10
4.209006719359718
 20
7.21504855285872
 30
0.0
 10
4.210354072998165
 20
7.213343233199182
 30
0.0
 10
4.211884566415564
 20
7.211744356509117
 30
0.0
 10
4.213557668442651
 20
7.210284992182189
 30
0.0
 10
4.21533426679977
 20
7.209004012939486
 30
0.0
 10
4.217195328475202
 20
7.20792018039194
 30
0.0
 10
4.219145706672784
 20
7.207037215354859
 30
0.0
 10
4.221174988915228
 20
7.206337550929663
 30
0.0
 10
4.2232962513621
 20
7.205858034818489
 30
0.0
 10
4.225495363290706
 20
7.205542446541619
 30
0.0
 10
4.226994366888988
 20
7.205512139551997
 30
0.0
 10
4.22775458872622
 20
7.205496769318493
 30
0.0
  0
SPLINE
  5
149
330
1F
100
AcDbEntity
  8
0
  6
Continuous
 62
     7
370
    15
100
AcDbSpline
210
0.0
220
0.0
230
1.0
 70
     8
 71
     3
 72
    31
 73
    27
 74
     0
 42
0.00000001
 43
0.00000001
 12
1.0
 22
0.0
 32
0.0
 13
1.0
 23
0.0
 33
0.0
 40
0.0
 40
0.0
 40
0.0
 40
0.0
 40
0.0420233285259235
 40
0.0836449111687117
 40
0.1249837954173945
 40
0.1662474611728949
 40
0.2077015560969879
 40
0.2496310707996493
 40
0.2917417703321306
 40
0.3347428753531984
 40
0.3774601685508653
 40
0.4195563188419398
 40
0.4610441763330335
 40
0.5020962839443965
 40
0.5428907140755996
 40
0.583800818626505
 40
0.6248635833101931
 40
0.6662246890691707
 40
0.7073991864779363
 40
0.7485566775366932
 40
0.7896545909521799
 40
0.8307397264898321
 40
0.8720701422586047
 40
0.9139933952421326
 40
0.9564981300675881
 40
1.0
 40
1.0
 40
1.0
 40
1.0
 10
4.22775458872622
 20
7.249221069169576
 30
0.0
 10
4.227264206239048
 20
7.249215091349916
 30
0.0
 10
4.226288129354684
 20
7.249203192858959
 30
0.0
 10
4.224837051616073
 20
7.249046461910893
 30
0.0
 10
4.223405057923257
 20
7.24882308348421
 30
0.0
 10
4.221991852541156
 20
7.248504452847667
 30
0.0
 10
4.220603348488265
 20
7.248070329962886
 30
0.0
 10
4.219226603235935
 20
7.247570701126008
 30
0.0
 10
4.217874171232553
 20
7.246962110912243
 30
0.0
 10
4.216550517255193
 20
7.246274509208878
 30
0.0
 10
4.215267298800793
 20
7.245513438400751
 30
0.0
 10
4.214056459233259
 20
7.244672304423515
 30
0.0
 10
4.212914863905743
 20
7.243770832918399
 30
0.0
 10
4.211845307945403
 20
7.242806920068646
 30
0.0
 10
4.210850931918981
 20
7.241775657104191
 30
0.0
 10
4.209912164251984
 20
7.240692678121047
 30
0.0
 10
4.20906663332515
 20
7.23952702850932
 30
0.0
 10
4.208291733681319
 20
7.238310317199475
 30
0.0
 10
4.207598298171932
 20
7.237044128986475
 30
0.0
 10
4.206981672415762
 20
7.235741794231173
 30
0.0
 10
4.20647727330546
 20
7.234392689558623
 30
0.0
 10
4.206065911808374
 20
7.233011451363914
 30
0.0
 10
4.205724865062204
 20
7.231600267217193
 30
0.0
 10
4.205508809085417
 20
7.230148431896937
 30
0.0
 10
4.205350356001408
 20
7.228663240703556
 30
0.0
 10
4.205339137605685
 20
7.227659553258946
 30
0.0
 10
4.205333463376445
 20
7.227151891309133
 30
0.0
  0
SPLINE
  5
14A
330
1F
100
AcDbEntity
  8
0
  6
Continuous
 62
     7
370
    15
100
AcDbSpline
210
0.0
220
0.0
230
1.0
 70
     8
 71
     3
 72
    31
 73
    27
 74
     0
 42
0.00000001
 43
0.00000001
 12
1.0
 22
0.0
 32
0.0
 13
1.0
 23
0.0
 33
0.0
 40
0.0
 40
0.0
 40
0.0
 40
0.0
 40
0.04291508210105
 40
0.0851299705846994
 40
0.1264733185549989
 40
0.1674530378853887
 40
0.2079763328949879
 40
0.2482493780637604
 40
0.2887499869834431
 40
0.3296698569108729
 40
0.3705372867119747
 40
0.4111285639171174
 40
0.4518189126736378
 40
0.492405876934264
 40
0.533485861742023
 40
0.5752630624415513
 40
0.6174406128021906
 40
0.6606716882923646
 40
0.7039402042434888
 40
0.7468675221598701
 40
0.7890793003947228
 40
0.8311040424574037
 40
0.8732379898547746
 40
0.9151657696593329
 40
0.9573806581429823
 40
1.0
 40
1.0
 40
1.0
 40
1.0
 10
4.250382742010895
 20
7.227389973434269
 30
0.0
 10
4.25037681995911
 20
7.227890703611336
 30
0.0
 10
4.250365072478515
 20
7.228883994155303
 30
0.0
 10
4.250209422863413
 20
7.230352438581043
 30
0.0
 10
4.249986472573513
 20
7.231788289789861
 30
0.0
 10
4.249665166879108
 20
7.233185910844256
 30
0.0
 10
4.249251033026473
 20
7.234545658008832
 30
0.0
 10
4.248740383975443
 20
7.23586625420165
 30
0.0
 10
4.248138227803282
 20
7.237152619169311
 30
0.0
 10
4.247447148870848
 20
7.238401573540745
 30
0.0
 10
4.246670326259063
 20
7.239600041374337
 30
0.0
 10
4.245821478416334
 20
7.24074576721869
 30
0.0
 10
4.244885949292443
 20
7.241817234749261
 30
0.0
 10
4.243890468137079
 20
7.242840895590344
 30
0.0
 10
4.242810169578729
 20
7.2437949172982
 30
0.0
 10
4.24164994718671
 20
7.244679616347389
 30
0.0
 10
4.240423886234156
 20
7.245516343363005
 30
0.0
 10
4.239125724195379
 20
7.24627116367853
 30
0.0
 10
4.237785975988771
 20
7.246968236937986
 30
0.0
 10
4.236411236922712
 20
7.247565457542661
 30
0.0
 10
4.235017081040588
 20
7.248072929207854
 30
0.0
 10
4.233607053617729
 20
7.248505766325199
 30
0.0
 10
4.232169286524569
 20
7.24882183553767
 30
0.0
 10
4.230713494734267
 20
7.249046663216551
 30
0.0
 10
4.229241692369991
 20
7.249203138308386
 30
0.0
 10
4.228251862968737
 20
7.249215073248947
 30
0.0
 10
4.22775458872622
 20
7.249221069169576
 30
0.0
  0
LINE
  5
14B
330
1F
100
AcDbEntity
  8
0
  6
Continuous
 62
     7
370
    15
100
AcDbLine
 10
4.2648706346
 20
7.0858493074
 30
0.0
 11
4.2648706346
 21
7.0452718303
 31
0.0
  0
LINE
  5
14C
330
1F
100
AcDbEntity
  8
0
  6
Continuous
 62
     7
370
    15
100
AcDbLine
 10
4.298926729
 20
7.0452718303
 30
0.0
 11
4.2648706346
 21
7.0858493074
 31
0.0
  0
LINE
  5
14D
330
1F
100
AcDbEntity
  8
0
  6
Continuous
 62
     7
370
    15
100
AcDbLine
 10
4.2999825724
 20
7.0452718303
 30
0.0
 11
4.298926729
 21
7.0452718303
 31
0.0
  0
LINE
  5
14E
330
1F
100
AcDbEntity
  8
0
  6
Continuous
 62
     7
370
    15
100
AcDbLine
 10
4.2999825724
 20
7.0969460067
 30
0.0
 11
4.2999825724
 21
7.0452718303
 31
0.0
  0
LINE
  5
14F
330
1F
100
AcDbEntity
  8
0
  6
Continuous
 62
     7
370
    15
100
AcDbLine
 10
4.2953451475
 20
7.0969460067
 30
0.0
 11
4.2999825724
 21
7.0969460067
 31
0.0
  0
LINE
  5
150
330
1F
100
AcDbEntity
  8
0
  6
Continuous
 62
     7
370
    15
100
AcDbLine
 10
4.2953451475
 20
7.0562753698
 30
0.0
 11
4.2953451475
 21
7.0969460067
 31
0.0
  0
LINE
  5
151
330
1F
100
AcDbEntity
  8
0
  6
Continuous
 62
     7
370
    15
100
AcDbLine
 10
4.2612062403
 20
7.0969460067
 30
0.0
 11
4.2953451475
 21
7.0562753698
 31
0.0
  0
LINE
  5
152
330
1F
100
AcDbEntity
  8
0
  6
Continuous
 62
     7
370
    15
100
AcDbLine
 10
4.2602332088
 20
7.0969460067
 30
0.0
 11
4.2612062403
 21
7.0969460067
 31
0.0
  0
LINE
  5
153
330
1F
100
AcDbEntity
  8
0
  6
Continuous
 62
     7
370
    15
100
AcDbLine
 10
4.2602332088
 20
7.0452718303
 30
0.0
 11
4.2602332088
 21
7.0969460067
 31
0.0
  0
LINE
  5
154
330
1F
100
AcDbEntity
  8
0
  6
Continuous
 62
     7
370
    15
100
AcDbLine
 10
4.2648706346
 20
7.0452718303
 30
0.0
 11
4.2602332088
 21
7.0452718303
 31
0.0
  0
LINE
  5
155
330
1F
100
AcDbEntity
  8
0
  6
Continuous
 62
     7
370
    15
100
AcDbLine
 10
4.3172941724
 20
7.2015218307
 30
0.0
 11
4.3172941724
 21
7.2478960895
 31
0.0
  0
LINE
  5
156
330
1F
100
AcDbEntity
  8
0
  6
Continuous
 62
     7
370
    15
100
AcDbLine
 10
4.3219315951
 20
7.2015218307
 30
0.0
 11
4.3172941724
 21
7.2015218307
 31
0.0
  0
LINE
  5
157
330
1F
100
AcDbEntity
  8
0
  6
Continuous
 62
     7
370
    15
100
AcDbLine
 10
4.3219315951
 20
7.2478960895
 30
0.0
 11
4.3219315951
 21
7.2015218307
 31
0.0
  0
LINE
  5
158
330
1F
100
AcDbEntity
  8
0
  6
Continuous
 62
     7
370
    15
100
AcDbLine
 10
4.3331939159
 20
7.2478960895
 30
0.0
 11
4.3219315951
 21
7.2478960895
 31
0.0
  0
LINE
  5
159
330
1F
100
AcDbEntity
  8
0
  6
Continuous
 62
     7
370
    15
100
AcDbLine
 10
4.3331939159
 20
7.2531960025
 30
0.0
 11
4.3331939159
 21
7.2478960895
 31
0.0
  0
LINE
  5
15A
330
1F
100
AcDbEntity
  8
0
  6
Continuous
 62
     7
370
    15
100
AcDbLine
 10
4.3060318517
 20
7.2531960025
 30
0.0
 11
4.3331939159
 21
7.2531960025
 31
0.0
  0
LINE
  5
15B
330
1F
100
AcDbEntity
  8
0
  6
Continuous
 62
     7
370
    15
100
AcDbLine
 10
4.3060318517
 20
7.2478960895
 30
0.0
 11
4.3060318517
 21
7.2531960025
 31
0.0
  0
LINE
  5
15C
330
1F
100
AcDbEntity
  8
0
  6
Continuous
 62
     7
370
    15
100
AcDbLine
 10
4.3172941724
 20
7.2478960895
 30
0.0
 11
4.3060318517
 21
7.2478960895
 31
0.0
  0
SPLINE
  5
15D
330
1F
100
AcDbEntity
  8
0
  6
Continuous
 62
     7
370
    15
100
AcDbSpline
210
0.0
220
0.0
230
1.0
 70
     8
 71
     3
 72
    23
 73
    19
 74
     0
 42
0.00000001
 43
0.00000001
 12
1.0
 22
0.0
 32
0.0
 13
1.0
 23
0.0
 33
0.0
 40
0.0
 40
0.0
 40
0.0
 40
0.0
 40
0.0658188768433069
 40
0.1297465269068315
 40
0.192071954488006
 40
0.2534594242982026
 40
0.3145695877964205
 40
0.3762798811880264
 40
0.4390256536685599
 40
0.5032670288290858
 40
0.567492822879295
 40
0.629704795605245
 40
0.6909996492157556
 40
0.751451650917447
 40
0.8120043642646946
 40
0.8731496810680429
 40
0.9356354837317856
 40
1.0
 40
1.0
 40
1.0
 40
1.0
 10
4.22794091386763
 20
7.200196854185029
 30
0.0
 10
4.227004514095373
 20
7.20021972940893
 30
0.0
 10
4.225158620879422
 20
7.20026482256451
 30
0.0
 10
4.222448871040632
 20
7.200651366115759
 30
0.0
 10
4.219846297739906
 20
7.201255825543501
 30
0.0
 10
4.217358343550788
 20
7.202119661744368
 30
0.0
 10
4.214983621080482
 20
7.203236078266747
 30
0.0
 10
4.212717485932462
 20
7.204597388264972
 30
0.0
 10
4.210569034068439
 20
7.206212680691176
 30
0.0
 10
4.208556077801643
 20
7.208045882119746
 30
0.0
 10
4.206714274489497
 20
7.210041561577714
 30
0.0
 10
4.20510854570489
 20
7.212179901660071
 30
0.0
 10
4.203746929585114
 20
7.214418950298625
 30
0.0
 10
4.202634261628714
 20
7.216764921178331
 30
0.0
 10
4.201753372609469
 20
7.219206473311252
 30
0.0
 10
4.201152404667701
 20
7.22175989315933
 30
0.0
 10
4.200763579372985
 20
7.224410623274542
 30
0.0
 10
4.200718772749909
 20
7.226215423452037
 30
0.0
 10
4.200696037634663
 20
7.227131188515643
 30
0.0
  0
SPLINE
  5
15E
330
1F
100
AcDbEntity
  8
0
  6
Continuous
 62
     7
370
    15
100
AcDbSpline
210
0.0
220
0.0
230
1.0
 70
     8
 71
     3
 72
    23
 73
    19
 74
     0
 42
0.00000001
 43
0.00000001
 12
1.0
 22
0.0
 32
0.0
 13
1.0
 23
0.0
 33
0.0
 40
0.0
 40
0.0
 40
0.0
 40
0.0
 40
0.0652265038922756
 40
0.1285689957067287
 40
0.1903203781044671
 40
0.251377988624063
 40
0.312387528333694
 40
0.3737887042767234
 40
0.4364311597804503
 40
0.5005667553098538
 40
0.5646867953847439
 40
0.6271355178835134
 40
0.6884554088949797
 40
0.7492457464637473
 40
0.8101551773646785
 40
0.8716709256529234
 40
0.9347734961077241
 40
0.9999999999999999
 40
0.9999999999999999
 40
0.9999999999999999
 40
0.9999999999999999
 10
4.255020167752676
 20
7.227379622037525
 30
0.0
 10
4.254997284472479
 20
7.226450115195691
 30
0.0
 10
4.254952178876165
 20
7.224617949526435
 30
0.0
 10
4.2545658217545
 20
7.22192877473696
 30
0.0
 10
4.253959890407547
 20
7.21934372706206
 30
0.0
 10
4.253094772244809
 20
7.216867121974569
 30
0.0
 10
4.251984139572134
 20
7.214496346906611
 30
0.0
 10
4.250616174057622
 20
7.212237639977186
 30
0.0
 10
4.249004807841525
 20
7.210090260704451
 30
0.0
 10
4.247171011769425
 20
7.208077733794823
 30
0.0
 10
4.245171944109809
 20
7.206232264975083
 30
0.0
 10
4.243027757290736
 20
7.204624181324749
 30
0.0
 10
4.240786673231941
 20
7.203240433728537
 30
0.0
 10
4.23841985279735
 20
7.202136323879252
 30
0.0
 10
4.235958685235271
 20
7.201253848299022
 30
0.0
 10
4.233381143210219
 20
7.200652174460119
 30
0.0
 10
4.230699304531126
 20
7.200264071257585
 30
0.0
 10
4.228870466924099
 20
7.200219505739091
 30
0.0
 10
4.22794091386763
 20
7.200196854185029
 30
0.0
  0
SPLINE
  5
15F
330
1F
100
AcDbEntity
  8
0
  6
Continuous
 62
     7
370
    15
100
AcDbSpline
210
0.0
220
0.0
230
1.0
 70
     8
 71
     3
 72
    23
 73
    19
 74
     0
 42
0.00000001
 43
0.00000001
 12
1.0
 22
0.0
 32
0.0
 13
1.0
 23
0.0
 33
0.0
 40
0.0
 40
0.0
 40
0.0
 40
0.0
 40
0.0665700352151803
 40
0.130749041482178
 40
0.1934128000295041
 40
0.2549893988897088
 40
0.3161135558759005
 40
0.3772617579089845
 40
0.439400784155553
 40
0.502970589371976
 40
0.5665249763607315
 40
0.6282311025133089
 40
0.6890906105998629
 40
0.7493446689958044
 40
0.8101695933722065
 40
0.8716098243170437
 40
0.9348691840727636
 40
1.0
 40
1.0
 40
1.0
 40
1.0
 10
4.227526857997828
 20
7.254520984303041
 30
0.0
 10
4.228483688068518
 20
7.254496749420681
 30
0.0
 10
4.230362981270026
 20
7.254449150112241
 30
0.0
 10
4.233124964282883
 20
7.254084786610662
 30
0.0
 10
4.235761751074468
 20
7.25345442976829
 30
0.0
 10
4.238294821062208
 20
7.252614901891578
 30
0.0
 10
4.240693875379239
 20
7.251494984006166
 30
0.0
 10
4.242976971611723
 20
7.250141339955971
 30
0.0
 10
4.24513867755529
 20
7.248539788170935
 30
0.0
 10
4.247149856747939
 20
7.246702708931291
 30
0.0
 10
4.248990298107554
 20
7.244703900943435
 30
0.0
 10
4.25061177290689
 20
7.242570821956305
 30
0.0
 10
4.251970689869263
 20
7.240316369310942
 30
0.0
 10
4.253086642157379
 20
7.23794731769657
 30
0.0
 10
4.253962129754341
 20
7.235469024853835
 30
0.0
 10
4.254566260532712
 20
7.232868278472904
 30
0.0
 10
4.254952165470191
 20
7.230161929463594
 30
0.0
 10
4.254997281118485
 20
7.228316026668942
 30
0.0
 10
4.255020167752676
 20
7.227379622037525
 30
0.0
  0
SPLINE
  5
160
330
1F
100
AcDbEntity
  8
0
  6
Continuous
 62
     7
370
    15
100
AcDbSpline
210
0.0
220
0.0
230
1.0
 70
     8
 71
     3
 72
    31
 73
    27
 74
     0
 42
0.00000001
 43
0.00000001
 12
1.0
 22
0.0
 32
0.0
 13
1.0
 23
0.0
 33
0.0
 40
0.0
 40
0.0
 40
0.0
 40
0.0
 40
0.0432089861713369
 40
0.0858728716306188
 40
0.128120006696703
 40
0.1701519644541992
 40
0.2119176209878617
 40
0.2537530026191244
 40
0.2960064088559509
 40
0.3384433571447844
 40
0.381015368162034
 40
0.422820479440761
 40
0.4640890557943135
 40
0.5051258486836866
 40
0.5459749706852414
 40
0.5869852111338598
 40
0.6283385916346628
 40
0.6700838015912062
 40
0.7119916023637224
 40
0.7530391548630191
 40
0.7940493953116377
 40
0.8348855427015818
 40
0.8754983129295133
 40
0.9165472998303794
 40
0.9580037786449607
 40
0.9999999999999999
 40
0.9999999999999999
 40
0.9999999999999999
 40
0.9999999999999999
 10
4.200696037634663
 20
7.227131188515643
 30
0.0
 10
4.200703931019619
 20
7.227745855295283
 30
0.0
 10
4.200719618210943
 20
7.228967434557853
 30
0.0
 10
4.200908475389188
 20
7.23078144309987
 30
0.0
 10
4.201182521260902
 20
7.232566278731096
 30
0.0
 10
4.201575273209266
 20
7.234316866052431
 30
0.0
 10
4.202088939095896
 20
7.236028919747496
 30
0.0
 10
4.202695033252166
 20
7.237714247237686
 30
0.0
 10
4.203435300400937
 20
7.239355769216461
 30
0.0
 10
4.20427213628296
 20
7.240961262012774
 30
0.0
 10
4.205206136735439
 20
7.242505698291748
 30
0.0
 10
4.206237785745248
 20
7.243965561332191
 30
0.0
 10
4.207330847575278
 20
7.245353101401983
 30
0.0
 10
4.208529147920188
 20
7.24663236203839
 30
0.0
 10
4.209793193337975
 20
7.247840558175761
 30
0.0
 10
4.211143489341681
 20
7.248959122664977
 30
0.0
 10
4.212571796606922
 20
7.249998141910409
 30
0.0
 10
4.214084260952228
 20
7.250934482952768
 30
0.0
 10
4.215643614369569
 20
7.251781336044062
 30
0.0
 10
4.217251076484369
 20
7.252508049878627
 30
0.0
 10
4.218884815561488
 20
7.253131772813514
 30
0.0
 10
4.220552483552165
 20
7.253637306044808
 30
0.0
 10
4.222249651946373
 20
7.254036408356884
 30
0.0
 10
4.223980024871897
 20
7.25430817543453
 30
0.0
 10
4.225742223797853
 20
7.254497514296065
 30
0.0
 10
4.226929420475138
 20
7.254513127307571
 30
0.0
 10
4.227526857997828
 20
7.254520984303041
 30
0.0
  0
LINE
  5
161
330
1F
100
AcDbEntity
  8
0
  6
Continuous
 62
     7
370
    15
100
AcDbLine
 10
4.0417210934
 20
6.8471468307
 30
0.0
 11
4.0425960966
 21
6.8471468307
 31
0.0
  0
LINE
  5
162
330
1F
100
AcDbEntity
  8
0
  6
Continuous
 62
     7
370
    15
100
AcDbLine
 10
4.1766592296
 20
6.8471468307
 30
0.0
 11
4.357282973
 21
6.8471468307
 31
0.0
  0
LINE
  5
163
330
1F
100
AcDbEntity
  8
0
  6
Continuous
 62
     7
370
    15
100
AcDbLine
 10
4.491346106
 20
6.8471468307
 30
0.0
 11
4.4922211092
 21
6.8471468307
 31
0.0
  0
LINE
  5
164
330
1F
100
AcDbEntity
  8
0
  6
Continuous
 62
     7
370
    15
100
AcDbLine
 10
4.0417210934
 20
6.8471468307
 30
0.0
 11
4.0417210934
 21
7.4403968358
 31
0.0
  0
LINE
  5
165
330
1F
100
AcDbEntity
  8
0
  6
Continuous
 62
     7
370
    15
100
AcDbLine
 10
4.4922211092
 20
7.4403968358
 30
0.0
 11
4.0417210934
 21
7.4403968358
 31
0.0
  0
LINE
  5
166
330
1F
100
AcDbEntity
  8
0
  6
Continuous
 62
     7
370
    15
100
AcDbLine
 10
4.4922211092
 20
6.8471468307
 30
0.0
 11
4.4922211092
 21
7.4403968358
 31
0.0
  0
SPLINE
  5
167
330
1F
100
AcDbEntity
  8
0
  6
Continuous
 62
     7
370
    15
100
AcDbSpline
210
0.0
220
0.0
230
1.0
 70
     8
 71
     3
 72
    15
 73
    11
 74
     0
 42
0.00000001
 43
0.00000001
 12
1.0
 22
0.0
 32
0.0
 13
1.0
 23
0.0
 33
0.0
 40
0.0
 40
0.0
 40
0.0
 40
0.0
 40
0.0781298651584278
 40
0.1694654174977334
 40
0.2743352908540846
 40
0.392110163353921
 40
0.5236873298575195
 40
0.6683654211389637
 40
0.8271319021257836
 40
1.0
 40
1.0
 40
1.0
 40
1.0
 10
4.266541272329915
 20
7.211096874957564
 30
0.0
 10
4.266464836511394
 20
7.211371967205324
 30
0.0
 10
4.266299045518779
 20
7.211968648417084
 30
0.0
 10
4.266121503431499
 20
7.212956163831675
 30
0.0
 10
4.265972252451764
 20
7.214093215872728
 30
0.0
 10
4.265831911921558
 20
7.215379882370772
 30
0.0
 10
4.265749100989762
 20
7.216817160600675
 30
0.0
 10
4.265676499682417
 20
7.218404427534801
 30
0.0
 10
4.265619486552126
 20
7.220143602448617
 30
0.0
 10
4.265619822765014
 20
7.221355059362514
 30
0.0
 10
4.265619998019606
 20
7.221986544333355
 30
0.0
  0
SPLINE
  5
168
330
1F
100
AcDbEntity
  8
0
  6
Continuous
 62
     7
370
    15
100
AcDbSpline
210
0.0
220
0.0
230
1.0
 70
     8
 71
     3
 72
    23
 73
    19
 74
     0
 42
0.00000001
 43
0.00000001
 12
1.0
 22
0.0
 32
0.0
 13
1.0
 23
0.0
 33
0.0
 40
0.0
 40
0.0
 40
0.0
 40
0.0
 40
0.0711745037456342
 40
0.1396441217506233
 40
0.2063172239119632
 40
0.2713732401918835
 40
0.3354180839163126
 40
0.3980763446528611
 40
0.4606079146322842
 40
0.5229695111172337
 40
0.5847157240924588
 40
0.6448949403163619
 40
0.7042905608207902
 40
0.7629981899193224
 40
0.8210874309038771
 40
0.8801038914767008
 40
0.9393884881896685
 40
1.0
 40
1.0
 40
1.0
 40
1.0
 10
4.28268945125219
 20
7.200196854185029
 30
0.0
 10
4.282192358961387
 20
7.200208440498077
 30
0.0
 10
4.28121706566498
 20
7.200231172802834
 30
0.0
 10
4.27977996164086
 20
7.200361432320688
 30
0.0
 10
4.278402266246276
 20
7.200606787113649
 30
0.0
 10
4.277069428747246
 20
7.200919193565969
 30
0.0
 10
4.275799595055294
 20
7.201350063701917
 30
0.0
 10
4.274575752155765
 20
7.201853490098403
 30
0.0
 10
4.273418860724616
 20
7.202471768033786
 30
0.0
 10
4.27231015254352
 20
7.2031596751854
 30
0.0
 10
4.271279256401243
 20
7.203933675127878
 30
0.0
 10
4.270332919181737
 20
7.204777295473117
 30
0.0
 10
4.269469578545444
 20
7.205677022209366
 30
0.0
 10
4.268703786555416
 20
7.206642596433832
 30
0.0
 10
4.268022855541695
 20
7.207666508455103
 30
0.0
 10
4.267436276712297
 20
7.208751654855183
 30
0.0
 10
4.266932627094312
 20
7.209897615501498
 30
0.0
 10
4.266672682870259
 20
7.210694183212192
 30
0.0
 10
4.266541272329915
 20
7.211096874957564
 30
0.0
  0
SPLINE
  5
169
330
1F
100
AcDbEntity
  8
0
  6
Continuous
 62
     7
370
    15
100
AcDbSpline
210
0.0
220
0.0
230
1.0
 70
     8
 71
     3
 72
    31
 73
    27
 74
     0
 42
0.00000001
 43
0.00000001
 12
1.0
 22
0.0
 32
0.0
 13
1.0
 23
0.0
 33
0.0
 40
0.0
 40
0.0
 40
0.0
 40
0.0
 40
0.0548580354451538
 40
0.107058791542641
 40
0.1569783545765235
 40
0.203992277182977
 40
0.2484915357868489
 40
0.2904833137405231
 40
0.3304890042981893
 40
0.3678859257629635
 40
0.4038581313538711
 40
0.4400093433074117
 40
0.4762950107796839
 40
0.5127922945733487
 40
0.550484824630372
 40
0.5883811157748436
 40
0.6276453271698538
 40
0.6679794644543811
 40
0.7084327575000837
 40
0.7486023022886336
 40
0.789087777195782
 40
0.8294612046317063
 40
0.8703710453051784
 40
0.9122142271494423
 40
0.9555465749316862
 40
1.0
 40
1.0
 40
1.0
 40
1.0
 10
4.298744467603759
 20
7.221986544333355
 30
0.0
 10
4.298740715757875
 20
7.221424057988291
 30
0.0
 10
4.298733393802517
 20
7.2203263316867
 30
0.0
 10
4.298669899879093
 20
7.218717768450728
 30
0.0
 10
4.298568662795224
 20
7.217191859939373
 30
0.0
 10
4.298425627386748
 20
7.215748401036616
 30
0.0
 10
4.298236101239076
 20
7.214392556982087
 30
0.0
 10
4.298025341179772
 20
7.213112443510169
 30
0.0
 10
4.29775693765746
 20
7.211917249535717
 30
0.0
 10
4.297443446675577
 20
7.210797655983033
 30
0.0
 10
4.297085070815666
 20
7.209731905504218
 30
0.0
 10
4.296620872151502
 20
7.20872044093982
 30
0.0
 10
4.296097863088052
 20
7.207732513444777
 30
0.0
 10
4.295477556681125
 20
7.20678306535483
 30
0.0
 10
4.294780525500249
 20
7.205867892828348
 30
0.0
 10
4.293991362250509
 20
7.204992546001931
 30
0.0
 10
4.293136167083389
 20
7.204143036686036
 30
0.0
 10
4.29220072342184
 20
7.203341155899702
 30
0.0
 10
4.291200451326824
 20
7.202605778138548
 30
0.0
 10
4.290138326245293
 20
7.201959145687021
 30
0.0
 10
4.289022507090704
 20
7.201412527173253
 30
0.0
 10
4.287855894345031
 20
7.20096257912292
 30
0.0
 10
4.286637990158726
 20
7.200624266850668
 30
0.0
 10
4.285368763821539
 20
7.200372168408905
 30
0.0
 10
4.284045326352197
 20
7.200228923209705
 30
0.0
 10
4.283145241162509
 20
7.200207634483214
 30
0.0
 10
4.28268945125219
 20
7.200196854185029
 30
0.0
  0
LINE
  5
16A
330
1F
100
AcDbEntity
  8
0
  6
Continuous
 62
     7
370
    15
100
AcDbLine
 10
4.298744468
 20
7.2531960025
 30
0.0
 11
4.298744468
 21
7.2219865443
 31
0.0
  0
LINE
  5
16B
330
1F
100
AcDbEntity
  8
0
  6
Continuous
 62
     7
370
    15
100
AcDbLine
 10
4.2941070407
 20
7.2531960025
 30
0.0
 11
4.298744468
 21
7.2531960025
 31
0.0
  0
LINE
  5
16C
330
1F
100
AcDbEntity
  8
0
  6
Continuous
 62
     7
370
    15
100
AcDbLine
 10
4.2941070407
 20
7.2222349764
 30
0.0
 11
4.2941070407
 21
7.2531960025
 31
0.0
  0
SPLINE
  5
16D
330
1F
100
AcDbEntity
  8
0
  6
Continuous
 62
     7
370
    15
100
AcDbSpline
210
0.0
220
0.0
230
1.0
 70
     8
 71
     3
 72
    15
 73
    11
 74
     0
 42
0.00000001
 43
0.00000001
 12
1.0
 22
0.0
 32
0.0
 13
1.0
 23
0.0
 33
0.0
 40
0.0
 40
0.0
 40
0.0
 40
0.0
 40
0.0698351039154357
 40
0.1556207549116641
 40
0.2578015566582753
 40
0.3738112340663711
 40
0.5064024926743705
 40
0.6555644581431037
 40
0.8200792824038533
 40
1.0
 40
1.0
 40
1.0
 40
1.0
 10
4.29357912062798
 20
7.214212645377823
 30
0.0
 10
4.293623414625744
 20
7.214394960338209
 30
0.0
 10
4.293722119503141
 20
7.214801231542462
 30
0.0
 10
4.293814351183296
 20
7.215488074169725
 30
0.0
 10
4.293910413845308
 20
7.216298463445399
 30
0.0
 10
4.29397706717937
 20
7.217238221947789
 30
0.0
 10
4.294042047014551
 20
7.218304200666854
 30
0.0
 10
4.294080921831127
 20
7.219501952731894
 30
0.0
 10
4.29409889016522
 20
7.22082712892636
 30
0.0
 10
4.294104244795854
 20
7.221751907070852
 30
0.0
 10
4.294107041861978
 20
7.222234977855235
 30
0.0
  0
SPLINE
  5
16E
330
1F
100
AcDbEntity
  8
0
  6
Continuous
 62
     7
370
    15
100
AcDbSpline
210
0.0
220
0.0
230
1.0
 70
     8
 71
     3
 72
    19
 73
    15
 74
     0
 42
0.00000001
 43
0.00000001
 12
1.0
 22
0.0
 32
0.0
 13
1.0
 23
0.0
 33
0.0
 40
0.0
 40
0.0
 40
0.0
 40
0.0
 40
0.082890647556869
 40
0.1653025405594704
 40
0.2477618761145889
 40
0.3315277110598006
 40
0.4152798127751556
 40
0.496366230484051
 40
0.5771513480211469
 40
0.6577825401388812
 40
0.7393216419943462
 40
0.8237930816663166
 40
0.9094759533791145
 40
1.0
 40
1.0
 40
1.0
 40
1.0
 10
4.282430666333563
 20
7.205496769318493
 30
0.0
 10
4.28285223516443
 20
7.205512623696992
 30
0.0
 10
4.2836929379556
 20
7.205544240883275
 30
0.0
 10
4.284942071469418
 20
7.205740033304788
 30
0.0
 10
4.286158630735886
 20
7.206092902434804
 30
0.0
 10
4.287348623147681
 20
7.206548222148508
 30
0.0
 10
4.288464061606343
 20
7.207149821592308
 30
0.0
 10
4.289505568462018
 20
7.207844777786887
 30
0.0
 10
4.290435171091111
 20
7.20865991388233
 30
0.0
 10
4.291283483803805
 20
7.209562002381252
 30
0.0
 10
4.292022202063474
 20
7.210579832986725
 30
0.0
 10
4.292662535736294
 20
7.211691243128118
 30
0.0
 10
4.293187042313022
 20
7.212912958565067
 30
0.0
 10
4.293446055778654
 20
7.213771553322198
 30
0.0
 10
4.29357912062798
 20
7.214212645377823
 30
0.0
  0
SPLINE
  5
16F
330
1F
100
AcDbEntity
  8
0
  6
Continuous
 62
     7
370
    15
100
AcDbSpline
210
0.0
220
0.0
230
1.0
 70
     8
 71
     3
 72
    15
 73
    11
 74
     0
 42
0.00000001
 43
0.00000001
 12
1.0
 22
0.0
 32
0.0
 13
1.0
 23
0.0
 33
0.0
 40
0.0
 40
0.0
 40
0.0
 40
0.0
 40
0.1910785917157194
 40
0.362604556309971
 40
0.5160987502785588
 40
0.6500380260398402
 40
0.7659767209867906
 40
0.8623740257993889
 40
0.9408420582211753
 40
1.0
 40
1.0
 40
1.0
 40
1.0
 10
4.270257423761387
 20
7.222234977855235
 30
0.0
 10
4.27025673363107
 20
7.221796770009429
 30
0.0
 10
4.270255423989861
 20
7.220965195105756
 30
0.0
 10
4.270264171893869
 20
7.219781586364408
 30
0.0
 10
4.270288670890929
 20
7.218729316265211
 30
0.0
 10
4.270304116442224
 20
7.217804328680979
 30
0.0
 10
4.270338477309275
 20
7.217010868107959
 30
0.0
 10
4.270366500167281
 20
7.216344635796328
 30
0.0
 10
4.27040253266685
 20
7.215808786401973
 30
0.0
 10
4.27044583735822
 20
7.21549607016553
 30
0.0
 10
4.270464451696288
 20
7.215361650416524
 30
0.0
  0
LINE
  5
170
330
1F
100
AcDbEntity
  8
0
  6
Continuous
 62
     7
370
    15
100
AcDbLine
 10
4.2702574239
 20
7.2531960025
 30
0.0
 11
4.2702574239
 21
7.2222349764
 31
0.0
  0
LINE
  5
171
330
1F
100
AcDbEntity
  8
0
  6
Continuous
 62
     7
370
    15
100
AcDbLine
 10
4.2656199981
 20
7.2531960025
 30
0.0
 11
4.2702574239
 21
7.2531960025
 31
0.0
  0
LINE
  5
172
330
1F
100
AcDbEntity
  8
0
  6
Continuous
 62
     7
370
    15
100
AcDbLine
 10
4.2656199981
 20
7.2219865443
 30
0.0
 11
4.2656199981
 21
7.2531960025
 31
0.0
  0
LINE
  5
173
330
1F
100
AcDbEntity
  8
0
  6
Continuous
 62
     7
370
    15
100
AcDbLine
 10
4.2469834201
 20
7.0452718303
 30
0.0
 11
4.2423459951
 21
7.0452718303
 31
0.0
  0
LINE
  5
174
330
1F
100
AcDbEntity
  8
0
  6
Continuous
 62
     7
370
    15
100
AcDbLine
 10
4.2469834201
 20
7.0969460067
 30
0.0
 11
4.2469834201
 21
7.0452718303
 31
0.0
  0
LINE
  5
175
330
1F
100
AcDbEntity
  8
0
  6
Continuous
 62
     7
370
    15
100
AcDbLine
 10
4.2423459951
 20
7.0969460067
 30
0.0
 11
4.2469834201
 21
7.0969460067
 31
0.0
  0
LINE
  5
176
330
1F
100
AcDbEntity
  8
0
  6
Continuous
 62
     7
370
    15
100
AcDbLine
 10
4.2423459951
 20
7.0452718303
 30
0.0
 11
4.2423459951
 21
7.0969460067
 31
0.0
  0
SPLINE
  5
177
330
1F
100
AcDbEntity
  8
0
  6
Continuous
 62
     7
370
    15
100
AcDbSpline
210
0.0
220
0.0
230
1.0
 70
     8
 71
     3
 72
    19
 73
    15
 74
     0
 42
0.00000001
 43
0.00000001
 12
1.0
 22
0.0
 32
0.0
 13
1.0
 23
0.0
 33
0.0
 40
0.0
 40
0.0
 40
0.0
 40
0.0
 40
0.0863150037405918
 40
0.1677664659179407
 40
0.2444326843848595
 40
0.3181346623514537
 40
0.3918841069799638
 40
0.4700680503917553
 40
0.5539041787139101
 40
0.6443394983098204
 40
0.7368746633345102
 40
0.8261683643076472
 40
0.9136785948895817
 40
1.0
 40
1.0
 40
1.0
 40
1.0
 10
4.270464451696288
 20
7.215361650416524
 30
0.0
 10
4.27054089195334
 20
7.214876699183044
 30
0.0
 10
4.270689465332516
 20
7.213934121982587
 30
0.0
 10
4.27106810971838
 20
7.212591947627613
 30
0.0
 10
4.271596921068976
 20
7.211382307538359
 30
0.0
 10
4.272223552244244
 20
7.210267455113647
 30
0.0
 10
4.273049344075718
 20
7.209278420899349
 30
0.0
 10
4.274038587573843
 20
7.208367307015122
 30
0.0
 10
4.275237100150529
 20
7.207570464630558
 30
0.0
 10
4.27656971218257
 20
7.20684184681182
 30
0.0
 10
4.278006036225438
 20
7.206256229580254
 30
0.0
 10
4.279473749062859
 20
7.205813406070448
 30
0.0
 10
4.280950788539261
 20
7.205543535493036
 30
0.0
 10
4.281939627942462
 20
7.205512286807297
 30
0.0
 10
4.282430666333563
 20
7.205496769318493
 30
0.0
  0
LINE
  5
178
330
1F
100
AcDbEntity
  8
0
  6
Continuous
 62
     7
370
    15
100
AcDbLine
 10
4.0417210934
 20
7.4716468148
 30
0.0
 11
4.4922211092
 21
7.4716468148
 31
0.0
  0
LINE
  5
179
330
1F
100
AcDbEntity
  8
0
  6
Continuous
 62
     7
370
    15
100
AcDbLine
 10
4.4922211092
 20
7.4716468148
 30
0.0
 11
4.4922211092
 21
7.4403968358
 31
0.0
  0
LINE
  5
17A
330
1F
100
AcDbEntity
  8
0
  6
Continuous
 62
     7
370
    15
100
AcDbLine
 10
4.0417210934
 20
7.4403968358
 30
0.0
 11
4.0417210934
 21
7.4716468148
 31
0.0
  0
LINE
  5
17B
330
1F
100
AcDbEntity
  8
0
  6
Continuous
 62
     7
370
    15
100
AcDbLine
 10
4.0346473684
 20
7.4338343299
 30
0.0
 11
4.0346473684
 21
6.859959336
 31
0.0
  0
LINE
  5
17C
330
1F
100
AcDbEntity
  8
0
  6
Continuous
 62
     7
370
    15
100
AcDbLine
 10
4.4992948341
 20
7.4338343299
 30
0.0
 11
4.4992948341
 21
6.859959336
 31
0.0
  0
ARC
  5
17D
330
1F
100
AcDbEntity
  8
0
  6
Continuous
 62
     8
370
    15
100
AcDbCircle
 10
3.7357430825
 20
7.3337346853
 30
0.0
 40
0.0147474936821379
100
AcDbArc
 50
2.9438480763
 51
93.487081734
  0
ARC
  5
17E
330
1F
100
AcDbEntity
  8
0
  6
Continuous
 62
     8
370
    15
100
AcDbCircle
 10
3.7339491279
 20
7.3337346864
 30
0.0
 40
0.0147474905050037
100
AcDbArc
 50
86.5130480761
 51
177.0561557201
  0
ARC
  5
17F
330
1F
100
AcDbEntity
  8
0
  6
Continuous
 62
     8
370
    15
100
AcDbCircle
 10
4.7992096578
 20
7.0567551648
 30
0.0
 40
0.0156447795284783
100
AcDbArc
 50
283.0482449483
 51
322.8418525049
  0
LINE
  5
180
330
1F
100
AcDbEntity
  8
0
  6
Continuous
 62
     8
370
    15
100
AcDbLine
 10
3.6983460901
 20
7.000054726
 30
0.0
 11
3.6983460901
 21
6.9832918729
 31
0.0
  0
LINE
  5
181
330
1F
100
AcDbEntity
  8
0
  6
Continuous
 62
     8
370
    15
100
AcDbLine
 10
4.8224711008
 20
7.1494410237
 30
0.0
 11
4.8224711008
 21
7.1679016495
 31
0.0
  0
LINE
  5
182
330
1F
100
AcDbEntity
  8
0
  6
Continuous
 62
     8
370
    15
100
AcDbLine
 10
3.7114711018
 20
7.1384826979
 30
0.0
 11
3.7114711018
 21
7.1255300954
 31
0.0
  0
LINE
  5
183
330
1F
100
AcDbEntity
  8
0
  6
Continuous
 62
     8
370
    15
100
AcDbLine
 10
4.5188460999
 20
7.146896833
 30
0.0
 11
4.5188460999
 21
6.8282583806
 31
0.0
  0
LINE
  5
184
330
1F
100
AcDbEntity
  8
0
  6
Continuous
 62
     8
370
    15
100
AcDbLine
 10
4.5188460999
 20
7.4906468219
 30
0.0
 11
4.5188460999
 21
7.146896833
 31
0.0
  0
LINE
  5
185
330
1F
100
AcDbEntity
  8
0
  6
Continuous
 62
     8
370
    15
100
AcDbLine
 10
4.0150961026
 20
7.146896833
 30
0.0
 11
4.0150961026
 21
7.4906468219
 31
0.0
  0
LINE
  5
186
330
1F
100
AcDbEntity
  8
0
  6
Continuous
 62
     8
370
    15
100
AcDbLine
 10
4.0150961026
 20
6.803146844
 30
0.0
 11
4.0150961026
 21
7.146896833
 31
0.0
  0
ENDSEC
  0
SECTION
  2
OBJECTS
  0
DICTIONARY
  5
C
330
0
100
AcDbDictionary
281
     1
  3
ACAD_GROUP
350
D
  3
ACAD_LAYOUT
350
1A
  3
ACAD_MLINESTYLE
350
17
  3
ACAD_PLOTSETTINGS
350
19
  3
ACAD_PLOTSTYLENAME
350
E
  0
DICTIONARY
  5
D
102
{ACAD_REACTORS
330
C
102
}
330
C
100
AcDbDictionary
281
     1
  0
DICTIONARY
  5
1A
102
{ACAD_REACTORS
330
C
102
}
330
C
100
AcDbDictionary
281
     1
  3
Layout1
350
1E
  3
Layout2
350
26
  3
Model
350
22
  0
DICTIONARY
  5
17
102
{ACAD_REACTORS
330
C
102
}
330
C
100
AcDbDictionary
281
     1
  3
Standard
350
18
  0
DICTIONARY
  5
19
102
{ACAD_REACTORS
330
C
102
}
330
C
100
AcDbDictionary
281
     1
  0
ACDBDICTIONARYWDFLT
  5
E
102
{ACAD_REACTORS
330
C
102
}
330
C
100
AcDbDictionary
281
     1
  3
Normal
350
F
100
AcDbDictionaryWithDefault
340
F
  0
LAYOUT
  5
1E
102
{ACAD_REACTORS
330
1A
102
}
330
1A
100
AcDbPlotSettings
  1

  2
none_device
  4

  6

 40
0.0
 41
0.0
 42
0.0
 43
0.0
 44
0.0
 45
0.0
 46
0.0
 47
0.0
 48
0.0
 49
0.0
140
0.0
141
0.0
142
1.0
143
1.0
 70
   688
 72
     0
 73
     0
 74
     5
  7

 75
    16
147
1.0
148
0.0
149
0.0
100
AcDbLayout
  1
Layout1
 70
     1
 71
     1
 10
0.0
 20
0.0
 11
12.0
 21
9.0
 12
0.0
 22
0.0
 32
0.0
 14
1.0000000000E+20
 24
1.0000000000E+20
 34
1.0000000000E+20
 15
-1.0000000000E+20
 25
-1.0000000000E+20
 35
-1.0000000000E+20
146
0.0
 13
0.0
 23
0.0
 33
0.0
 16
1.0
 26
0.0
 36
0.0
 17
0.0
 27
1.0
 37
0.0
 76
     0
330
1B
  0
LAYOUT
  5
26
102
{ACAD_REACTORS
330
1A
102
}
330
1A
100
AcDbPlotSettings
  1

  2
none_device
  4

  6

 40
0.0
 41
0.0
 42
0.0
 43
0.0
 44
0.0
 45
0.0
 46
0.0
 47
0.0
 48
0.0
 49
0.0
140
0.0
141
0.0
142
1.0
143
1.0
 70
   688
 72
     0
 73
     0
 74
     5
  7

 75
    16
147
1.0
148
0.0
149
0.0
100
AcDbLayout
  1
Layout2
 70
     1
 71
     2
 10
0.0
 20
0.0
 11
0.0
 21
0.0
 12
0.0
 22
0.0
 32
0.0
 14
0.0
 24
0.0
 34
0.0
 15
0.0
 25
0.0
 35
0.0
146
0.0
 13
0.0
 23
0.0
 33
0.0
 16
1.0
 26
0.0
 36
0.0
 17
0.0
 27
1.0
 37
0.0
 76
     0
330
23
  0
LAYOUT
  5
22
102
{ACAD_REACTORS
330
1A
102
}
330
1A
100
AcDbPlotSettings
  1

  2
none_device
  4

  6

 40
0.0
 41
0.0
 42
0.0
 43
0.0
 44
0.0
 45
0.0
 46
0.0
 47
0.0
 48
0.0
 49
0.0
140
0.0
141
0.0
142
1.0
143
1.0
 70
  1712
 72
     0
 73
     0
 74
     0
  7

 75
     0
147
1.0
148
0.0
149
0.0
100
AcDbLayout
  1
Model
 70
     1
 71
     0
 10
0.0
 20
0.0
 11
8.5
 21
11.0
 12
0.0
 22
0.0
 32
0.0
 14
0.0
 24
0.0
 34
0.0
 15
8.5
 25
11.0
 35
0.0
146
0.0
 13
0.0
 23
0.0
 33
0.0
 16
1.0
 26
0.0
 36
0.0
 17
0.0
 27
1.0
 37
0.0
 76
     0
330
1F
331
29
  0
MLINESTYLE
  5
18
102
{ACAD_REACTORS
330
17
102
}
330
17
100
AcDbMlineStyle
  2
Standard
 70
     0
  3

 62
   256
 51
90.0
 52
90.0
 71
     2
 49
0.5
 62
   256
  6
BYLAYER
 49
-0.5
 62
   256
  6
BYLAYER
  0
ACDBPLACEHOLDER
  5
F
102
{ACAD_REACTORS
330
E
102
}
330
E
  0
ENDSEC
  0
EOF
