  0
SECTION
  2
HEADER
  9
$ACADVER
  1
AC1015
  9
$ACADMAINTVER
 70
     6
  9
$DWGCODEPAGE
  3
ANSI_1252
  9
$INSBASE
 10
0.0
 20
0.0
 30
0.0
  9
$EXTMIN
 10
0.0
 20
0.0
 30
0.0
  9
$EXTMAX
 10
8.5
 20
11.0
 30
0.0
  9
$LIMMIN
 10
0.0
 20
0.0
  9
$LIMMAX
 10
8.5
 20
11.0
  9
$ORTHOMODE
 70
     0
  9
$REGENMODE
 70
     1
  9
$FILLMODE
 70
     1
  9
$QTEXTMODE
 70
     0
  9
$MIRRTEXT
 70
     1
  9
$LTSCALE
 40
1.0
  9
$ATTMODE
 70
     1
  9
$TEXTSIZE
 40
0.125
  9
$TRACEWID
 40
0.05
  9
$TEXTSTYLE
  7
Standard
  9
$CLAYER
  8
0
  9
$CELTYPE
  6
ByLayer
  9
$CECOLOR
 62
   256
  9
$CELTSCALE
 40
1.0
  9
$DISPSILH
 70
     0
  9
$DIMSCALE
 40
1.0
  9
$DIMASZ
 40
0.13
  9
$DIMEXO
 40
0.05
  9
$DIMDLI
 40
0.38
  9
$DIMRND
 40
0.0
  9
$DIMDLE
 40
0.0
  9
$DIMEXE
 40
0.125
  9
$DIMTP
 40
0.0
  9
$DIMTM
 40
0.0
  9
$DIMTXT
 40
0.1527777778
  9
$DIMCEN
 40
0.09
  9
$DIMTSZ
 40
0.0
  9
$DIMTOL
 70
     0
  9
$DIMLIM
 70
     0
  9
$DIMTIH
 70
     1
  9
$DIMTOH
 70
     1
  9
$DIMSE1
 70
     0
  9
$DIMSE2
 70
     0
  9
$DIMTAD
 70
     1
  9
$DIMZIN
 70
     0
  9
$DIMBLK
  1

  9
$DIMASO
 70
     1
  9
$DIMSHO
 70
     1
  9
$DIMPOST
  1

  9
$DIMAPOST
  1

  9
$DIMALT
 70
     0
  9
$DIMALTD
 70
     2
  9
$DIMALTF
 40
25.4
  9
$DIMLFAC
 40
4.0
  9
$DIMTOFL
 70
     0
  9
$DIMTVP
 40
0.0
  9
$DIMTIX
 70
     0
  9
$DIMSOXD
 70
     0
  9
$DIMSAH
 70
     0
  9
$DIMBLK1
  1

  9
$DIMBLK2
  1

  9
$DIMSTYLE
  2
Standard
  9
$DIMCLRD
 70
     0
  9
$DIMCLRE
 70
     0
  9
$DIMCLRT
 70
     0
  9
$DIMTFAC
 40
1.0
  9
$DIMGAP
 40
0.06
  9
$DIMJUST
 70
     0
  9
$DIMSD1
 70
     0
  9
$DIMSD2
 70
     0
  9
$DIMTOLJ
 70
     1
  9
$DIMTZIN
 70
     0
  9
$DIMALTZ
 70
     0
  9
$DIMALTTZ
 70
     0
  9
$DIMUPT
 70
     0
  9
$DIMDEC
 70
     2
  9
$DIMTDEC
 70
     2
  9
$DIMALTU
 70
     2
  9
$DIMALTTD
 70
     2
  9
$DIMTXSTY
  7
Standard
  9
$DIMAUNIT
 70
     0
  9
$DIMADEC
 70
     2
  9
$DIMALTRND
 40
0.0
  9
$DIMAZIN
 70
     0
  9
$DIMDSEP
 70
    46
  9
$DIMATFIT
 70
     3
  9
$DIMFRAC
 70
     0
  9
$DIMLDRBLK
  1

  9
$DIMLUNIT
 70
     2
  9
$DIMLWD
 70
    -2
  9
$DIMLWE
 70
    -2
  9
$DIMTMOVE
 70
     0
  9
$LUNITS
 70
     2
  9
$LUPREC
 70
     3
  9
$SKETCHINC
 40
0.1
  9
$FILLETRAD
 40
0.5
  9
$AUNITS
 70
     0
  9
$AUPREC
 70
     2
  9
$MENU
  1
.
  9
$ELEVATION
 40
0.0
  9
$PELEVATION
 40
0.0
  9
$THICKNESS
 40
0.0
  9
$LIMCHECK
 70
     0
  9
$CHAMFERA
 40
0.5
  9
$CHAMFERB
 40
0.5
  9
$CHAMFERC
 40
1.0
  9
$CHAMFERD
 40
0.0
  9
$SKPOLY
 70
     0
  9
$TDCREATE
 40
2456051.431115255
  9
$TDUCREATE
 40
2456051.681115255
  9
$TDUPDATE
 40
2456051.431115475
  9
$TDUUPDATE
 40
2456051.681115475
  9
$TDINDWG
 40
0.0000000116
  9
$TDUSRTIMER
 40
0.0000000116
  9
$USRTIMER
 70
     1
  9
$ANGBASE
 50
0.0
  9
$ANGDIR
 70
     0
  9
$PDMODE
 70
     0
  9
$PDSIZE
 40
-1.0
  9
$PLINEWID
 40
0.0
  9
$SPLFRAME
 70
     0
  9
$SPLINETYPE
 70
     6
  9
$SPLINESEGS
 70
     8
  9
$HANDSEED
  5
18A
  9
$SURFTAB1
 70
     6
  9
$SURFTAB2
 70
     6
  9
$SURFTYPE
 70
     6
  9
$SURFU
 70
     6
  9
$SURFV
 70
     6
  9
$UCSBASE
  2

  9
$UCSNAME
  2

  9
$UCSORG
 10
0.0
 20
0.0
 30
0.0
  9
$UCSXDIR
 10
1.0
 20
0.0
 30
0.0
  9
$UCSYDIR
 10
0.0
 20
1.0
 30
0.0
  9
$UCSORTHOREF
  2

  9
$UCSORTHOVIEW
 70
     0
  9
$UCSORGTOP
 10
0.0
 20
0.0
 30
0.0
  9
$UCSORGBOTTOM
 10
0.0
 20
0.0
 30
0.0
  9
$UCSORGLEFT
 10
0.0
 20
0.0
 30
0.0
  9
$UCSORGRIGHT
 10
0.0
 20
0.0
 30
0.0
  9
$UCSORGFRONT
 10
0.0
 20
0.0
 30
0.0
  9
$UCSORGBACK
 10
0.0
 20
0.0
 30
0.0
  9
$PUCSBASE
  2

  9
$PUCSNAME
  2

  9
$PUCSORG
 10
0.0
 20
0.0
 30
0.0
  9
$PUCSXDIR
 10
1.0
 20
0.0
 30
0.0
  9
$PUCSYDIR
 10
0.0
 20
1.0
 30
0.0
  9
$PUCSORTHOREF
  2

  9
$PUCSORTHOVIEW
 70
     0
  9
$PUCSORGTOP
 10
0.0
 20
0.0
 30
0.0
  9
$PUCSORGBOTTOM
 10
0.0
 20
0.0
 30
0.0
  9
$PUCSORGLEFT
 10
0.0
 20
0.0
 30
0.0
  9
$PUCSORGRIGHT
 10
0.0
 20
0.0
 30
0.0
  9
$PUCSORGFRONT
 10
0.0
 20
0.0
 30
0.0
  9
$PUCSORGBACK
 10
0.0
 20
0.0
 30
0.0
  9
$USERI1
 70
     0
  9
$USERI2
 70
     0
  9
$USERI3
 70
     0
  9
$USERI4
 70
     0
  9
$USERI5
 70
     0
  9
$USERR1
 40
0.0
  9
$USERR2
 40
0.0
  9
$USERR3
 40
0.0
  9
$USERR4
 40
0.0
  9
$USERR5
 40
0.0
  9
$WORLDVIEW
 70
     1
  9
$SHADEDGE
 70
     3
  9
$SHADEDIF
 70
    70
  9
$TILEMODE
 70
     1
  9
$MAXACTVP
 70
    64
  9
$PINSBASE
 10
0.0
 20
0.0
 30
0.0
  9
$PLIMCHECK
 70
     0
  9
$PEXTMIN
 10
1.0000000000E+20
 20
1.0000000000E+20
 30
1.0000000000E+20
  9
$PEXTMAX
 10
-1.0000000000E+20
 20
-1.0000000000E+20
 30
-1.0000000000E+20
  9
$PLIMMIN
 10
0.0
 20
0.0
  9
$PLIMMAX
 10
12.0
 20
9.0
  9
$UNITMODE
 70
     0
  9
$VISRETAIN
 70
     1
  9
$PLINEGEN
 70
     0
  9
$PSLTSCALE
 70
     1
  9
$TREEDEPTH
 70
  3020
  9
$CMLSTYLE
  2
Standard
  9
$CMLJUST
 70
     0
  9
$CMLSCALE
 40
1.0
  9
$PROXYGRAPHICS
 70
     1
  9
$MEASUREMENT
 70
     0
  9
$CELWEIGHT
370
    -1
  9
$ENDCAPS
280
     0
  9
$JOINSTYLE
280
     0
  9
$LWDISPLAY
290
     1
  9
$INSUNITS
 70
     1
  9
$HYPERLINKBASE
  1

  9
$STYLESHEET
  1

  9
$XEDIT
290
     1
  9
$CEPSNTYPE
380
     0
  9
$PSTYLEMODE
290
     1
  9
$FINGERPRINTGUID
  2
{6A25C70C-399B-4200-8150-92395D1C5CE6}
  9
$VERSIONGUID
  2
{FAEB1C32-E019-11D5-929B-00C0DF256EC4}
  9
$EXTNAMES
290
     1
  9
$PSVPSCALE
 40
0.0
  9
$OLESTARTUP
290
     0
  0
ENDSEC
  0
SECTION
  2
CLASSES
  0
CLASS
  1
ACDBDICTIONARYWDFLT
  2
AcDbDictionaryWithDefault
  3
ObjectDBX Classes
 90
        0
280
     0
281
     0
  0
CLASS
  1
VISUALSTYLE
  2
AcDbVisualStyle
  3
ObjectDBX Classes
 90
     4095
280
     0
281
     0
  0
CLASS
  1
MATERIAL
  2
AcDbMaterial
  3
ObjectDBX Classes
 90
     1153
280
     0
281
     0
  0
CLASS
  1
ACDBPLACEHOLDER
  2
AcDbPlaceHolder
  3
ObjectDBX Classes
 90
        0
280
     0
281
     0
  0
CLASS
  1
LAYOUT
  2
AcDbLayout
  3
ObjectDBX Classes
 90
        0
280
     0
281
     0
  0
ENDSEC
  0
SECTION
  2
TABLES
  0
TABLE
  2
VPORT
  5
8
330
0
100
AcDbSymbolTable
 70
     1
  0
VPORT
  5
29
330
8
100
AcDbSymbolTableRecord
100
AcDbViewportTableRecord
  2
*Active
 70
     0
 10
0.0
 20
0.0
 11
1.0
 21
1.0
 12
4.25
 22
5.5
 13
0.0
 23
0.0
 14
0.5
 24
0.5
 15
0.5
 25
0.5
 16
0.0
 26
0.0
 36
1.0
 17
0.0
 27
0.0
 37
0.0
 40
11.0
 41
0.7727272727
 42
50.0
 43
0.0
 44
0.0
 50
0.0
 51
0.0
 71
     0
 72
  2000
 73
     1
 74
     3
 75
     0
 76
     0
 77
     0
 78
     0
281
     0
 65
     1
110
0.0
120
0.0
130
0.0
111
1.0
121
0.0
131
0.0
112
0.0
122
1.0
132
0.0
 79
     0
146
0.0
  0
ENDTAB
  0
TABLE
  2
LTYPE
  5
5
330
0
100
AcDbSymbolTable
 70
     6
  0
LTYPE
  5
14
330
5
100
AcDbSymbolTableRecord
100
AcDbLinetypeTableRecord
  2
ByBlock
 70
     0
  3

 72
    65
 73
     0
 40
0.0
  0
LTYPE
  5
15
330
5
100
AcDbSymbolTableRecord
100
AcDbLinetypeTableRecord
  2
ByLayer
 70
     0
  3

 72
    65
 73
     0
 40
0.0
  0
LTYPE
  5
16
330
5
100
AcDbSymbolTableRecord
100
AcDbLinetypeTableRecord
  2
Continuous
 70
     0
  3
Solid line
 72
    65
 73
     0
 40
0.0
  0
LTYPE
  5
3F
330
5
100
AcDbSymbolTableRecord
100
AcDbLinetypeTableRecord
  2
HIDDEN
 70
     0
  3
Hidden __ __ __ __ __ __ __ __ __ __ __ __ __ __
 72
    65
 73
     2
 40
0.075
 49
0.05
 74
     0
 49
-0.025
 74
     0
  0
LTYPE
  5
40
330
5
100
AcDbSymbolTableRecord
100
AcDbLinetypeTableRecord
  2
PHANTOM
 70
     0
  3
Phantom ______  __  __  ______  __  __  ______
 72
    65
 73
     6
 40
0.5
 49
0.25
 74
     0
 49
-0.05
 74
     0
 49
0.05
 74
     0
 49
-0.05
 74
     0
 49
0.05
 74
     0
 49
-0.05
 74
     0
  0
LTYPE
  5
41
330
5
100
AcDbSymbolTableRecord
100
AcDbLinetypeTableRecord
  2
CENTER
 70
     0
  3
Center ____ _ ____ _ ____ _ ____ _ ____ _ ____
 72
    65
 73
     4
 40
0.4
 49
0.25
 74
     0
 49
-0.05
 74
     0
 49
0.05
 74
     0
 49
-0.05
 74
     0
  0
LTYPE
  5
42
330
5
100
AcDbSymbolTableRecord
100
AcDbLinetypeTableRecord
  2
CENTERX2
 70
     0
  3
Center (2x) ________  __  ________  __  _____
 72
    65
 73
     4
 40
0.8
 49
0.5
 74
     0
 49
-0.1
 74
     0
 49
0.1
 74
     0
 49
-0.1
 74
     0
  0
LTYPE
  5
43
330
5
100
AcDbSymbolTableRecord
100
AcDbLinetypeTableRecord
  2
DOT2
 70
     0
  3
Dot (.5x) ........................................
 72
    65
 73
     2
 40
0.025
 49
0.0
 74
     0
 49
-0.025
 74
     0
  0
ENDTAB
  0
TABLE
  2
LAYER
  5
2
330
0
100
AcDbSymbolTable
 70
     1
  0
LAYER
  5
10
330
2
100
AcDbSymbolTableRecord
100
AcDbLayerTableRecord
  2
0
 70
     0
 62
     7
  6
Continuous
370
    -3
390
F
  0
ENDTAB
  0
TABLE
  2
STYLE
  5
3
330
0
100
AcDbSymbolTable
 70
     1
  0
STYLE
  5
11
330
3
100
AcDbSymbolTableRecord
100
AcDbTextStyleTableRecord
  2
Standard
 70
     0
 40
0.0
 41
1.0
 50
0.0
 71
     0
 42
0.125
  3
txt
  4

  0
ENDTAB
  0
TABLE
  2
VIEW
  5
6
330
0
100
AcDbSymbolTable
 70
     0
  0
ENDTAB
  0
TABLE
  2
UCS
  5
7
330
0
100
AcDbSymbolTable
 70
     0
  0
ENDTAB
  0
TABLE
  2
APPID
  5
9
330
0
100
AcDbSymbolTable
 70
     1
  0
APPID
  5
12
330
9
100
AcDbSymbolTableRecord
100
AcDbRegAppTableRecord
  2
ACAD
 70
     0
  0
ENDTAB
  0
TABLE
  2
DIMSTYLE
  5
A
330
0
100
AcDbSymbolTable
 70
     1
100
AcDbDimStyleTable
  0
DIMSTYLE
105
27
330
A
100
AcDbSymbolTableRecord
100
AcDbDimStyleTableRecord
  2
Standard
 70
     0
178
     0
340
11
  0
ENDTAB
  0
TABLE
  2
BLOCK_RECORD
  5
1
330
0
100
AcDbSymbolTable
 70
     1
  0
BLOCK_RECORD
  5
1F
330
1
100
AcDbSymbolTableRecord
100
AcDbBlockTableRecord
  2
*Model_Space
340
22
  0
BLOCK_RECORD
  5
1B
330
1
100
AcDbSymbolTableRecord
100
AcDbBlockTableRecord
  2
*Paper_Space
340
1E
  0
BLOCK_RECORD
  5
23
330
1
100
AcDbSymbolTableRecord
100
AcDbBlockTableRecord
  2
*Paper_Space0
340
26
  0
ENDTAB
  0
ENDSEC
  0
SECTION
  2
BLOCKS
  0
BLOCK
  5
20
330
1F
100
AcDbEntity
  8
0
100
AcDbBlockBegin
  2
*Model_Space
 70
     0
 10
0.0
 20
0.0
 30
0.0
  3
*Model_Space
  1

  0
ENDBLK
  5
21
330
1F
100
AcDbEntity
  8
0
100
AcDbBlockEnd
  0
BLOCK
  5
1C
330
1B
100
AcDbEntity
 67
     1
  8
0
100
AcDbBlockBegin
  2
*Paper_Space
 70
     0
 10
0.0
 20
0.0
 30
0.0
  3
*Paper_Space
  1

  0
ENDBLK
  5
1D
330
1B
100
AcDbEntity
 67
     1
  8
0
100
AcDbBlockEnd
  0
BLOCK
  5
24
330
23
100
AcDbEntity
  8
0
100
AcDbBlockBegin
  2
*Paper_Space0
 70
     0
 10
0.0
 20
0.0
 30
0.0
  3
*Paper_Space0
  1

  0
ENDBLK
  5
25
330
23
100
AcDbEntity
  8
0
100
AcDbBlockEnd
  0
ENDSEC
  0
SECTION
  2
ENTITIES
  0
LINE
  5
44
330
1F
100
AcDbEntity
  8
0
  6
Continuous
 62
     7
370
    15
100
AcDbLine
 10
3.8464940141
 20
8.0317853762
 30
0.0
 11
3.8339940151
 21
8.0317853762
 31
0.0
  0
LINE
  5
45
330
1F
100
AcDbEntity
  8
0
  6
Continuous
 62
     7
370
    15
100
AcDbLine
 10
3.8464940141
 20
7.8624103595
 30
0.0
 11
3.8731294364
 21
7.8624103595
 31
0.0
  0
LINE
  5
46
330
1F
100
AcDbEntity
  8
0
  6
Continuous
 62
     7
370
    15
100
AcDbLine
 10
3.8731294364
 20
8.0186603279
 30
0.0
 11
3.8464940141
 21
8.0186603279
 31
0.0
  0
LINE
  5
47
330
1F
100
AcDbEntity
  8
0
  6
Continuous
 62
     7
370
    15
100
AcDbLine
 10
3.8731294364
 20
7.8624103595
 30
0.0
 11
3.8789940186
 21
7.8725681189
 31
0.0
  0
LINE
  5
48
330
1F
100
AcDbEntity
  8
0
  6
Continuous
 62
     7
370
    15
100
AcDbLine
 10
3.8793679043
 20
8.007855006
 30
0.0
 11
3.8731294364
 21
8.0186603279
 31
0.0
  0
ARC
  5
49
330
1F
100
AcDbEntity
  8
0
  6
Continuous
 62
     7
370
    15
100
AcDbCircle
 10
4.6647440097
 20
6.8574103632
 30
0.0
 40
0.03125
100
AcDbArc
 50
180.0
 51
270.0
  0
ARC
  5
4A
330
1F
100
AcDbEntity
  8
0
  6
Continuous
 62
     7
370
    15
100
AcDbCircle
 10
4.6647440097
 20
7.8291603632
 30
0.0
 40
0.0312500000000009
100
AcDbArc
 50
90.0
 51
180.0
  0
LINE
  5
4B
330
1F
100
AcDbEntity
  8
0
  6
Continuous
 62
     7
370
    15
100
AcDbLine
 10
5.0777440006
 20
6.8261603637
 30
0.0
 11
5.1402440319
 21
6.8886603584
 31
0.0
  0
LINE
  5
4C
330
1F
100
AcDbEntity
  8
0
  6
Continuous
 62
     7
370
    15
100
AcDbLine
 10
5.1402440319
 20
7.797910368
 30
0.0
 11
5.0777440006
 21
7.8604103626
 31
0.0
  0
LINE
  5
4D
330
1F
100
AcDbEntity
  8
0
  6
Continuous
 62
     7
370
    15
100
AcDbLine
 10
5.0777440006
 20
7.8604103626
 30
0.0
 11
4.6647440182
 21
7.8604103626
 31
0.0
  0
LINE
  5
4E
330
1F
100
AcDbEntity
  8
0
  6
Continuous
 62
     7
370
    15
100
AcDbLine
 10
4.6647440182
 20
6.8261603637
 30
0.0
 11
5.0777440006
 21
6.8261603637
 31
0.0
  0
LINE
  5
4F
330
1F
100
AcDbEntity
  8
0
  6
Continuous
 62
     7
370
    15
100
AcDbLine
 10
3.5422440188
 20
7.8604103626
 30
0.0
 11
3.4797439875
 21
7.797910368
 31
0.0
  0
LINE
  5
50
330
1F
100
AcDbEntity
  8
0
  6
Continuous
 62
     7
370
    15
100
AcDbLine
 10
3.4797439875
 20
6.8886603584
 30
0.0
 11
3.5422440188
 21
6.8261603637
 31
0.0
  0
LINE
  5
51
330
1F
100
AcDbEntity
  8
0
  6
Continuous
 62
     7
370
    15
100
AcDbLine
 10
3.5422440188
 20
6.8261603637
 30
0.0
 11
3.9552440011
 21
6.8261603637
 31
0.0
  0
LINE
  5
52
330
1F
100
AcDbEntity
  8
0
  6
Continuous
 62
     7
370
    15
100
AcDbLine
 10
3.9552440011
 20
7.8604103626
 30
0.0
 11
3.5422440188
 21
7.8604103626
 31
0.0
  0
ARC
  5
53
330
1F
100
AcDbEntity
  8
0
  6
Continuous
 62
     7
370
    15
100
AcDbCircle
 10
3.9552440097
 20
7.8291603632
 30
0.0
 40
0.0312500000000009
100
AcDbArc
 50
0.0
 51
90.0
  0
ARC
  5
54
330
1F
100
AcDbEntity
  8
0
  6
Continuous
 62
     7
370
    15
100
AcDbCircle
 10
3.9552440097
 20
6.8574103632
 30
0.0
 40
0.0312500000000009
100
AcDbArc
 50
270.0
 51
0.0
  0
LINE
  5
55
330
1F
100
AcDbEntity
  8
0
  6
Continuous
 62
     7
370
    15
100
AcDbLine
 10
5.3427439926
 20
7.1480737533
 30
0.0
 11
5.3427439926
 21
7.1539247507
 31
0.0
  0
LINE
  5
56
330
1F
100
AcDbEntity
  8
0
  6
Continuous
 62
     7
370
    15
100
AcDbLine
 10
5.3427439926
 20
7.4140622076
 30
0.0
 11
5.3427439926
 21
7.4731088976
 31
0.0
  0
LINE
  5
57
330
1F
100
AcDbEntity
  8
0
  6
Continuous
 62
     7
370
    15
100
AcDbLine
 10
3.2772440268
 20
7.3581456633
 30
0.0
 11
3.2772440268
 21
7.30741706
 31
0.0
  0
LINE
  5
58
330
1F
100
AcDbEntity
  8
0
  6
Continuous
 62
     7
370
    15
100
AcDbLine
 10
3.2772440268
 20
7.671843501
 30
0.0
 11
3.2772440268
 21
7.564819119
 31
0.0
  0
LINE
  5
59
330
1F
100
AcDbEntity
  8
0
  6
Continuous
 62
     7
370
    15
100
AcDbLine
 10
3.4722439808
 20
7.6282227532
 30
0.0
 11
3.4722439808
 21
7.671843501
 31
0.0
  0
LINE
  5
5A
330
1F
100
AcDbEntity
  8
0
  6
Continuous
 62
     7
370
    15
100
AcDbLine
 10
5.2919940255
 20
7.2381385403
 30
0.0
 11
5.1402440319
 21
7.2381385403
 31
0.0
  0
ARC
  5
5B
330
1F
100
AcDbEntity
  8
0
  6
Continuous
 62
     7
370
    15
100
AcDbCircle
 10
5.2919940097
 20
7.1911385382
 30
0.0
 40
0.0469999999999997
100
AcDbArc
 50
0.0
 51
90.0
  0
ARC
  5
5C
330
1F
100
AcDbEntity
  8
0
  6
Continuous
 62
     7
370
    15
100
AcDbCircle
 10
5.2919940097
 20
7.3576146997
 30
0.0
 40
0.0469999999999997
100
AcDbArc
 50
270.0
 51
0.0
  0
LINE
  5
5D
330
1F
100
AcDbEntity
  8
0
  6
Continuous
 62
     7
370
    15
100
AcDbLine
 10
5.1402440319
 20
7.3106147002
 30
0.0
 11
5.2919940255
 21
7.3106147002
 31
0.0
  0
ARC
  5
5E
330
1F
100
AcDbEntity
  8
0
  6
Continuous
 62
     7
370
    15
100
AcDbCircle
 10
3.3279940097
 20
7.2538683131
 30
0.0
 40
0.0469999999999997
100
AcDbArc
 50
180.0
 51
270.0
  0
LINE
  5
5F
330
1F
100
AcDbEntity
  8
0
  6
Continuous
 62
     7
370
    15
100
AcDbLine
 10
3.3279939938
 20
7.2068683124
 30
0.0
 11
3.4797439875
 21
7.2068683124
 31
0.0
  0
LINE
  5
60
330
1F
100
AcDbEntity
  8
0
  6
Continuous
 62
     7
370
    15
100
AcDbLine
 10
3.3279939938
 20
7.4455192088
 30
0.0
 11
3.4797439875
 21
7.4455192088
 31
0.0
  0
ARC
  5
61
330
1F
100
AcDbEntity
  8
0
  6
Continuous
 62
     7
370
    15
100
AcDbCircle
 10
3.3279940097
 20
7.4925192126
 30
0.0
 40
0.0469999999999997
100
AcDbArc
 50
180.0
 51
270.0
  0
SPLINE
  5
62
330
1F
100
AcDbEntity
  8
0
  6
Continuous
 62
     7
370
    15
100
AcDbSpline
210
0.0
220
0.0
230
1.0
 70
     8
 71
     3
 72
    19
 73
    15
 74
     0
 42
0.00000001
 43
0.00000001
 12
1.0
 22
0.0
 32
0.0
 13
1.0
 23
0.0
 33
0.0
 40
0.0
 40
0.0
 40
0.0
 40
0.0
 40
0.0040924978878815
 40
0.0702607103467993
 40
0.1404627569429144
 40
0.2182449869145592
 40
0.3076388739459481
 40
0.4108688929855687
 40
0.5226507974797174
 40
0.6324972776275813
 40
0.7388883435428688
 40
0.8427462300084582
 40
0.9449046958112717
 40
1.0
 40
1.0
 40
1.0
 40
1.0
 10
5.273034277889882
 20
7.563795214164709
 30
0.0
 10
5.27297799244852
 20
7.563981223731002
 30
0.0
 10
5.272011674273027
 20
7.567174668081407
 30
0.0
 10
5.268593944852663
 20
7.572637627235154
 30
0.0
 10
5.262989075066407
 20
7.580107567104504
 30
0.0
 10
5.255662594036203
 20
7.586978241487573
 30
0.0
 10
5.246473038058371
 20
7.593639139952804
 30
0.0
 10
5.234929122971092
 20
7.600087944591356
 30
0.0
 10
5.221089381984338
 20
7.606156129168877
 30
0.0
 10
5.205416476264616
 20
7.611647850778825
 30
0.0
 10
5.188511037659246
 20
7.616494382246193
 30
0.0
 10
5.170454296766688
 20
7.620732757701898
 30
0.0
 10
5.154383915337114
 20
7.623962280401961
 30
0.0
 10
5.143912713674319
 20
7.625602266118669
 30
0.0
 10
5.140244031894134
 20
7.626176850193393
 30
0.0
  0
SPLINE
  5
63
330
1F
100
AcDbEntity
  8
0
  6
Continuous
 62
     7
370
    15
100
AcDbSpline
210
0.0
220
0.0
230
1.0
 70
     8
 71
     3
 72
    12
 73
     8
 74
     0
 42
0.00000001
 43
0.00000001
 12
1.0
 22
0.0
 32
0.0
 13
1.0
 23
0.0
 33
0.0
 40
0.0
 40
0.0
 40
0.0
 40
0.0
 40
0.1076686951161567
 40
0.3864782848170929
 40
0.6622292299942917
 40
0.933842534097471
 40
1.0
 40
1.0
 40
1.0
 40
1.0
 10
5.140244031894134
 20
7.562808342231804
 30
0.0
 10
5.142444404345959
 20
7.562433054865602
 30
0.0
 10
5.150342671992112
 20
7.56108595562337
 30
0.0
 10
5.162546667544441
 20
7.558443933229754
 30
0.0
 10
5.176419100450836
 20
7.554967284482951
 30
0.0
 10
5.185852724751841
 20
7.552236746480134
 30
0.0
 10
5.190041861877638
 20
7.550706450269937
 30
0.0
 10
5.190862367146806
 20
7.550406718829749
 30
0.0
  0
LINE
  5
64
330
1F
100
AcDbEntity
  8
0
  6
Continuous
 62
     7
370
    15
100
AcDbLine
 10
3.4059940194
 20
7.7553089234
 30
0.0
 11
3.4059940194
 21
7.8335109801
 31
0.0
  0
LINE
  5
65
330
1F
100
AcDbEntity
  8
0
  6
Continuous
 62
     7
370
    15
100
AcDbLine
 10
3.3434939881
 20
7.8335109801
 30
0.0
 11
3.3434939881
 21
7.7553089234
 31
0.0
  0
SPLINE
  5
66
330
1F
100
AcDbEntity
  8
0
  6
Continuous
 62
     7
370
    15
100
AcDbSpline
210
0.0
220
0.0
230
1.0
 70
     8
 71
     3
 72
    25
 73
    21
 74
     0
 42
0.00000001
 43
0.00000001
 12
1.0
 22
0.0
 32
0.0
 13
1.0
 23
0.0
 33
0.0
 40
0.0
 40
0.0
 40
0.0
 40
0.0
 40
0.0298490565380782
 40
0.0937037603963493
 40
0.1503156018012513
 40
0.2037239652493933
 40
0.2604172228393231
 40
0.3157237553532207
 40
0.3708586824818301
 40
0.4262604414498952
 40
0.4821986366186741
 40
0.5387365003114106
 40
0.5958431835958012
 40
0.6534501621144566
 40
0.711475925047947
 40
0.7698405066243159
 40
0.8284698322074958
 40
0.8872968580135702
 40
0.9462614751768582
 40
1.0
 40
1.0
 40
1.0
 40
1.0
 10
3.405994019431601
 20
7.833510980051832
 30
0.0
 10
3.406012299243687
 20
7.834051639414185
 30
0.0
 10
3.406069684210931
 20
7.835748906303722
 30
0.0
 10
3.406747395510285
 20
7.838755458134161
 30
0.0
 10
3.408746336387081
 20
7.84323287093774
 30
0.0
 10
3.412227435826548
 20
7.84842098874998
 30
0.0
 10
3.417484880518884
 20
7.854249878106198
 30
0.0
 10
3.424744972035106
 20
7.860538808272342
 30
0.0
 10
3.433813242902467
 20
7.866908414004969
 30
0.0
 10
3.444683506848336
 20
7.873222125715759
 30
0.0
 10
3.457302453953501
 20
7.879343230261288
 30
0.0
 10
3.4715846562335
 20
7.885146855143955
 30
0.0
 10
3.487408078423211
 20
7.890518363778821
 30
0.0
 10
3.504622332267145
 20
7.895357102820665
 30
0.0
 10
3.523056559085133
 20
7.899577963121668
 30
0.0
 10
3.542524458591736
 20
7.903108992535453
 30
0.0
 10
3.562829126001366
 20
7.905899208228096
 30
0.0
 10
3.583765444554082
 20
7.90788627502912
 30
0.0
 10
3.604483087798747
 20
7.909076204123514
 30
0.0
 10
3.618202432591997
 20
7.909217833647928
 30
0.0
 10
3.624744019079605
 20
7.909285364699675
 30
0.0
  0
SPLINE
  5
67
330
1F
100
AcDbEntity
  8
0
  6
Continuous
 62
     7
370
    15
100
AcDbSpline
210
0.0
220
0.0
230
1.0
 70
     8
 71
     3
 72
    26
 73
    22
 74
     0
 42
0.00000001
 43
0.00000001
 12
1.0
 22
0.0
 32
0.0
 13
1.0
 23
0.0
 33
0.0
 40
0.0
 40
0.0
 40
0.0
 40
0.0
 40
0.0294946168478666
 40
0.0853220957894404
 40
0.1411982674511753
 40
0.1971524086236189
 40
0.2532313639549295
 40
0.3094860216627497
 40
0.3659743014592877
 40
0.4227619624199308
 40
0.4799205283211367
 40
0.5375205538815533
 40
0.5956087610185524
 40
0.654156315663344
 40
0.712902127110415
 40
0.771077499849854
 40
0.8217181494987665
 40
0.8701635409626092
 40
0.9168002893192313
 40
0.9665211950776367
 40
1.0
 40
1.0
 40
1.0
 40
1.0
 10
3.624744019079605
 20
7.971785396027313
 30
0.0
 10
3.620556453545153
 20
7.971759597450828
 30
0.0
 10
3.608442654288222
 20
7.971684967269142
 30
0.0
 10
3.588449002259027
 20
7.970857085294703
 30
0.0
 10
3.564983536668262
 20
7.969006444762336
 30
0.0
 10
3.541928885337215
 20
7.966235442309534
 30
0.0
 10
3.519440344467887
 20
7.962570120544362
 30
0.0
 10
3.49766386157318
 20
7.958016742573204
 30
0.0
 10
3.47673817613607
 20
7.95258659992161
 30
0.0
 10
3.456793667206385
 20
7.946286066629655
 30
0.0
 10
3.437953275014546
 20
7.939115299333324
 30
0.0
 10
3.420335457318366
 20
7.931064864462784
 30
0.0
 10
3.404061970052719
 20
7.922113178215595
 30
0.0
 10
3.389278076238905
 20
7.912233245309438
 30
0.0
 10
3.376183947960369
 20
7.901423044008041
 30
0.0
 10
3.365406756406316
 20
7.890140567676777
 30
0.0
 10
3.356960841942459
 20
7.878643481059769
 30
0.0
 10
3.350704317519204
 20
7.867202258841073
 30
0.0
 10
3.346231349762179
 20
7.855139809868943
 30
0.0
 10
3.3438479651746
 20
7.8438354569326
 30
0.0
 10
3.343595555468217
 20
7.836473403301991
 30
0.0
 10
3.343493988103963
 20
7.833510980051832
 30
0.0
  0
LINE
  5
68
330
1F
100
AcDbEntity
  8
0
  6
Continuous
 62
     7
370
    15
100
AcDbLine
 10
3.7589940215
 20
7.971785396
 30
0.0
 11
3.6247440191
 21
7.971785396
 31
0.0
  0
LINE
  5
69
330
1F
100
AcDbEntity
  8
0
  6
Continuous
 62
     7
370
    15
100
AcDbLine
 10
3.6247440191
 20
7.9092853647
 30
0.0
 11
3.7589940215
 21
7.9092853647
 31
0.0
  0
SPLINE
  5
6A
330
1F
100
AcDbEntity
  8
0
  6
Continuous
 62
     7
370
    15
100
AcDbSpline
210
0.0
220
0.0
230
1.0
 70
     8
 71
     3
 72
    12
 73
     8
 74
     0
 42
0.00000001
 43
0.00000001
 12
1.0
 22
0.0
 32
0.0
 13
1.0
 23
0.0
 33
0.0
 40
0.0
 40
0.0
 40
0.0
 40
0.0
 40
0.0022361992186867
 40
0.3084055857564568
 40
0.6219098195940617
 40
0.940725015941624
 40
1.0
 40
1.0
 40
1.0
 40
1.0
 10
3.434006222498908
 20
7.420371922669477
 30
0.0
 10
3.434032413504855
 20
7.420379513235623
 30
0.0
 10
3.437644548087108
 20
7.421426366744527
 30
0.0
 10
3.446440026436295
 20
7.423462146993454
 30
0.0
 10
3.460569341978653
 20
7.426362315090429
 30
0.0
 10
3.47187128616109
 20
7.428392558186037
 30
0.0
 10
3.478677020358461
 20
7.429354073384679
 30
0.0
 10
3.479743987465677
 20
7.42950481466553
 30
0.0
  0
SPLINE
  5
6B
330
1F
100
AcDbEntity
  8
0
  6
Continuous
 62
     7
370
    15
100
AcDbSpline
210
0.0
220
0.0
230
1.0
 70
     8
 71
     3
 72
     9
 73
     5
 74
     0
 42
0.00000001
 43
0.00000001
 12
1.0
 22
0.0
 32
0.0
 13
1.0
 23
0.0
 33
0.0
 40
0.0
 40
0.0
 40
0.0
 40
0.0
 40
0.5366988117765255
 40
0.9999999999999999
 40
0.9999999999999999
 40
0.9999999999999999
 40
0.9999999999999999
 10
3.352331506012202
 20
7.445519208832549
 30
0.0
 10
3.351451554752932
 20
7.444440921263627
 30
0.0
 10
3.349811992227428
 20
7.44243181010992
 30
0.0
 10
3.348679927742255
 20
7.439824363400542
 30
0.0
 10
3.348155440921129
 20
7.438616330241858
 30
0.0
  0
LINE
  5
6C
330
1F
100
AcDbEntity
  8
0
  6
Continuous
 62
     7
370
    15
100
AcDbLine
 10
4.0004939951
 20
7.8079103525
 30
0.0
 11
4.0000303137
 21
7.8079103525
 31
0.0
  0
LINE
  5
6D
330
1F
100
AcDbEntity
  8
0
  6
Continuous
 62
     7
370
    15
100
AcDbLine
 10
4.0000303137
 20
6.8786603739
 30
0.0
 11
4.0004939951
 21
6.8786603739
 31
0.0
  0
LINE
  5
6E
330
1F
100
AcDbEntity
  8
0
  6
Continuous
 62
     7
370
    15
100
AcDbLine
 10
4.0000303137
 20
7.8079103525
 30
0.0
 11
3.9864940168
 21
7.78446482
 31
0.0
  0
LINE
  5
6F
330
1F
100
AcDbEntity
  8
0
  6
Continuous
 62
     7
370
    15
100
AcDbLine
 10
3.9864940168
 20
6.9021059064
 30
0.0
 11
4.0000303137
 21
6.8786603739
 31
0.0
  0
LINE
  5
70
330
1F
100
AcDbEntity
  8
0
  6
Continuous
 62
     7
370
    15
100
AcDbLine
 10
4.6194940243
 20
6.8786603739
 30
0.0
 11
4.6199577056
 21
6.8786603739
 31
0.0
  0
LINE
  5
71
330
1F
100
AcDbEntity
  8
0
  6
Continuous
 62
     7
370
    15
100
AcDbLine
 10
4.6199577056
 20
7.8079103525
 30
0.0
 11
4.6194940243
 21
7.8079103525
 31
0.0
  0
LINE
  5
72
330
1F
100
AcDbEntity
  8
0
  6
Continuous
 62
     7
370
    15
100
AcDbLine
 10
4.6199577056
 20
6.8786603739
 30
0.0
 11
4.6334940026
 21
6.9021059064
 31
0.0
  0
LINE
  5
73
330
1F
100
AcDbEntity
  8
0
  6
Continuous
 62
     7
370
    15
100
AcDbLine
 10
4.6334940026
 20
7.78446482
 30
0.0
 11
4.6199577056
 21
7.8079103525
 31
0.0
  0
LINE
  5
74
330
1F
100
AcDbEntity
  8
0
  6
Continuous
 62
     7
370
    15
100
AcDbLine
 10
4.4984719924
 20
7.8662730749
 30
0.0
 11
4.4988093035
 21
7.8605353579
 31
0.0
  0
ARC
  5
75
330
1F
100
AcDbEntity
  8
0
  6
Continuous
 62
     7
370
    15
100
AcDbCircle
 10
4.5474403538
 20
7.8662730639
 30
0.0
 40
0.0489683530658686
100
AcDbArc
 50
353.271104019
 51
180.0
  0
LINE
  5
76
330
1F
100
AcDbEntity
  8
0
  6
Continuous
 62
     7
370
    15
100
AcDbLine
 10
4.484940352
 20
7.8662730749
 30
0.0
 11
4.4852042756
 21
7.8605353579
 31
0.0
  0
ARC
  5
77
330
1F
100
AcDbEntity
  8
0
  6
Continuous
 62
     7
370
    15
100
AcDbCircle
 10
4.5474403538
 20
7.8662730639
 30
0.0
 40
0.0625000000000001
100
AcDbArc
 50
354.7326470102
 51
180.0
  0
LINE
  5
78
330
1F
100
AcDbEntity
  8
0
  6
Continuous
 62
     7
370
    15
100
AcDbLine
 10
3.8464940141
 20
7.8604103626
 30
0.0
 11
3.8464940141
 21
8.0317853762
 31
0.0
  0
LINE
  5
79
330
1F
100
AcDbEntity
  8
0
  6
Continuous
 62
     7
370
    15
100
AcDbLine
 10
3.8339940151
 20
7.974097056
 30
0.0
 11
3.8339940151
 21
8.0000529428
 31
0.0
  0
LINE
  5
7A
330
1F
100
AcDbEntity
  8
0
  6
Continuous
 62
     7
370
    15
100
AcDbLine
 10
3.7589940215
 20
8.0000529428
 30
0.0
 11
3.8339940151
 21
8.0000529428
 31
0.0
  0
LINE
  5
7B
330
1F
100
AcDbEntity
  8
0
  6
Continuous
 62
     7
370
    15
100
AcDbLine
 10
3.7589940215
 20
8.0308017676
 30
0.0
 11
3.7589940215
 21
8.0000529428
 31
0.0
  0
LINE
  5
7C
330
1F
100
AcDbEntity
  8
0
  6
Continuous
 62
     7
370
    15
100
AcDbLine
 10
3.8339940151
 20
8.0308017676
 30
0.0
 11
3.7589940215
 21
8.0308017676
 31
0.0
  0
LINE
  5
7D
330
1F
100
AcDbEntity
  8
0
  6
Continuous
 62
     7
370
    15
100
AcDbLine
 10
3.8339940151
 20
8.0308017676
 30
0.0
 11
3.8339940151
 21
8.0317853762
 31
0.0
  0
LINE
  5
7E
330
1F
100
AcDbEntity
  8
0
  6
Continuous
 62
     7
370
    15
100
AcDbLine
 10
3.7589940215
 20
7.8838306321
 30
0.0
 11
3.7589940215
 21
7.8604103626
 31
0.0
  0
LINE
  5
7F
330
1F
100
AcDbEntity
  8
0
  6
Continuous
 62
     7
370
    15
100
AcDbLine
 10
3.8339940151
 20
7.8838306321
 30
0.0
 11
3.7589940215
 21
7.8838306321
 31
0.0
  0
LINE
  5
80
330
1F
100
AcDbEntity
  8
0
  6
Continuous
 62
     7
370
    15
100
AcDbLine
 10
3.8339940151
 20
7.8838306321
 30
0.0
 11
3.8339940151
 21
7.9103928319
 31
0.0
  0
LINE
  5
81
330
1F
100
AcDbEntity
  8
0
  6
Continuous
 62
     7
370
    15
100
AcDbLine
 10
3.7589940215
 20
7.9103928319
 30
0.0
 11
3.8339940151
 21
7.9103928319
 31
0.0
  0
LINE
  5
82
330
1F
100
AcDbEntity
  8
0
  6
Continuous
 62
     7
370
    15
100
AcDbLine
 10
3.7589940215
 20
7.974097056
 30
0.0
 11
3.7589940215
 21
7.9103928319
 31
0.0
  0
LINE
  5
83
330
1F
100
AcDbEntity
  8
0
  6
Continuous
 62
     7
370
    15
100
AcDbLine
 10
3.8339940151
 20
7.974097056
 30
0.0
 11
3.7589940215
 21
7.974097056
 31
0.0
  0
LINE
  5
84
330
1F
100
AcDbEntity
  8
0
  6
Continuous
 62
     7
370
    15
100
AcDbLine
 10
3.8731294364
 20
7.8624103595
 30
0.0
 11
3.8731294364
 21
8.0186603279
 31
0.0
  0
LINE
  5
85
330
1F
100
AcDbEntity
  8
0
  6
Continuous
 62
     7
370
    15
100
AcDbLine
 10
3.7589940215
 20
7.9103928319
 30
0.0
 11
3.7589940215
 21
7.8838306321
 31
0.0
  0
LINE
  5
86
330
1F
100
AcDbEntity
  8
0
  6
Continuous
 62
     7
370
    15
100
AcDbLine
 10
3.7589940215
 20
8.0000529428
 30
0.0
 11
3.7589940215
 21
7.974097056
 31
0.0
  0
LINE
  5
87
330
1F
100
AcDbEntity
  8
0
  6
Continuous
 62
     7
370
    15
100
AcDbLine
 10
4.713243998
 20
8.003035375
 30
0.0
 11
3.9102439976
 21
8.003035375
 31
0.0
  0
LINE
  5
88
330
1F
100
AcDbEntity
  8
0
  6
Continuous
 62
     7
370
    15
100
AcDbLine
 10
3.9102439976
 20
8.003035375
 30
0.0
 11
3.9102439976
 21
8.034285354
 31
0.0
  0
LINE
  5
89
330
1F
100
AcDbEntity
  8
0
  6
Continuous
 62
     7
370
    15
100
AcDbLine
 10
3.9102439976
 20
8.034285354
 30
0.0
 11
4.713243998
 21
8.034285354
 31
0.0
  0
LINE
  5
8A
330
1F
100
AcDbEntity
  8
0
  6
Continuous
 62
     7
370
    15
100
AcDbLine
 10
4.713243998
 20
8.034285354
 30
0.0
 11
4.713243998
 21
8.003035375
 31
0.0
  0
LINE
  5
8B
330
1F
100
AcDbEntity
  8
0
  6
Continuous
 62
     7
370
    15
100
AcDbLine
 10
4.7444940136
 20
8.003035375
 30
0.0
 11
4.713243998
 21
8.003035375
 31
0.0
  0
ARC
  5
8C
330
1F
100
AcDbEntity
  8
0
  6
Continuous
 62
     7
370
    15
100
AcDbCircle
 10
4.7132440097
 20
8.0030353632
 30
0.0
 40
0.03125
100
AcDbArc
 50
0.0
 51
90.0
  0
LINE
  5
8D
330
1F
100
AcDbEntity
  8
0
  6
Continuous
 62
     7
370
    15
100
AcDbLine
 10
4.7444940136
 20
8.003035375
 30
0.0
 11
4.7444940136
 21
7.8604103626
 31
0.0
  0
LINE
  5
8E
330
1F
100
AcDbEntity
  8
0
  6
Continuous
 62
     7
370
    15
100
AcDbLine
 10
4.6136190105
 20
7.8667853757
 30
0.0
 11
4.6133149007
 21
7.8605353579
 31
0.0
  0
ARC
  5
8F
330
1F
100
AcDbEntity
  8
0
  6
Continuous
 62
     7
370
    15
100
AcDbCircle
 10
4.5492440097
 20
7.8667853632
 30
0.0
 40
0.0643750000000001
100
AcDbArc
 50
0.0
 51
185.5714732762
  0
LINE
  5
90
330
1F
100
AcDbEntity
  8
0
  6
Continuous
 62
     7
370
    15
100
AcDbLine
 10
3.8789940186
 20
7.8604103626
 30
0.0
 11
3.8789940186
 21
8.003035375
 31
0.0
  0
LINE
  5
91
330
1F
100
AcDbEntity
  8
0
  6
Continuous
 62
     7
370
    15
100
AcDbLine
 10
3.9102439976
 20
8.003035375
 30
0.0
 11
3.8789940186
 21
8.003035375
 31
0.0
  0
ARC
  5
92
330
1F
100
AcDbEntity
  8
0
  6
Continuous
 62
     7
370
    15
100
AcDbCircle
 10
3.9102440097
 20
8.0030353632
 30
0.0
 40
0.03125
100
AcDbArc
 50
90.0
 51
180.0
  0
LINE
  5
93
330
1F
100
AcDbEntity
  8
0
  6
Continuous
 62
     7
370
    15
100
AcDbLine
 10
4.6334940026
 20
7.3432853632
 30
0.0
 11
4.6334940026
 21
7.829160347
 31
0.0
  0
LINE
  5
94
330
1F
100
AcDbEntity
  8
0
  6
Continuous
 62
     7
370
    15
100
AcDbLine
 10
4.6334940026
 20
6.8574103794
 30
0.0
 11
4.6334940026
 21
7.3432853632
 31
0.0
  0
LINE
  5
95
330
1F
100
AcDbEntity
  8
0
  6
Continuous
 62
     7
370
    15
100
AcDbLine
 10
5.0777440006
 20
7.8604103626
 30
0.0
 11
5.0777440006
 21
6.8261603637
 31
0.0
  0
LINE
  5
96
330
1F
100
AcDbEntity
  8
0
  6
Continuous
 62
     7
370
    15
100
AcDbLine
 10
5.1402440319
 20
7.797910368
 30
0.0
 11
5.1402440319
 21
6.8886603584
 31
0.0
  0
LINE
  5
97
330
1F
100
AcDbEntity
  8
0
  6
Continuous
 62
     7
370
    15
100
AcDbLine
 10
3.5422440188
 20
6.8261603637
 30
0.0
 11
3.5422440188
 21
7.8604103626
 31
0.0
  0
LINE
  5
98
330
1F
100
AcDbEntity
  8
0
  6
Continuous
 62
     7
370
    15
100
AcDbLine
 10
3.4797439875
 20
6.8886603584
 30
0.0
 11
3.4797439875
 21
7.797910368
 31
0.0
  0
LINE
  5
99
330
1F
100
AcDbEntity
  8
0
  6
Continuous
 62
     7
370
    15
100
AcDbLine
 10
3.9864940168
 20
7.3432853632
 30
0.0
 11
3.9864940168
 21
6.8574103794
 31
0.0
  0
LINE
  5
9A
330
1F
100
AcDbEntity
  8
0
  6
Continuous
 62
     7
370
    15
100
AcDbLine
 10
3.9864940168
 20
7.829160347
 30
0.0
 11
3.9864940168
 21
7.3432853632
 31
0.0
  0
ARC
  5
9B
330
1F
100
AcDbEntity
  8
0
  6
Continuous
 62
     7
370
    15
100
AcDbCircle
 10
5.2452439659
 20
7.1538757805
 30
0.0
 40
0.0975223832694901
100
AcDbArc
 50
59.6978531313
 51
118.9085137159
  0
ARC
  5
9C
330
1F
100
AcDbEntity
  8
0
  6
Continuous
 62
     7
370
    15
100
AcDbCircle
 10
5.2452960856
 20
7.1539247415
 30
0.0
 40
0.097447892908017
100
AcDbArc
 50
344.0533649098
 51
15.9466350902
  0
ARC
  5
9D
330
1F
100
AcDbEntity
  8
0
  6
Continuous
 62
     7
370
    15
100
AcDbCircle
 10
5.2452439941
 20
7.1539723377
 30
0.0
 40
0.0975211093406027
100
AcDbArc
 50
236.6264125468
 51
304.0803228294
  0
LINE
  5
9E
330
1F
100
AcDbEntity
  8
0
  6
Continuous
 62
     7
370
    15
100
AcDbLine
 10
5.1961481728
 20
7.2381385403
 30
0.0
 11
5.1981004302
 21
7.2392461634
 31
0.0
  0
ARC
  5
9F
330
1F
100
AcDbEntity
  8
0
  6
Continuous
 62
     7
370
    15
100
AcDbCircle
 10
5.2452475587
 20
7.1481122405
 30
0.0
 40
0.0975114419446638
100
AcDbArc
 50
277.8715882472
 51
313.1510399804
  0
LINE
  5
A0
330
1F
100
AcDbEntity
  8
0
  6
Continuous
 62
     7
370
    15
100
AcDbLine
 10
5.2586020779
 20
7.0515196003
 30
0.0
 11
5.2586020779
 21
7.055907853
 31
0.0
  0
ARC
  5
A1
330
1F
100
AcDbEntity
  8
0
  6
Continuous
 62
     7
370
    15
100
AcDbCircle
 10
5.2452440067
 20
7.1525145958
 30
0.0
 40
0.0975258982320625
100
AcDbArc
 50
259.9596523112
 51
277.8725206552
  0
LINE
  5
A2
330
1F
100
AcDbEntity
  8
0
  6
Continuous
 62
     7
370
    15
100
AcDbLine
 10
5.228241182
 20
7.0564822847
 30
0.0
 11
5.228241182
 21
7.052094032
 31
0.0
  0
ARC
  5
A3
330
1F
100
AcDbEntity
  8
0
  6
Continuous
 62
     7
370
    15
100
AcDbCircle
 10
5.245240455
 20
7.1481130702
 30
0.0
 40
0.0975122093826108
100
AcDbArc
 50
230.8132140073
 51
259.9603475504
  0
ARC
  5
A4
330
1F
100
AcDbEntity
  8
0
  6
Continuous
 62
     7
370
    15
100
AcDbCircle
 10
5.2452968847
 20
7.1480736835
 30
0.0
 40
0.0974471079362102
100
AcDbArc
 50
344.0532701035
 51
0.0000410356
  0
LINE
  5
A5
330
1F
100
AcDbEntity
  8
0
  6
Continuous
 62
     7
370
    15
100
AcDbLine
 10
5.228241182
 20
7.052094032
 30
0.0
 11
5.2299749086
 21
7.0561914114
 31
0.0
  0
LINE
  5
A6
330
1F
100
AcDbEntity
  8
0
  6
Continuous
 62
     7
370
    15
100
AcDbLine
 10
5.2570126696
 20
7.055701367
 30
0.0
 11
5.2586020779
 21
7.0515196003
 31
0.0
  0
ARC
  5
A7
330
1F
100
AcDbEntity
  8
0
  6
Continuous
 62
     7
370
    15
100
AcDbCircle
 10
5.246047809
 20
7.4107268648
 30
0.0
 40
0.097927578563147
100
AcDbArc
 50
48.3179498836
 51
70.0295952022
  0
ARC
  5
A8
330
1F
100
AcDbEntity
  8
0
  6
Continuous
 62
     7
370
    15
100
AcDbCircle
 10
5.250557288
 20
7.4140622099
 30
0.0
 40
0.092185844003487
100
AcDbArc
 50
343.6033746853
 51
16.3966253147
  0
ARC
  5
A9
330
1F
100
AcDbEntity
  8
0
  6
Continuous
 62
     7
370
    15
100
AcDbCircle
 10
5.2452732348
 20
7.4090755228
 30
0.0
 40
0.0997443027966767
100
AcDbArc
 50
69.935384719
 51
127.848158078
  0
LINE
  5
AA
330
1F
100
AcDbEntity
  8
0
  6
Continuous
 62
     7
370
    15
100
AcDbLine
 10
5.1489294582
 20
7.4878375716
 30
0.0
 11
5.1497376556
 21
7.4921700183
 31
0.0
  0
LINE
  5
AB
330
1F
100
AcDbEntity
  8
0
  6
Continuous
 62
     7
370
    15
100
AcDbLine
 10
5.1497376556
 20
7.4921700183
 30
0.0
 11
5.1497376556
 21
7.4878375716
 31
0.0
  0
LINE
  5
AC
330
1F
100
AcDbEntity
  8
0
  6
Continuous
 62
     7
370
    15
100
AcDbLine
 10
5.1604046723
 20
7.4878375716
 30
0.0
 11
5.1604046723
 21
7.5197967674
 31
0.0
  0
ARC
  5
AD
330
1F
100
AcDbEntity
  8
0
  6
Continuous
 62
     7
370
    15
100
AcDbCircle
 10
5.2439615348
 20
7.4706788668
 30
0.0
 40
0.0969242870715713
100
AcDbArc
 50
107.7089807653
 51
149.5513686455
  0
LINE
  5
AE
330
1F
100
AcDbEntity
  8
0
  6
Continuous
 62
     7
370
    15
100
AcDbLine
 10
5.2144788743
 20
7.5630102816
 30
0.0
 11
5.2144788743
 21
7.5187252698
 31
0.0
  0
ARC
  5
AF
330
1F
100
AcDbEntity
  8
0
  6
Continuous
 62
     7
370
    15
100
AcDbCircle
 10
5.2452247751
 20
7.4234885409
 30
0.0
 40
0.1000766952947469
100
AcDbArc
 50
90.4524739609
 51
107.8919780122
  0
LINE
  5
B0
330
1F
100
AcDbEntity
  8
0
  6
Continuous
 62
     7
370
    15
100
AcDbLine
 10
5.2444344616
 20
7.5235621156
 30
0.0
 11
5.2444344616
 21
7.5678471274
 31
0.0
  0
ARC
  5
B1
330
1F
100
AcDbEntity
  8
0
  6
Continuous
 62
     7
370
    15
100
AcDbCircle
 10
5.2454241547
 20
7.4687119098
 30
0.0
 40
0.0991401576035637
100
AcDbArc
 50
49.3671215621
 51
90.5719799104
  0
LINE
  5
B2
330
1F
100
AcDbEntity
  8
0
  6
Continuous
 62
     7
370
    15
100
AcDbLine
 10
5.3099851977
 20
7.5439491518
 30
0.0
 11
5.3099851977
 21
7.49966414
 31
0.0
  0
ARC
  5
B3
330
1F
100
AcDbEntity
  8
0
  6
Continuous
 62
     7
370
    15
100
AcDbCircle
 10
5.2477233543
 20
7.4274101145
 30
0.0
 40
0.0953791451734235
100
AcDbArc
 50
31.2387384897
 51
49.2482743799
  0
LINE
  5
B4
330
1F
100
AcDbEntity
  8
0
  6
Continuous
 62
     7
370
    15
100
AcDbLine
 10
5.3292738415
 20
7.4768742366
 30
0.0
 11
5.3292738415
 21
7.5211592484
 31
0.0
  0
ARC
  5
B5
330
1F
100
AcDbEntity
  8
0
  6
Continuous
 62
     7
370
    15
100
AcDbCircle
 10
5.2500231092
 20
7.4730293203
 30
0.0
 40
0.0927209175903674
100
AcDbArc
 50
0.0491738524
 51
31.2708159756
  0
ARC
  5
B6
330
1F
100
AcDbEntity
  8
0
  6
Continuous
 62
     7
370
    15
100
AcDbCircle
 10
5.2452439789
 20
7.4096630976
 30
0.0
 40
0.0803143803182688
100
AcDbArc
 50
76.7441563203
 51
103.2558436797
  0
ARC
  5
B7
330
1F
100
AcDbEntity
  8
0
  6
Continuous
 62
     7
370
    15
100
AcDbCircle
 10
5.2288107925
 20
7.5694287449
 30
0.0
 40
0.0157035203139573
100
AcDbArc
 50
204.1249342834
 51
354.2195176898
  0
ARC
  5
B8
330
1F
100
AcDbEntity
  8
0
  6
Continuous
 62
     7
370
    15
100
AcDbCircle
 10
5.3224728691
 20
7.5354783777
 30
0.0
 40
0.0158521510157167
100
AcDbArc
 50
218.0234417791
 51
295.4057133783
  0
ARC
  5
B9
330
1F
100
AcDbEntity
  8
0
  6
Continuous
 62
     7
370
    15
100
AcDbCircle
 10
5.1516304312
 20
7.508001285
 30
0.0
 40
0.0159440147829976
100
AcDbArc
 50
263.1821181554
 51
303.3886719053
  0
ARC
  5
BA
330
1F
100
AcDbEntity
  8
0
  6
Continuous
 62
     7
370
    15
100
AcDbCircle
 10
3.375143565
 20
7.304629235
 30
0.0
 40
0.0981969047753719
100
AcDbArc
 50
52.6000188552
 51
73.9716095058
  0
ARC
  5
BB
330
1F
100
AcDbEntity
  8
0
  6
Continuous
 62
     7
370
    15
100
AcDbCircle
 10
3.3708220685
 20
7.30741706
 30
0.0
 40
0.0935774238650085
100
AcDbArc
 50
163.7260497893
 51
196.2739502107
  0
ARC
  5
BC
330
1F
100
AcDbEntity
  8
0
  6
Continuous
 62
     7
370
    15
100
AcDbCircle
 10
3.3747524092
 20
7.3038654055
 30
0.0
 40
0.0990391813821609
100
AcDbArc
 50
73.8761277188
 51
130.2867208086
  0
LWPOLYLINE
  5
BD
330
1F
100
AcDbEntity
  8
0
  6
Continuous
 62
     7
370
    15
100
AcDbPolyline
 90
        3
 70
   128
 43
0.0
 10
3.2772440268
 20
7.3581456633
 10
3.2773140593
 20
7.3617632568
 10
3.2780630773
 20
7.3704946236
  0
LINE
  5
BE
330
1F
100
AcDbEntity
  8
0
  6
Continuous
 62
     7
370
    15
100
AcDbLine
 10
3.2780630773
 20
7.3704946236
 30
0.0
 11
3.2780630773
 21
7.3324481704
 31
0.0
  0
ARC
  5
BF
330
1F
100
AcDbEntity
  8
0
  6
Continuous
 62
     7
370
    15
100
AcDbCircle
 10
3.3712264936
 20
7.3200131632
 30
0.0
 40
0.0939896353198756
100
AcDbArc
 50
154.1634429922
 51
172.3973694677
  0
LINE
  5
C0
330
1F
100
AcDbEntity
  8
0
  6
Continuous
 62
     7
370
    15
100
AcDbLine
 10
3.2866319783
 20
7.3609743585
 30
0.0
 11
3.2866319783
 21
7.3990208118
 31
0.0
  0
ARC
  5
C1
330
1F
100
AcDbEntity
  8
0
  6
Continuous
 62
     7
370
    15
100
AcDbCircle
 10
3.3734852217
 20
7.3567134358
 30
0.0
 40
0.0966095230948414
100
AcDbArc
 50
113.187130579
 51
154.0286677474
  0
LINE
  5
C2
330
1F
100
AcDbEntity
  8
0
  6
Continuous
 62
     7
370
    15
100
AcDbLine
 10
3.3373252594
 20
7.4455192088
 30
0.0
 11
3.3373252594
 21
7.4082600038
 31
0.0
  0
ARC
  5
C3
330
1F
100
AcDbEntity
  8
0
  6
Continuous
 62
     7
370
    15
100
AcDbCircle
 10
3.3746967146
 20
7.3163626168
 30
0.0
 40
0.0992056218177249
100
AcDbArc
 50
94.5429371422
 51
112.1298571065
  0
LINE
  5
C4
330
1F
100
AcDbEntity
  8
0
  6
Continuous
 62
     7
370
    15
100
AcDbLine
 10
3.3668390184
 20
7.4152565601
 30
0.0
 11
3.3668390184
 21
7.4455192088
 31
0.0
  0
ARC
  5
C5
330
1F
100
AcDbEntity
  8
0
  6
Continuous
 62
     7
370
    15
100
AcDbCircle
 10
3.3752497936
 20
7.3555151129
 30
0.0
 40
0.0980077774824451
100
AcDbArc
 50
53.1653441213
 51
66.6840539806
  0
LINE
  5
C6
330
1F
100
AcDbEntity
  8
0
  6
Continuous
 62
     7
370
    15
100
AcDbLine
 10
3.4340062225
 20
7.4339574899
 30
0.0
 11
3.4340062225
 21
7.3959110423
 31
0.0
  0
ARC
  5
C7
330
1F
100
AcDbEntity
  8
0
  6
Continuous
 62
     7
370
    15
100
AcDbCircle
 10
3.3760410861
 20
7.3185365635
 30
0.0
 40
0.096678679217466
100
AcDbArc
 50
41.5320685733
 51
53.1612623447
  0
LINE
  5
C8
330
1F
100
AcDbEntity
  8
0
  6
Continuous
 62
     7
370
    15
100
AcDbLine
 10
3.4549510072
 20
7.3826383115
 30
0.0
 11
3.4549510072
 21
7.4124278603
 31
0.0
  0
ARC
  5
C9
330
1F
100
AcDbEntity
  8
0
  6
Continuous
 62
     7
370
    15
100
AcDbCircle
 10
3.3777336221
 20
7.3578622017
 30
0.0
 40
0.0945512329665793
100
AcDbArc
 50
15.1910831933
 51
35.2469349127
  0
ARC
  5
CA
330
1F
100
AcDbEntity
  8
0
  6
Continuous
 62
     7
370
    15
100
AcDbCircle
 10
3.3747440038
 20
7.3041660849
 30
0.0
 40
0.0797508048251966
100
AcDbArc
 50
79.7265647625
 51
100.2734352375
  0
ARC
  5
CB
330
1F
100
AcDbEntity
  8
0
  6
Continuous
 62
     7
370
    15
100
AcDbCircle
 10
3.3512139923
 20
7.4537637922
 30
0.0
 40
0.0157706537637404
100
AcDbArc
 50
211.5189178695
 51
328.4810821305
  0
ARC
  5
CC
330
1F
100
AcDbEntity
  8
0
  6
Continuous
 62
     7
370
    15
100
AcDbCircle
 10
3.4471520287
 20
7.4261552763
 30
0.0
 40
0.0157881606024362
100
AcDbArc
 50
213.6294208174
 51
299.6022746647
  0
LWPOLYLINE
  5
CD
330
1F
100
AcDbEntity
  8
0
  6
Continuous
 62
     7
370
    15
100
AcDbPolyline
 90
        3
 70
   128
 43
0.0
 10
3.2866319783
 20
7.3725335257
 10
3.2832072779
 20
7.3710961609
 10
3.2780630773
 20
7.3704946236
  0
LINE
  5
CE
330
1F
100
AcDbEntity
  8
0
  6
Continuous
 62
     7
370
    15
100
AcDbLine
 10
3.4345369297
 20
7.6344185783
 30
0.0
 11
3.4424505316
 21
7.6282227532
 31
0.0
  0
ARC
  5
CF
330
1F
100
AcDbEntity
  8
0
  6
Continuous
 62
     7
370
    15
100
AcDbCircle
 10
3.3573962464
 20
7.5648199021
 30
0.0
 40
0.0801441655145984
100
AcDbArc
 50
161.9607761499
 51
197.5774165973
  0
ARC
  5
D0
330
1F
100
AcDbEntity
  8
0
  6
Continuous
 62
     7
370
    15
100
AcDbCircle
 10
3.3749965483
 20
7.5491419805
 30
0.0
 40
0.1040055534805216
100
AcDbArc
 50
55.0771369002
 51
139.2467608487
  0
ARC
  5
D1
330
1F
100
AcDbEntity
  8
0
  6
Continuous
 62
     7
370
    15
100
AcDbCircle
 10
3.358775692
 20
7.6716184632
 30
0.0
 40
0.081531975771577
100
AcDbArc
 50
148.3647706686
 51
179.8418567507
  0
LINE
  5
D2
330
1F
100
AcDbEntity
  8
0
  6
Continuous
 62
     7
370
    15
100
AcDbLine
 10
3.2893589935
 20
7.7143827596
 30
0.0
 11
3.2893589935
 21
7.6341144685
 31
0.0
  0
ARC
  5
D3
330
1F
100
AcDbEntity
  8
0
  6
Continuous
 62
     7
370
    15
100
AcDbCircle
 10
3.366030183
 20
7.587084077
 30
0.0
 40
0.0899462562998304
100
AcDbArc
 50
130.1935524421
 51
148.474893106
  0
LINE
  5
D4
330
1F
100
AcDbEntity
  8
0
  6
Continuous
 62
     7
370
    15
100
AcDbLine
 10
3.3079814117
 20
7.6557912031
 30
0.0
 11
3.3079814117
 21
7.7360594758
 31
0.0
  0
ARC
  5
D5
330
1F
100
AcDbEntity
  8
0
  6
Continuous
 62
     7
370
    15
100
AcDbCircle
 10
3.3739812565
 20
7.6568254394
 30
0.0
 40
0.1031213462304771
100
AcDbArc
 50
90.647539035
 51
129.7933982455
  0
LINE
  5
D6
330
1F
100
AcDbEntity
  8
0
  6
Continuous
 62
     7
370
    15
100
AcDbLine
 10
3.372815836
 20
7.7599401999
 30
0.0
 11
3.372815836
 21
7.6796718905
 31
0.0
  0
ARC
  5
D7
330
1F
100
AcDbEntity
  8
0
  6
Continuous
 62
     7
370
    15
100
AcDbCircle
 10
3.374776786
 20
7.5724897661
 30
0.0
 40
0.1072000612403863
100
AcDbArc
 50
74.7911900005
 51
91.048137695
  0
LINE
  5
D8
330
1F
100
AcDbEntity
  8
0
  6
Continuous
 62
     7
370
    15
100
AcDbLine
 10
3.4028993885
 20
7.6759352704
 30
0.0
 11
3.4028993885
 21
7.7562035798
 31
0.0
  0
ARC
  5
D9
330
1F
100
AcDbEntity
  8
0
  6
Continuous
 62
     7
370
    15
100
AcDbCircle
 10
3.3785148911
 20
7.6626416645
 30
0.0
 40
0.0966873089615422
100
AcDbArc
 50
34.4963919431
 51
75.3922905312
  0
LINE
  5
DA
330
1F
100
AcDbEntity
  8
0
  6
Continuous
 62
     7
370
    15
100
AcDbLine
 10
3.458200883
 20
7.7174009414
 30
0.0
 11
3.458200883
 21
7.6371326503
 31
0.0
  0
ARC
  5
DB
330
1F
100
AcDbEntity
  8
0
  6
Continuous
 62
     7
370
    15
100
AcDbCircle
 10
3.3870919175
 20
7.5895728926
 30
0.0
 40
0.0855477382495649
100
AcDbArc
 50
26.8587727573
 51
33.7757645408
  0
LINE
  5
DC
330
1F
100
AcDbEntity
  8
0
  6
Continuous
 62
     7
370
    15
100
AcDbLine
 10
3.4696619439
 20
7.6282227532
 30
0.0
 11
3.4696619439
 21
7.6919876049
 31
0.0
  0
ARC
  5
DD
330
1F
100
AcDbEntity
  8
0
  6
Continuous
 62
     7
370
    15
100
AcDbCircle
 10
3.3922338264
 20
7.6718254686
 30
0.0
 40
0.0800101563865079
100
AcDbArc
 50
0.0129131222
 51
14.5955804558
  0
ARC
  5
DE
330
1F
100
AcDbEntity
  8
0
  6
Continuous
 62
     7
370
    15
100
AcDbCircle
 10
3.3747440038
 20
7.5501076466
 30
0.0
 40
0.0853428923446769
100
AcDbArc
 50
66.2496292005
 51
113.7503707995
  0
ARC
  5
DF
330
1F
100
AcDbEntity
  8
0
  6
Continuous
 62
     7
370
    15
100
AcDbCircle
 10
3.3884748924
 20
7.7630416163
 30
0.0
 40
0.015963233709638
100
AcDbArc
 50
191.202956425
 51
334.6363712704
  0
ARC
  5
E0
330
1F
100
AcDbEntity
  8
0
  6
Continuous
 62
     7
370
    15
100
AcDbCircle
 10
3.2957345647
 20
7.7297953761
 30
0.0
 40
0.0166792283257132
100
AcDbArc
 50
247.5271145575
 51
317.244505392
  0
ARC
  5
E1
330
1F
100
AcDbEntity
  8
0
  6
Continuous
 62
     7
370
    15
100
AcDbCircle
 10
3.4673121328
 20
7.7086407467
 30
0.0
 40
0.0168181075956233
100
AcDbArc
 50
237.1969893447
 51
278.0315931279
  0
LINE
  5
E2
330
1F
100
AcDbEntity
  8
0
  6
Continuous
 62
     7
370
    15
100
AcDbLine
 10
5.1402440319
 20
7.1222576932
 30
0.0
 11
5.2919940255
 21
7.1222576932
 31
0.0
  0
LINE
  5
E3
330
1F
100
AcDbEntity
  8
0
  6
Continuous
 62
     7
370
    15
100
AcDbLine
 10
5.2919940255
 20
7.0741705937
 30
0.0
 11
5.2919940255
 21
7.1222576932
 31
0.0
  0
LINE
  5
E4
330
1F
100
AcDbEntity
  8
0
  6
Continuous
 62
     7
370
    15
100
AcDbLine
 10
5.1402440319
 20
7.0741705937
 30
0.0
 11
5.2919940255
 21
7.0741705937
 31
0.0
  0
ARC
  5
E5
330
1F
100
AcDbEntity
  8
0
  6
Continuous
 62
     7
370
    15
100
AcDbCircle
 10
5.3037377409
 20
6.6193890787
 30
0.0
 40
0.5030057239052388
100
AcDbArc
 50
85.9807775571
 51
91.3378107566
  0
ARC
  5
E6
330
1F
100
AcDbEntity
  8
0
  6
Continuous
 62
     7
370
    15
100
AcDbCircle
 10
5.2920004378
 20
7.1211641451
 30
0.0
 40
0.046993551896325
100
AcDbArc
 50
269.9921819985
 51
359.9921490866
  0
LINE
  5
E7
330
1F
100
AcDbEntity
  8
0
  6
Continuous
 62
     7
370
    15
100
AcDbLine
 10
5.1402440319
 20
7.1922385273
 30
0.0
 11
5.2919940255
 21
7.1922385273
 31
0.0
  0
LINE
  5
E8
330
1F
100
AcDbEntity
  8
0
  6
Continuous
 62
     7
370
    15
100
AcDbLine
 10
5.2919940255
 20
7.1222576932
 30
0.0
 11
5.2919940255
 21
7.1922385273
 31
0.0
  0
LINE
  5
E9
330
1F
100
AcDbEntity
  8
0
  6
Continuous
 62
     7
370
    15
100
AcDbLine
 10
5.3389939893
 20
7.19113854
 30
0.0
 11
5.3389939893
 21
7.1211577059
 31
0.0
  0
ARC
  5
EA
330
1F
100
AcDbEntity
  8
0
  6
Continuous
 62
     7
370
    15
100
AcDbCircle
 10
5.3037374978
 20
6.6893595262
 30
0.0
 40
0.50301610193565
100
AcDbArc
 50
85.9808328595
 51
91.3377554542
  0
LINE
  5
EB
330
1F
100
AcDbEntity
  8
0
  6
Continuous
 62
     7
370
    15
100
AcDbLine
 10
5.2919940255
 20
7.2381385403
 30
0.0
 11
5.2919940255
 21
7.2381256613
 31
0.0
  0
LINE
  5
EC
330
1F
100
AcDbEntity
  8
0
  6
Continuous
 62
     7
370
    15
100
AcDbLine
 10
5.2919940255
 20
7.0725323093
 30
0.0
 11
5.2919940255
 21
7.0741705937
 31
0.0
  0
LINE
  5
ED
330
1F
100
AcDbEntity
  8
0
  6
Continuous
 62
     7
370
    15
100
AcDbLine
 10
5.1402440319
 20
7.0725323093
 30
0.0
 11
5.2919940255
 21
7.0725323093
 31
0.0
  0
LINE
  5
EE
330
1F
100
AcDbEntity
  8
0
  6
Continuous
 62
     7
370
    15
100
AcDbLine
 10
5.3389939893
 20
7.1211577059
 30
0.0
 11
5.3389939893
 21
7.1195194398
 31
0.0
  0
ARC
  5
EF
330
1F
100
AcDbEntity
  8
0
  6
Continuous
 62
     7
370
    15
100
AcDbCircle
 10
5.2920004274
 20
7.1195258712
 30
0.0
 40
0.0469935623249157
100
AcDbArc
 50
269.9921947163
 51
359.992158724
  0
ARC
  5
F0
330
1F
100
AcDbEntity
  8
0
  6
Continuous
 62
     7
370
    15
100
AcDbCircle
 10
5.2926494688
 20
7.4249597024
 30
0.0
 40
0.0463494290187915
100
AcDbArc
 50
0.8338656814
 51
90.8102663789
  0
LWPOLYLINE
  5
F1
330
1F
100
AcDbEntity
  8
0
  6
Continuous
 62
     7
370
    15
100
AcDbPolyline
 90
        9
 70
   128
 43
0.0
 10
5.2919940255
 20
7.4145334605
 10
5.3011632263
 20
7.4147467572
 10
5.3099801378
 20
7.415378457
 10
5.3181058172
 20
7.4164042777
 10
5.3252280149
 20
7.417784803
 10
5.3310730541
 20
7.4194669769
 10
5.3354163172
 20
7.4213861568
 10
5.3380908997
 20
7.4234685794
 10
5.3389939893
 20
7.4256342344
  0
LINE
  5
F2
330
1F
100
AcDbEntity
  8
0
  6
Continuous
 62
     7
370
    15
100
AcDbLine
 10
5.2919940255
 20
7.4145334605
 30
0.0
 11
5.2919940255
 21
7.4713044968
 31
0.0
  0
LINE
  5
F3
330
1F
100
AcDbEntity
  8
0
  6
Continuous
 62
     7
370
    15
100
AcDbLine
 10
5.1402440319
 20
7.4713044968
 30
0.0
 11
5.2919940255
 21
7.4713044968
 31
0.0
  0
LINE
  5
F4
330
1F
100
AcDbEntity
  8
0
  6
Continuous
 62
     7
370
    15
100
AcDbLine
 10
5.1402440319
 20
7.4145334605
 30
0.0
 11
5.2919940255
 21
7.4145334605
 31
0.0
  0
LINE
  5
F5
330
1F
100
AcDbEntity
  8
0
  6
Continuous
 62
     7
370
    15
100
AcDbLine
 10
5.3389939893
 20
7.4256342344
 30
0.0
 11
5.3389939893
 21
7.3576146994
 31
0.0
  0
LWPOLYLINE
  5
F6
330
1F
100
AcDbEntity
  8
0
  6
Continuous
 62
     7
370
    15
100
AcDbPolyline
 90
        9
 70
   128
 43
0.0
 10
5.2919940255
 20
7.3465139224
 10
5.3011632263
 20
7.3467272206
 10
5.3099801378
 20
7.3473589186
 10
5.3181058172
 20
7.3483847404
 10
5.3252280149
 20
7.3497652646
 10
5.3310730541
 20
7.3514474385
 10
5.3354163172
 20
7.3533666161
 10
5.3380908997
 20
7.3554490456
 10
5.3389939893
 20
7.3576146994
  0
LINE
  5
F7
330
1F
100
AcDbEntity
  8
0
  6
Continuous
 62
     7
370
    15
100
AcDbLine
 10
5.2919940255
 20
7.3465139224
 30
0.0
 11
5.2919940255
 21
7.4145334605
 31
0.0
  0
LINE
  5
F8
330
1F
100
AcDbEntity
  8
0
  6
Continuous
 62
     7
370
    15
100
AcDbLine
 10
5.1402440319
 20
7.3465139224
 30
0.0
 11
5.2919940255
 21
7.3465139224
 31
0.0
  0
LINE
  5
F9
330
1F
100
AcDbEntity
  8
0
  6
Continuous
 62
     7
370
    15
100
AcDbLine
 10
5.2919940255
 20
7.4713044968
 30
0.0
 11
5.2919940255
 21
7.4878375716
 31
0.0
  0
ARC
  5
FA
330
1F
100
AcDbEntity
  8
0
  6
Continuous
 62
     7
370
    15
100
AcDbCircle
 10
5.2926494507
 20
7.4414927586
 30
0.0
 40
0.046349447402784
100
AcDbArc
 50
0.8338883978
 51
90.8102436625
  0
LINE
  5
FB
330
1F
100
AcDbEntity
  8
0
  6
Continuous
 62
     7
370
    15
100
AcDbLine
 10
5.3389939893
 20
7.4421673092
 30
0.0
 11
5.3389939893
 21
7.4256342344
 31
0.0
  0
LINE
  5
FC
330
1F
100
AcDbEntity
  8
0
  6
Continuous
 62
     7
370
    15
100
AcDbLine
 10
5.1402440319
 20
7.4878375716
 30
0.0
 11
5.2919940255
 21
7.4878375716
 31
0.0
  0
LWPOLYLINE
  5
FD
330
1F
100
AcDbEntity
  8
0
  6
Continuous
 62
     7
370
    15
100
AcDbPolyline
 90
        3
 70
   128
 43
0.0
 10
5.2403931816
 20
7.4878375716
 10
5.2452439789
 20
7.4879840441
 10
5.2500948496
 20
7.4878375716
  0
LWPOLYLINE
  5
FE
330
1F
100
AcDbEntity
  8
0
  6
Continuous
 62
     7
370
    15
100
AcDbPolyline
 90
        9
 70
   128
 43
0.0
 10
3.3279939938
 20
7.3128750893
 10
3.3188247931
 20
7.3130583403
 10
3.3100078816
 20
7.3136010488
 10
3.3018822021
 20
7.3144823586
 10
3.2947600044
 20
7.3156684039
 10
3.2889149653
 20
7.3171136061
 10
3.2845717021
 20
7.3187624229
 10
3.2818971197
 20
7.320551495
 10
3.2809940301
 20
7.3224120662
  0
ARC
  5
FF
330
1F
100
AcDbEntity
  8
0
  6
Continuous
 62
     7
370
    15
100
AcDbCircle
 10
3.3275102281
 20
7.3219179953
 30
0.0
 40
0.046518821828265
100
AcDbArc
 50
89.4041501619
 51
179.3914568615
  0
LINE
  5
100
330
1F
100
AcDbEntity
  8
0
  6
Continuous
 62
     7
370
    15
100
AcDbLine
 10
3.3279939938
 20
7.3684343016
 30
0.0
 11
3.3279939938
 21
7.3128750893
 31
0.0
  0
LINE
  5
101
330
1F
100
AcDbEntity
  8
0
  6
Continuous
 62
     7
370
    15
100
AcDbLine
 10
3.4797439875
 20
7.3128750893
 30
0.0
 11
3.3279939938
 21
7.3128750893
 31
0.0
  0
LINE
  5
102
330
1F
100
AcDbEntity
  8
0
  6
Continuous
 62
     7
370
    15
100
AcDbLine
 10
3.4797439875
 20
7.3684343016
 30
0.0
 11
3.3279939938
 21
7.3684343016
 31
0.0
  0
LINE
  5
103
330
1F
100
AcDbEntity
  8
0
  6
Continuous
 62
     7
370
    15
100
AcDbLine
 10
3.4797439875
 20
7.2443313313
 30
0.0
 11
3.3279939938
 21
7.2443313313
 31
0.0
  0
LINE
  5
104
330
1F
100
AcDbEntity
  8
0
  6
Continuous
 62
     7
370
    15
100
AcDbLine
 10
3.3279939938
 20
7.3128750893
 30
0.0
 11
3.3279939938
 21
7.2443313313
 31
0.0
  0
LINE
  5
105
330
1F
100
AcDbEntity
  8
0
  6
Continuous
 62
     7
370
    15
100
AcDbLine
 10
3.2809940301
 20
7.2538683128
 30
0.0
 11
3.2809940301
 21
7.3224120662
 31
0.0
  0
LWPOLYLINE
  5
106
330
1F
100
AcDbEntity
  8
0
  6
Continuous
 62
     7
370
    15
100
AcDbPolyline
 90
        9
 70
   128
 43
0.0
 10
3.3279939938
 20
7.2443313313
 10
3.3188247931
 20
7.2445145892
 10
3.3100078816
 20
7.2450572954
 10
3.3018822021
 20
7.2459386052
 10
3.2947600044
 20
7.2471246482
 10
3.2889149653
 20
7.2485698482
 10
3.2845717021
 20
7.2502186741
 10
3.2818971197
 20
7.2520077393
 10
3.2809940301
 20
7.2538683128
  0
LINE
  5
107
330
1F
100
AcDbEntity
  8
0
  6
Continuous
 62
     7
370
    15
100
AcDbLine
 10
3.2809940301
 20
7.3224120662
 30
0.0
 11
3.2809940301
 21
7.3366160755
 31
0.0
  0
ARC
  5
108
330
1F
100
AcDbEntity
  8
0
  6
Continuous
 62
     7
370
    15
100
AcDbCircle
 10
3.3275102292
 20
7.336122004
 30
0.0
 40
0.0465188229511342
100
AcDbArc
 50
89.4041515521
 51
179.3914561844
  0
LINE
  5
109
330
1F
100
AcDbEntity
  8
0
  6
Continuous
 62
     7
370
    15
100
AcDbLine
 10
3.3279939938
 20
7.3826383115
 30
0.0
 11
3.3279939938
 21
7.3684343016
 31
0.0
  0
LINE
  5
10A
330
1F
100
AcDbEntity
  8
0
  6
Continuous
 62
     7
370
    15
100
AcDbLine
 10
3.4797439875
 20
7.3826383115
 30
0.0
 11
3.3279939938
 21
7.3826383115
 31
0.0
  0
LWPOLYLINE
  5
10B
330
1F
100
AcDbEntity
  8
0
  6
Continuous
 62
     7
370
    15
100
AcDbPolyline
 90
        9
 70
   128
 43
0.0
 10
3.3279939938
 20
7.5356599042
 10
3.3188247931
 20
7.5360465131
 10
3.3100078816
 20
7.5371914898
 10
3.3018822021
 20
7.539050835
 10
3.2947600044
 20
7.5415530861
 10
3.2889149653
 20
7.5446020859
 10
3.2845717021
 20
7.5480806674
 10
3.2818971197
 20
7.5518551638
 10
3.2809940301
 20
7.5557804868
  0
ARC
  5
10C
330
1F
100
AcDbEntity
  8
0
  6
Continuous
 62
     7
370
    15
100
AcDbCircle
 10
3.3258406255
 20
7.5533977136
 30
0.0
 40
0.0449098510905879
100
AcDbArc
 50
87.2516888872
 51
176.9586410356
  0
LINE
  5
10D
330
1F
100
AcDbEntity
  8
0
  6
Continuous
 62
     7
370
    15
100
AcDbLine
 10
3.3279939938
 20
7.5982559094
 30
0.0
 11
3.3279939938
 21
7.5356599042
 31
0.0
  0
LINE
  5
10E
330
1F
100
AcDbEntity
  8
0
  6
Continuous
 62
     7
370
    15
100
AcDbLine
 10
3.4797439875
 20
7.5356599042
 30
0.0
 11
3.3279939938
 21
7.5356599042
 31
0.0
  0
LINE
  5
10F
330
1F
100
AcDbEntity
  8
0
  6
Continuous
 62
     7
370
    15
100
AcDbLine
 10
3.4797439875
 20
7.5982559094
 30
0.0
 11
3.3279939938
 21
7.5982559094
 31
0.0
  0
LINE
  5
110
330
1F
100
AcDbEntity
  8
0
  6
Continuous
 62
     7
370
    15
100
AcDbLine
 10
3.2809940301
 20
7.4925192092
 30
0.0
 11
3.2809940301
 21
7.5557804868
 31
0.0
  0
LINE
  5
111
330
1F
100
AcDbEntity
  8
0
  6
Continuous
 62
     7
370
    15
100
AcDbLine
 10
3.3279939938
 20
7.5356599042
 30
0.0
 11
3.3279939938
 21
7.4723986267
 31
0.0
  0
LWPOLYLINE
  5
112
330
1F
100
AcDbEntity
  8
0
  6
Continuous
 62
     7
370
    15
100
AcDbPolyline
 90
        9
 70
   128
 43
0.0
 10
3.3279939938
 20
7.4723986267
 10
3.3188247931
 20
7.4727852355
 10
3.3100078816
 20
7.4739302123
 10
3.3018822021
 20
7.4757895575
 10
3.2947600044
 20
7.4782918086
 10
3.2889149653
 20
7.4813408175
 10
3.2845717021
 20
7.484819399
 10
3.2818971197
 20
7.4885938771
 10
3.2809940301
 20
7.4925192092
  0
LINE
  5
113
330
1F
100
AcDbEntity
  8
0
  6
Continuous
 62
     7
370
    15
100
AcDbLine
 10
3.4797439875
 20
7.4723986267
 30
0.0
 11
3.3279939938
 21
7.4723986267
 31
0.0
  0
LINE
  5
114
330
1F
100
AcDbEntity
  8
0
  6
Continuous
 62
     7
370
    15
100
AcDbLine
 10
3.2809940301
 20
7.5557804868
 30
0.0
 11
3.2809940301
 21
7.5857473122
 31
0.0
  0
ARC
  5
115
330
1F
100
AcDbEntity
  8
0
  6
Continuous
 62
     7
370
    15
100
AcDbCircle
 10
3.3258406322
 20
7.583364551
 30
0.0
 40
0.0449098571830646
100
AcDbArc
 50
87.2516978613
 51
176.9586566653
  0
LINE
  5
116
330
1F
100
AcDbEntity
  8
0
  6
Continuous
 62
     7
370
    15
100
AcDbLine
 10
3.3279939938
 20
7.6282227532
 30
0.0
 11
3.3279939938
 21
7.5982559094
 31
0.0
  0
LINE
  5
117
330
1F
100
AcDbEntity
  8
0
  6
Continuous
 62
     7
370
    15
100
AcDbLine
 10
3.4797439875
 20
7.6282227532
 30
0.0
 11
3.3279939938
 21
7.6282227532
 31
0.0
  0
ARC
  5
118
330
1F
100
AcDbEntity
  8
0
  6
Continuous
 62
     7
370
    15
100
AcDbCircle
 10
3.3747440038
 20
7.5437933929
 30
0.0
 40
0.0861732120798627
100
AcDbArc
 50
78.4537383217
 51
101.5462616783
  0
ARC
  5
119
330
1F
100
AcDbEntity
  8
0
  6
Continuous
 62
     7
370
    15
100
AcDbCircle
 10
3.3747440038
 20
7.5458466559
 30
0.0
 40
0.0859678397578953
100
AcDbArc
 50
73.3794264943
 51
106.6205735057
  0
CIRCLE
  5
11A
330
1F
100
AcDbEntity
  8
0
  6
Continuous
 62
     7
370
    15
100
AcDbCircle
 10
4.3099940097
 20
7.0377853632
 30
0.0
 40
0.0624999999999999
  0
CIRCLE
  5
11B
330
1F
100
AcDbEntity
  8
0
  6
Continuous
 62
     7
370
    15
100
AcDbCircle
 10
4.3099940097
 20
7.5987853632
 30
0.0
 40
0.0624999999999996
  0
CIRCLE
  5
11C
330
1F
100
AcDbEntity
  8
0
  6
Continuous
 62
     7
370
    15
100
AcDbCircle
 10
4.3099940097
 20
7.0377853632
 30
0.0
 40
0.0500000000000006
  0
CIRCLE
  5
11D
330
1F
100
AcDbEntity
  8
0
  6
Continuous
 62
     7
370
    15
100
AcDbCircle
 10
4.3099940097
 20
7.0377853632
 30
0.0
 40
0.0536250000000001
  0
CIRCLE
  5
11E
330
1F
100
AcDbEntity
  8
0
  6
Continuous
 62
     7
370
    15
100
AcDbCircle
 10
4.3099940097
 20
7.5987853632
 30
0.0
 40
0.0499999999999995
  0
CIRCLE
  5
11F
330
1F
100
AcDbEntity
  8
0
  6
Continuous
 62
     7
370
    15
100
AcDbCircle
 10
4.3099940097
 20
7.5987853632
 30
0.0
 40
0.0536249999999996
  0
ARC
  5
120
330
1F
100
AcDbEntity
  8
0
  6
Continuous
 62
     7
370
    15
100
AcDbCircle
 10
4.4503165775
 20
7.5598353909
 30
0.0
 40
0.0312500000000005
100
AcDbArc
 50
123.9027248602
 51
205.0706753201
  0
ARC
  5
121
330
1F
100
AcDbEntity
  8
0
  6
Continuous
 62
     7
370
    15
100
AcDbCircle
 10
4.2383127599
 20
7.725550192
 30
0.0
 40
0.0312500000000011
100
AcDbArc
 50
258.9027248602
 51
340.0706753201
  0
CIRCLE
  5
122
330
1F
100
AcDbEntity
  8
0
  6
Continuous
 62
     7
370
    15
100
AcDbCircle
 10
4.3099940097
 20
7.5987853632
 30
0.0
 40
0.0633750000000002
  0
ARC
  5
123
330
1F
100
AcDbEntity
  8
0
  6
Continuous
 62
     7
370
    15
100
AcDbCircle
 10
4.3489439819
 20
7.739107931
 30
0.0
 40
0.0312500000000003
100
AcDbArc
 50
213.9027248602
 51
295.0706753201
  0
ARC
  5
124
330
1F
100
AcDbEntity
  8
0
  6
Continuous
 62
     7
370
    15
100
AcDbCircle
 10
4.4367588385
 20
7.670466613
 30
0.0
 40
0.0312500000000007
100
AcDbArc
 50
168.9027248602
 51
250.0706753201
  0
ARC
  5
125
330
1F
100
AcDbEntity
  8
0
  6
Continuous
 62
     7
370
    15
100
AcDbCircle
 10
4.297069872
 20
7.7042463947
 30
0.0
 40
0.0312500000000007
100
AcDbArc
 50
33.9027248602
 51
160.0706753201
  0
ARC
  5
126
330
1F
100
AcDbEntity
  8
0
  6
Continuous
 62
     7
370
    15
100
AcDbCircle
 10
4.3754274748
 20
7.6824963191
 30
0.0
 40
0.0312500000000002
100
AcDbArc
 50
348.9027248602
 51
115.0706753201
  0
ARC
  5
127
330
1F
100
AcDbEntity
  8
0
  6
Continuous
 62
     7
370
    15
100
AcDbCircle
 10
4.4154550412
 20
7.6117095009
 30
0.0
 40
0.0312499999999999
100
AcDbArc
 50
303.9027248602
 51
70.0706753201
  0
ARC
  5
128
330
1F
100
AcDbEntity
  8
0
  6
Continuous
 62
     7
370
    15
100
AcDbCircle
 10
4.3937049656
 20
7.5333518981
 30
0.0
 40
0.0312500000000013
100
AcDbArc
 50
258.9027248602
 51
25.0706753201
  0
ARC
  5
129
330
1F
100
AcDbEntity
  8
0
  6
Continuous
 62
     7
370
    15
100
AcDbCircle
 10
4.3816752595
 20
7.4720205344
 30
0.0
 40
0.0312499999999999
100
AcDbArc
 50
78.9027248602
 51
160.0706753201
  0
ARC
  5
12A
330
1F
100
AcDbEntity
  8
0
  6
Continuous
 62
     7
370
    15
100
AcDbCircle
 10
4.2710440374
 20
7.4584627953
 30
0.0
 40
0.0312500000000003
100
AcDbArc
 50
33.9027248602
 51
115.0706753201
  0
ARC
  5
12B
330
1F
100
AcDbEntity
  8
0
  6
Continuous
 62
     7
370
    15
100
AcDbCircle
 10
4.1832291809
 20
7.5271041134
 30
0.0
 40
0.0312500000000007
100
AcDbArc
 50
348.9027248602
 51
70.0706753201
  0
ARC
  5
12C
330
1F
100
AcDbEntity
  8
0
  6
Continuous
 62
     7
370
    15
100
AcDbCircle
 10
4.1696714418
 20
7.6377353354
 30
0.0
 40
0.03125
100
AcDbArc
 50
303.9027248602
 51
25.0706753201
  0
ARC
  5
12D
330
1F
100
AcDbEntity
  8
0
  6
Continuous
 62
     7
370
    15
100
AcDbCircle
 10
4.2262830537
 20
7.6642188283
 30
0.0
 40
0.0312500000000006
100
AcDbArc
 50
78.9027248602
 51
205.0706753201
  0
ARC
  5
12E
330
1F
100
AcDbEntity
  8
0
  6
Continuous
 62
     7
370
    15
100
AcDbCircle
 10
4.3229181474
 20
7.4933243317
 30
0.0
 40
0.03125
100
AcDbArc
 50
213.9027248602
 51
340.0706753201
  0
ARC
  5
12F
330
1F
100
AcDbEntity
  8
0
  6
Continuous
 62
     7
370
    15
100
AcDbCircle
 10
4.2445605446
 20
7.5150744072
 30
0.0
 40
0.0312500000000002
100
AcDbArc
 50
168.9027248602
 51
295.0706753201
  0
ARC
  5
130
330
1F
100
AcDbEntity
  8
0
  6
Continuous
 62
     7
370
    15
100
AcDbCircle
 10
4.2045329782
 20
7.5858612255
 30
0.0
 40
0.03125
100
AcDbArc
 50
123.9027248602
 51
250.0706753201
  0
ARC
  5
131
330
1F
100
AcDbEntity
  8
0
  6
Continuous
 62
     7
370
    15
100
AcDbCircle
 10
4.3099940097
 20
7.5987853632
 30
0.0
 40
0.1375000000000004
100
AcDbArc
 50
141.9867000901
 51
186.9867000901
  0
ARC
  5
132
330
1F
100
AcDbEntity
  8
0
  6
Continuous
 62
     7
370
    15
100
AcDbCircle
 10
4.3099940097
 20
7.5987853632
 30
0.0
 40
0.1375000000000004
100
AcDbArc
 50
321.9867000901
 51
6.9867000901
  0
ARC
  5
133
330
1F
100
AcDbEntity
  8
0
  6
Continuous
 62
     7
370
    15
100
AcDbCircle
 10
4.3099940097
 20
7.5987853632
 30
0.0
 40
0.1375000000000002
100
AcDbArc
 50
51.9867000901
 51
96.9867000901
  0
ARC
  5
134
330
1F
100
AcDbEntity
  8
0
  6
Continuous
 62
     7
370
    15
100
AcDbCircle
 10
4.3099940097
 20
7.5987853632
 30
0.0
 40
0.1375000000000004
100
AcDbArc
 50
186.9867000901
 51
231.9867000901
  0
ARC
  5
135
330
1F
100
AcDbEntity
  8
0
  6
Continuous
 62
     7
370
    15
100
AcDbCircle
 10
4.3099940097
 20
7.5987853632
 30
0.0
 40
0.1375000000000003
100
AcDbArc
 50
276.9867000901
 51
321.9867000901
  0
ARC
  5
136
330
1F
100
AcDbEntity
  8
0
  6
Continuous
 62
     7
370
    15
100
AcDbCircle
 10
4.3099940097
 20
7.5987853632
 30
0.0
 40
0.1375000000000002
100
AcDbArc
 50
96.9867000901
 51
141.9867000901
  0
ARC
  5
137
330
1F
100
AcDbEntity
  8
0
  6
Continuous
 62
     7
370
    15
100
AcDbCircle
 10
4.3099940097
 20
7.5987853632
 30
0.0
 40
0.1375000000000004
100
AcDbArc
 50
6.9867000901
 51
51.9867000901
  0
ARC
  5
138
330
1F
100
AcDbEntity
  8
0
  6
Continuous
 62
     7
370
    15
100
AcDbCircle
 10
4.3099940097
 20
7.5987853632
 30
0.0
 40
0.1375000000000003
100
AcDbArc
 50
231.9867000901
 51
276.9867000901
  0
ARC
  5
139
330
1F
100
AcDbEntity
  8
0
  6
Continuous
 62
     7
370
    15
100
AcDbCircle
 10
4.2391125122
 20
6.9586343947
 30
0.0
 40
0.0312500000000008
100
AcDbArc
 50
171.5213709876
 51
277.2655122608
  0
ARC
  5
13A
330
1F
100
AcDbEntity
  8
0
  6
Continuous
 62
     7
370
    15
100
AcDbCircle
 10
4.2308430412
 20
7.1086668607
 30
0.0
 40
0.0312499999999998
100
AcDbArc
 50
81.5213709876
 51
187.2655122608
  0
ARC
  5
13B
330
1F
100
AcDbEntity
  8
0
  6
Continuous
 62
     7
370
    15
100
AcDbCircle
 10
4.3808755072
 20
7.1169363317
 30
0.0
 40
0.0312500000000005
100
AcDbArc
 50
351.5213709876
 51
97.2655122608
  0
ARC
  5
13C
330
1F
100
AcDbEntity
  8
0
  6
Continuous
 62
     7
370
    15
100
AcDbCircle
 10
4.4160829838
 20
7.0436327622
 30
0.0
 40
0.0312499999999996
100
AcDbArc
 50
306.5213709876
 51
52.2655122608
  0
ARC
  5
13D
330
1F
100
AcDbEntity
  8
0
  6
Continuous
 62
     7
370
    15
100
AcDbCircle
 10
4.3891449782
 20
6.9669038657
 30
0.0
 40
0.0312500000000006
100
AcDbArc
 50
261.5213709876
 51
7.2655122608
  0
ARC
  5
13E
330
1F
100
AcDbEntity
  8
0
  6
Continuous
 62
     7
370
    15
100
AcDbCircle
 10
4.3158414087
 20
6.9316963891
 30
0.0
 40
0.0312500000000007
100
AcDbArc
 50
216.5213709876
 51
322.2655122608
  0
ARC
  5
13F
330
1F
100
AcDbEntity
  8
0
  6
Continuous
 62
     7
370
    15
100
AcDbCircle
 10
4.2039050356
 20
7.0319379642
 30
0.0
 40
0.0312500000000002
100
AcDbArc
 50
126.5213709876
 51
232.2655122608
  0
ARC
  5
140
330
1F
100
AcDbEntity
  8
0
  6
Continuous
 62
     7
370
    15
100
AcDbCircle
 10
4.3041466107
 20
7.1438743373
 30
0.0
 40
0.0312500000000003
100
AcDbArc
 50
36.5213709876
 51
142.2655122608
  0
ARC
  5
141
330
1F
100
AcDbEntity
  8
0
  6
Continuous
 62
     7
370
    15
100
AcDbCircle
 10
4.3054762294
 20
7.1833433003
 30
0.0
 40
0.03125
100
AcDbArc
 50
231.1937819805
 51
312.3617324404
  0
ARC
  5
142
330
1F
100
AcDbEntity
  8
0
  6
Continuous
 62
     7
370
    15
100
AcDbCircle
 10
4.409724461
 20
7.1439049206
 30
0.0
 40
0.03125
100
AcDbArc
 50
186.1937819805
 51
267.3617324404
  0
ARC
  5
143
330
1F
100
AcDbEntity
  8
0
  6
Continuous
 62
     7
370
    15
100
AcDbCircle
 10
4.4555519468
 20
7.0423031435
 30
0.0
 40
0.0312500000000006
100
AcDbArc
 50
141.1937819805
 51
222.3617324404
  0
ARC
  5
144
330
1F
100
AcDbEntity
  8
0
  6
Continuous
 62
     7
370
    15
100
AcDbCircle
 10
4.4161135671
 20
6.9380549119
 30
0.0
 40
0.0312500000000005
100
AcDbArc
 50
96.1937819805
 51
177.3617324404
  0
ARC
  5
145
330
1F
100
AcDbEntity
  8
0
  6
Continuous
 62
     7
370
    15
100
AcDbCircle
 10
4.3536798141
 20
6.9409317985
 30
0.0
 40
0.0312500000000019
100
AcDbArc
 50
231.1937819805
 51
357.3617324404
  0
ARC
  5
146
330
1F
100
AcDbEntity
  8
0
  6
Continuous
 62
     7
370
    15
100
AcDbCircle
 10
4.31451179
 20
6.8922274261
 30
0.0
 40
0.0312499999999999
100
AcDbArc
 50
51.1937819805
 51
132.3617324404
  0
ARC
  5
147
330
1F
100
AcDbEntity
  8
0
  6
Continuous
 62
     7
370
    15
100
AcDbCircle
 10
4.2102635584
 20
6.9316658057
 30
0.0
 40
0.0312500000000006
100
AcDbArc
 50
6.1937819805
 51
87.3617324404
  0
ARC
  5
148
330
1F
100
AcDbEntity
  8
0
  6
Continuous
 62
     7
370
    15
100
AcDbCircle
 10
4.213140445
 20
6.9940995588
 30
0.0
 40
0.0312499999999997
100
AcDbArc
 50
141.1937819805
 51
267.3617324404
  0
ARC
  5
149
330
1F
100
AcDbEntity
  8
0
  6
Continuous
 62
     7
370
    15
100
AcDbCircle
 10
4.1644360726
 20
7.0332675829
 30
0.0
 40
0.0312500000000006
100
AcDbArc
 50
321.1937819805
 51
42.3617324404
  0
ARC
  5
14A
330
1F
100
AcDbEntity
  8
0
  6
Continuous
 62
     7
370
    15
100
AcDbCircle
 10
4.2106176688
 20
7.075380647
 30
0.0
 40
0.0312500000000001
100
AcDbArc
 50
96.1937819805
 51
222.3617324404
  0
ARC
  5
14B
330
1F
100
AcDbEntity
  8
0
  6
Continuous
 62
     7
370
    15
100
AcDbCircle
 10
4.2038744522
 20
7.1375158145
 30
0.0
 40
0.0312500000000006
100
AcDbArc
 50
276.1937819805
 51
357.3617324404
  0
ARC
  5
14C
330
1F
100
AcDbEntity
  8
0
  6
Continuous
 62
     7
370
    15
100
AcDbCircle
 10
4.2663082053
 20
7.1346389279
 30
0.0
 40
0.0312500000000005
100
AcDbArc
 50
51.1937819805
 51
177.3617324404
  0
ARC
  5
14D
330
1F
100
AcDbEntity
  8
0
  6
Continuous
 62
     7
370
    15
100
AcDbCircle
 10
4.2723987258
 20
6.9384090223
 30
0.0
 40
0.0312500000000002
100
AcDbArc
 50
186.1937819805
 51
312.3617324404
  0
CIRCLE
  5
14E
330
1F
100
AcDbEntity
  8
0
  6
Continuous
 62
     7
370
    15
100
AcDbCircle
 10
4.3099940097
 20
7.0377853632
 30
0.0
 40
0.0633750000000004
  0
ARC
  5
14F
330
1F
100
AcDbEntity
  8
0
  6
Continuous
 62
     7
370
    15
100
AcDbCircle
 10
4.3475892935
 20
7.1371617041
 30
0.0
 40
0.0312500000000001
100
AcDbArc
 50
6.1937819805
 51
132.3617324404
  0
ARC
  5
150
330
1F
100
AcDbEntity
  8
0
  6
Continuous
 62
     7
370
    15
100
AcDbCircle
 10
4.4068475744
 20
7.0814711676
 30
0.0
 40
0.0312499999999997
100
AcDbArc
 50
321.1937819805
 51
87.3617324404
  0
ARC
  5
151
330
1F
100
AcDbEntity
  8
0
  6
Continuous
 62
     7
370
    15
100
AcDbCircle
 10
4.4093703506
 20
7.0001900793
 30
0.0
 40
0.0312499999999999
100
AcDbArc
 50
276.1937819805
 51
42.3617324404
  0
ARC
  5
152
330
1F
100
AcDbEntity
  8
0
  6
Continuous
 62
     7
370
    15
100
AcDbCircle
 10
4.3099940097
 20
7.0377853632
 30
0.0
 40
0.1374999999999998
100
AcDbArc
 50
159.2777572105
 51
204.2777572105
  0
ARC
  5
153
330
1F
100
AcDbEntity
  8
0
  6
Continuous
 62
     7
370
    15
100
AcDbCircle
 10
4.3099940097
 20
7.0377853632
 30
0.0
 40
0.1375000000000011
100
AcDbArc
 50
69.2777572105
 51
114.2777572105
  0
ARC
  5
154
330
1F
100
AcDbEntity
  8
0
  6
Continuous
 62
     7
370
    15
100
AcDbCircle
 10
4.3099940097
 20
7.0377853632
 30
0.0
 40
0.1375000000000011
100
AcDbArc
 50
114.2777572105
 51
159.2777572105
  0
ARC
  5
155
330
1F
100
AcDbEntity
  8
0
  6
Continuous
 62
     7
370
    15
100
AcDbCircle
 10
4.3099940097
 20
7.0377853632
 30
0.0
 40
0.1374999999999998
100
AcDbArc
 50
339.2777572105
 51
24.2777572105
  0
ARC
  5
156
330
1F
100
AcDbEntity
  8
0
  6
Continuous
 62
     7
370
    15
100
AcDbCircle
 10
4.3099940097
 20
7.0377853632
 30
0.0
 40
0.1374999999999999
100
AcDbArc
 50
294.2777572105
 51
339.2777572105
  0
ARC
  5
157
330
1F
100
AcDbEntity
  8
0
  6
Continuous
 62
     7
370
    15
100
AcDbCircle
 10
4.3099940097
 20
7.0377853632
 30
0.0
 40
0.1374999999999997
100
AcDbArc
 50
204.2777572105
 51
249.2777572105
  0
ARC
  5
158
330
1F
100
AcDbEntity
  8
0
  6
Continuous
 62
     7
370
    15
100
AcDbCircle
 10
4.3099940097
 20
7.0377853632
 30
0.0
 40
0.1374999999999999
100
AcDbArc
 50
249.2777572105
 51
294.2777572105
  0
ARC
  5
159
330
1F
100
AcDbEntity
  8
0
  6
Continuous
 62
     7
370
    15
100
AcDbCircle
 10
4.3099940097
 20
7.0377853632
 30
0.0
 40
0.1375000000000005
100
AcDbArc
 50
24.2777572105
 51
69.2777572105
  0
ARC
  5
15A
330
1F
100
AcDbEntity
  8
0
  6
Continuous
 62
     7
370
    15
100
AcDbCircle
 10
4.3798239554
 20
7.4709913803
 30
0.0
 40
0.0312500000000006
100
AcDbArc
 50
78.0693611201
 51
117.1278855196
  0
ARC
  5
15B
330
1F
100
AcDbEntity
  8
0
  6
Continuous
 62
     7
370
    15
100
AcDbCircle
 10
4.2690072459
 20
7.4590441431
 30
0.0
 40
0.0312499999999998
100
AcDbArc
 50
33.0693611201
 51
72.1278855173
  0
ARC
  5
15C
330
1F
100
AcDbEntity
  8
0
  6
Continuous
 62
     7
370
    15
100
AcDbCircle
 10
4.1822000267
 20
7.5289554175
 30
0.0
 40
0.0312500000000003
100
AcDbArc
 50
348.0693611201
 51
27.1278855178
  0
ARC
  5
15D
330
1F
100
AcDbEntity
  8
0
  6
Continuous
 62
     7
370
    15
100
AcDbCircle
 10
4.3766380815
 20
7.6815357722
 30
0.0
 40
0.0312499999999994
100
AcDbArc
 50
348.0693611201
 51
52.9868684851
  0
ARC
  5
15E
330
1F
100
AcDbEntity
  8
0
  6
Continuous
 62
     7
370
    15
100
AcDbCircle
 10
4.4377879926
 20
7.6686153089
 30
0.0
 40
0.0312500000000002
100
AcDbArc
 50
168.0693611201
 51
207.1278855177
  0
ARC
  5
15F
330
1F
100
AcDbEntity
  8
0
  6
Continuous
 62
     7
370
    15
100
AcDbCircle
 10
4.4497352297
 20
7.5577985994
 30
0.0
 40
0.0312499999999996
100
AcDbArc
 50
123.0693611201
 51
162.1278855178
  0
ARC
  5
160
330
1F
100
AcDbEntity
  8
0
  6
Continuous
 62
     7
370
    15
100
AcDbCircle
 10
4.3509807735
 20
7.7385265832
 30
0.0
 40
0.0312500000000004
100
AcDbArc
 50
213.0693611201
 51
252.1278855265
  0
ARC
  5
161
330
1F
100
AcDbEntity
  8
0
  6
Continuous
 62
     7
370
    15
100
AcDbCircle
 10
4.1702527896
 20
7.639772127
 30
0.0
 40
0.0312500000000003
100
AcDbArc
 50
303.0693611201
 51
342.1278855179
  0
ARC
  5
162
330
1F
100
AcDbEntity
  8
0
  6
Continuous
 62
     7
370
    15
100
AcDbCircle
 10
4.2272436007
 20
7.665429435
 30
0.0
 40
0.03125
100
AcDbArc
 50
78.0693611201
 51
142.9868684825
  0
ARC
  5
163
330
1F
100
AcDbEntity
  8
0
  6
Continuous
 62
     7
370
    15
100
AcDbCircle
 10
4.3213829099
 20
7.4931475127
 30
0.0
 40
0.0312499999999998
100
AcDbArc
 50
213.0693611201
 51
277.9868684908
  0
ARC
  5
164
330
1F
100
AcDbEntity
  8
0
  6
Continuous
 62
     7
370
    15
100
AcDbCircle
 10
4.240164064
 20
7.7265793461
 30
0.0
 40
0.0312500000000008
100
AcDbArc
 50
258.0693611201
 51
297.1278855156
  0
ARC
  5
165
330
1F
100
AcDbEntity
  8
0
  6
Continuous
 62
     7
370
    15
100
AcDbCircle
 10
4.2433499379
 20
7.5160349542
 30
0.0
 40
0.0312500000000006
100
AcDbArc
 50
168.0693611201
 51
232.9868684924
  0
ARC
  5
166
330
1F
100
AcDbEntity
  8
0
  6
Continuous
 62
     7
370
    15
100
AcDbCircle
 10
4.4156318601
 20
7.6101742634
 30
0.0
 40
0.0312500000000003
100
AcDbArc
 50
303.0693611201
 51
7.9868684824
  0
ARC
  5
167
330
1F
100
AcDbEntity
  8
0
  6
Continuous
 62
     7
370
    15
100
AcDbCircle
 10
4.2043561592
 20
7.5873964629
 30
0.0
 40
0.0312500000000003
100
AcDbArc
 50
123.0693611201
 51
187.9868684945
  0
ARC
  5
168
330
1F
100
AcDbEntity
  8
0
  6
Continuous
 62
     7
370
    15
100
AcDbCircle
 10
4.2986051094
 20
7.7044232136
 30
0.0
 40
0.0312500000000005
100
AcDbArc
 50
33.0693611201
 51
97.986868489
  0
ARC
  5
169
330
1F
100
AcDbEntity
  8
0
  6
Continuous
 62
     7
370
    15
100
AcDbCircle
 10
4.3927444187
 20
7.5321412914
 30
0.0
 40
0.0312500000000008
100
AcDbArc
 50
258.0693611201
 51
322.9868684895
  0
CIRCLE
  5
16A
330
1F
100
AcDbEntity
  8
0
  6
Continuous
 62
     7
370
    15
100
AcDbCircle
 10
4.3099940097
 20
7.5987853632
 30
0.0
 40
0.15625
  0
CIRCLE
  5
16B
330
1F
100
AcDbEntity
  8
0
  6
Continuous
 62
     7
370
    15
100
AcDbCircle
 10
4.3099940097
 20
7.0377853632
 30
0.0
 40
0.15625
  0
LINE
  5
16C
330
1F
100
AcDbEntity
  8
0
  6
Continuous
 62
     7
370
    15
100
AcDbLine
 10
4.062994008
 20
6.7512853653
 30
0.0
 11
4.5504940031
 21
6.7512853653
 31
0.0
  0
LINE
  5
16D
330
1F
100
AcDbEntity
  8
0
  6
Continuous
 62
     7
370
    15
100
AcDbLine
 10
4.062994008
 20
6.7512853653
 30
0.0
 11
4.062994008
 21
6.8762853547
 31
0.0
  0
LINE
  5
16E
330
1F
100
AcDbEntity
  8
0
  6
Continuous
 62
     7
370
    15
100
AcDbLine
 10
4.5504940031
 20
6.7512853653
 30
0.0
 11
4.5504940031
 21
6.8762853547
 31
0.0
  0
LINE
  5
16F
330
1F
100
AcDbEntity
  8
0
  6
Continuous
 62
     7
370
    15
100
AcDbLine
 10
4.0004939951
 20
7.8605353579
 30
0.0
 11
4.6194940243
 21
7.8605353579
 31
0.0
  0
LINE
  5
170
330
1F
100
AcDbEntity
  8
0
  6
Continuous
 62
     7
370
    15
100
AcDbLine
 10
4.6194940243
 20
7.8605353579
 30
0.0
 11
4.6194940243
 21
7.8137853479
 31
0.0
  0
LINE
  5
171
330
1F
100
AcDbEntity
  8
0
  6
Continuous
 62
     7
370
    15
100
AcDbLine
 10
4.6194940243
 20
7.8137853479
 30
0.0
 11
4.0004939951
 21
7.8137853479
 31
0.0
  0
LINE
  5
172
330
1F
100
AcDbEntity
  8
0
  6
Continuous
 62
     7
370
    15
100
AcDbLine
 10
4.0004939951
 20
7.8137853479
 30
0.0
 11
4.0004939951
 21
7.8605353579
 31
0.0
  0
LINE
  5
173
330
1F
100
AcDbEntity
  8
0
  6
Continuous
 62
     7
370
    15
100
AcDbLine
 10
4.0004939951
 20
6.8762853547
 30
0.0
 11
4.6194940243
 21
6.8762853547
 31
0.0
  0
LINE
  5
174
330
1F
100
AcDbEntity
  8
0
  6
Continuous
 62
     7
370
    15
100
AcDbLine
 10
4.6194940243
 20
6.8762853547
 30
0.0
 11
4.6194940243
 21
7.8137853479
 31
0.0
  0
LINE
  5
175
330
1F
100
AcDbEntity
  8
0
  6
Continuous
 62
     7
370
    15
100
AcDbLine
 10
4.0004939951
 20
6.8762853547
 30
0.0
 11
4.0004939951
 21
7.8137853479
 31
0.0
  0
LINE
  5
176
330
1F
100
AcDbEntity
  8
0
  6
Continuous
 62
     7
370
    15
100
AcDbLine
 10
4.0000303137
 20
7.3432853632
 30
0.0
 11
4.0000303137
 21
7.8079103525
 31
0.0
  0
LINE
  5
177
330
1F
100
AcDbEntity
  8
0
  6
Continuous
 62
     7
370
    15
100
AcDbLine
 10
4.0000303137
 20
6.8786603739
 30
0.0
 11
4.0000303137
 21
7.3432853632
 31
0.0
  0
LINE
  5
178
330
1F
100
AcDbEntity
  8
0
  6
Continuous
 62
     7
370
    15
100
AcDbLine
 10
4.6199577056
 20
7.3432853632
 30
0.0
 11
4.6199577056
 21
7.8079103525
 31
0.0
  0
LINE
  5
179
330
1F
100
AcDbEntity
  8
0
  6
Continuous
 62
     7
370
    15
100
AcDbLine
 10
4.6199577056
 20
6.8786603739
 30
0.0
 11
4.6199577056
 21
7.3432853632
 31
0.0
  0
LINE
  5
17A
330
1F
100
AcDbEntity
  8
0
  6
Continuous
 62
     8
370
    15
100
AcDbLine
 10
4.713243998
 20
7.8604103626
 30
0.0
 11
4.713243998
 21
8.003035375
 31
0.0
  0
LINE
  5
17B
330
1F
100
AcDbEntity
  8
0
  6
Continuous
 62
     8
370
    15
100
AcDbLine
 10
3.9102439976
 20
8.003035375
 30
0.0
 11
3.9102439976
 21
7.8604103626
 31
0.0
  0
LINE
  5
17C
330
1F
100
AcDbEntity
  8
0
  6
Continuous
 62
     8
370
    15
100
AcDbLine
 10
4.6647440182
 20
7.3432853632
 30
0.0
 11
4.6647440182
 21
6.8261603637
 31
0.0
  0
LINE
  5
17D
330
1F
100
AcDbEntity
  8
0
  6
Continuous
 62
     8
370
    15
100
AcDbLine
 10
4.6647440182
 20
7.8604103626
 30
0.0
 11
4.6647440182
 21
7.3432853632
 31
0.0
  0
LINE
  5
17E
330
1F
100
AcDbEntity
  8
0
  6
Continuous
 62
     8
370
    15
100
AcDbLine
 10
3.9552440011
 20
7.3432853632
 30
0.0
 11
3.9552440011
 21
7.8604103626
 31
0.0
  0
LINE
  5
17F
330
1F
100
AcDbEntity
  8
0
  6
Continuous
 62
     8
370
    15
100
AcDbLine
 10
3.9552440011
 20
6.8261603637
 30
0.0
 11
3.9552440011
 21
7.3432853632
 31
0.0
  0
LINE
  5
180
330
1F
100
AcDbEntity
  8
0
  6
Continuous
 62
     8
370
    15
100
AcDbLine
 10
5.2919940255
 20
7.1922385273
 30
0.0
 11
5.2919940255
 21
7.2381385403
 31
0.0
  0
LINE
  5
181
330
1F
100
AcDbEntity
  8
0
  6
Continuous
 62
     8
370
    15
100
AcDbLine
 10
5.2919940255
 20
7.3106147002
 30
0.0
 11
5.2919940255
 21
7.3465139224
 31
0.0
  0
LINE
  5
182
330
1F
100
AcDbEntity
  8
0
  6
Continuous
 62
     8
370
    15
100
AcDbLine
 10
3.3279939938
 20
7.2443313313
 30
0.0
 11
3.3279939938
 21
7.2068683124
 31
0.0
  0
LINE
  5
183
330
1F
100
AcDbEntity
  8
0
  6
Continuous
 62
     8
370
    15
100
AcDbLine
 10
3.3279939938
 20
7.4723986267
 30
0.0
 11
3.3279939938
 21
7.4455192088
 31
0.0
  0
ARC
  5
184
330
1F
100
AcDbEntity
  8
0
  6
Continuous
 62
     8
370
    15
100
AcDbCircle
 10
5.2452772961
 20
7.5452499306
 30
0.0
 40
0.0316535755542317
100
AcDbArc
 50
37.859845476
 51
153.8149020907
  0
ARC
  5
185
330
1F
100
AcDbEntity
  8
0
  6
Continuous
 62
     8
370
    15
100
AcDbCircle
 10
3.376238248
 20
7.8319957703
 30
0.0
 40
0.0297943248823286
100
AcDbArc
 50
2.9150715246
 51
92.8746318009
  0
ARC
  5
186
330
1F
100
AcDbEntity
  8
0
  6
Continuous
 62
     8
370
    15
100
AcDbCircle
 10
3.3732497651
 20
7.831995768
 30
0.0
 40
0.0297943305689418
100
AcDbArc
 50
87.1252382879
 51
177.08492462
  0
LINE
  5
187
330
1F
100
AcDbEntity
  8
0
  6
Continuous
 62
     8
370
    15
100
AcDbLine
 10
3.6247440191
 20
7.9687770041
 30
0.0
 11
3.6247440191
 21
7.9092853647
 31
0.0
  0
LINE
  5
188
330
1F
100
AcDbEntity
  8
0
  6
Continuous
 62
     8
370
    15
100
AcDbLine
 10
3.6247440191
 20
7.971785396
 30
0.0
 11
3.6247440191
 21
7.9687770041
 31
0.0
  0
LWPOLYLINE
  5
189
330
1F
100
AcDbEntity
  8
0
  6
Continuous
 62
     8
370
    15
100
AcDbPolyline
 90
        3
 70
   128
 43
0.0
 10
3.3496850833
 20
7.438089473
 10
3.3519053709
 20
7.4406928129
 10
3.3578016695
 20
7.4455192088
  0
ENDSEC
  0
SECTION
  2
OBJECTS
  0
DICTIONARY
  5
C
330
0
100
AcDbDictionary
281
     1
  3
ACAD_GROUP
350
D
  3
ACAD_LAYOUT
350
1A
  3
ACAD_MLINESTYLE
350
17
  3
ACAD_PLOTSETTINGS
350
19
  3
ACAD_PLOTSTYLENAME
350
E
  0
DICTIONARY
  5
D
102
{ACAD_REACTORS
330
C
102
}
330
C
100
AcDbDictionary
281
     1
  0
DICTIONARY
  5
1A
102
{ACAD_REACTORS
330
C
102
}
330
C
100
AcDbDictionary
281
     1
  3
Layout1
350
1E
  3
Layout2
350
26
  3
Model
350
22
  0
DICTIONARY
  5
17
102
{ACAD_REACTORS
330
C
102
}
330
C
100
AcDbDictionary
281
     1
  3
Standard
350
18
  0
DICTIONARY
  5
19
102
{ACAD_REACTORS
330
C
102
}
330
C
100
AcDbDictionary
281
     1
  0
ACDBDICTIONARYWDFLT
  5
E
102
{ACAD_REACTORS
330
C
102
}
330
C
100
AcDbDictionary
281
     1
  3
Normal
350
F
100
AcDbDictionaryWithDefault
340
F
  0
LAYOUT
  5
1E
102
{ACAD_REACTORS
330
1A
102
}
330
1A
100
AcDbPlotSettings
  1

  2
none_device
  4

  6

 40
0.0
 41
0.0
 42
0.0
 43
0.0
 44
0.0
 45
0.0
 46
0.0
 47
0.0
 48
0.0
 49
0.0
140
0.0
141
0.0
142
1.0
143
1.0
 70
   688
 72
     0
 73
     0
 74
     5
  7

 75
    16
147
1.0
148
0.0
149
0.0
100
AcDbLayout
  1
Layout1
 70
     1
 71
     1
 10
0.0
 20
0.0
 11
12.0
 21
9.0
 12
0.0
 22
0.0
 32
0.0
 14
1.0000000000E+20
 24
1.0000000000E+20
 34
1.0000000000E+20
 15
-1.0000000000E+20
 25
-1.0000000000E+20
 35
-1.0000000000E+20
146
0.0
 13
0.0
 23
0.0
 33
0.0
 16
1.0
 26
0.0
 36
0.0
 17
0.0
 27
1.0
 37
0.0
 76
     0
330
1B
  0
LAYOUT
  5
26
102
{ACAD_REACTORS
330
1A
102
}
330
1A
100
AcDbPlotSettings
  1

  2
none_device
  4

  6

 40
0.0
 41
0.0
 42
0.0
 43
0.0
 44
0.0
 45
0.0
 46
0.0
 47
0.0
 48
0.0
 49
0.0
140
0.0
141
0.0
142
1.0
143
1.0
 70
   688
 72
     0
 73
     0
 74
     5
  7

 75
    16
147
1.0
148
0.0
149
0.0
100
AcDbLayout
  1
Layout2
 70
     1
 71
     2
 10
0.0
 20
0.0
 11
0.0
 21
0.0
 12
0.0
 22
0.0
 32
0.0
 14
0.0
 24
0.0
 34
0.0
 15
0.0
 25
0.0
 35
0.0
146
0.0
 13
0.0
 23
0.0
 33
0.0
 16
1.0
 26
0.0
 36
0.0
 17
0.0
 27
1.0
 37
0.0
 76
     0
330
23
  0
LAYOUT
  5
22
102
{ACAD_REACTORS
330
1A
102
}
330
1A
100
AcDbPlotSettings
  1

  2
none_device
  4

  6

 40
0.0
 41
0.0
 42
0.0
 43
0.0
 44
0.0
 45
0.0
 46
0.0
 47
0.0
 48
0.0
 49
0.0
140
0.0
141
0.0
142
1.0
143
1.0
 70
  1712
 72
     0
 73
     0
 74
     0
  7

 75
     0
147
1.0
148
0.0
149
0.0
100
AcDbLayout
  1
Model
 70
     1
 71
     0
 10
0.0
 20
0.0
 11
8.5
 21
11.0
 12
0.0
 22
0.0
 32
0.0
 14
0.0
 24
0.0
 34
0.0
 15
8.5
 25
11.0
 35
0.0
146
0.0
 13
0.0
 23
0.0
 33
0.0
 16
1.0
 26
0.0
 36
0.0
 17
0.0
 27
1.0
 37
0.0
 76
     0
330
1F
331
29
  0
MLINESTYLE
  5
18
102
{ACAD_REACTORS
330
17
102
}
330
17
100
AcDbMlineStyle
  2
Standard
 70
     0
  3

 62
   256
 51
90.0
 52
90.0
 71
     2
 49
0.5
 62
   256
  6
BYLAYER
 49
-0.5
 62
   256
  6
BYLAYER
  0
ACDBPLACEHOLDER
  5
F
102
{ACAD_REACTORS
330
E
102
}
330
E
  0
ENDSEC
  0
EOF
