  0
SECTION
  2
HEADER
  9
$ACADVER
  1
AC1015
  9
$ACADMAINTVER
 70
     6
  9
$DWGCODEPAGE
  3
ANSI_1252
  9
$INSBASE
 10
0.0
 20
0.0
 30
0.0
  9
$EXTMIN
 10
0.0
 20
0.0
 30
0.0
  9
$EXTMAX
 10
8.5
 20
11.0
 30
0.0
  9
$LIMMIN
 10
0.0
 20
0.0
  9
$LIMMAX
 10
8.5
 20
11.0
  9
$ORTHOMODE
 70
     0
  9
$REGENMODE
 70
     1
  9
$FILLMODE
 70
     1
  9
$QTEXTMODE
 70
     0
  9
$MIRRTEXT
 70
     1
  9
$LTSCALE
 40
1.0
  9
$ATTMODE
 70
     1
  9
$TEXTSIZE
 40
0.125
  9
$TRACEWID
 40
0.05
  9
$TEXTSTYLE
  7
Standard
  9
$CLAYER
  8
0
  9
$CELTYPE
  6
ByLayer
  9
$CECOLOR
 62
   256
  9
$CELTSCALE
 40
1.0
  9
$DISPSILH
 70
     0
  9
$DIMSCALE
 40
1.0
  9
$DIMASZ
 40
0.13
  9
$DIMEXO
 40
0.05
  9
$DIMDLI
 40
0.38
  9
$DIMRND
 40
0.0
  9
$DIMDLE
 40
0.0
  9
$DIMEXE
 40
0.125
  9
$DIMTP
 40
0.0
  9
$DIMTM
 40
0.0
  9
$DIMTXT
 40
0.1527777778
  9
$DIMCEN
 40
0.09
  9
$DIMTSZ
 40
0.0
  9
$DIMTOL
 70
     0
  9
$DIMLIM
 70
     0
  9
$DIMTIH
 70
     1
  9
$DIMTOH
 70
     1
  9
$DIMSE1
 70
     0
  9
$DIMSE2
 70
     0
  9
$DIMTAD
 70
     1
  9
$DIMZIN
 70
     0
  9
$DIMBLK
  1

  9
$DIMASO
 70
     1
  9
$DIMSHO
 70
     1
  9
$DIMPOST
  1

  9
$DIMAPOST
  1

  9
$DIMALT
 70
     0
  9
$DIMALTD
 70
     2
  9
$DIMALTF
 40
25.4
  9
$DIMLFAC
 40
8.0
  9
$DIMTOFL
 70
     0
  9
$DIMTVP
 40
0.0
  9
$DIMTIX
 70
     0
  9
$DIMSOXD
 70
     0
  9
$DIMSAH
 70
     0
  9
$DIMBLK1
  1

  9
$DIMBLK2
  1

  9
$DIMSTYLE
  2
Standard
  9
$DIMCLRD
 70
     0
  9
$DIMCLRE
 70
     0
  9
$DIMCLRT
 70
     0
  9
$DIMTFAC
 40
1.0
  9
$DIMGAP
 40
0.06
  9
$DIMJUST
 70
     0
  9
$DIMSD1
 70
     0
  9
$DIMSD2
 70
     0
  9
$DIMTOLJ
 70
     1
  9
$DIMTZIN
 70
     0
  9
$DIMALTZ
 70
     0
  9
$DIMALTTZ
 70
     0
  9
$DIMUPT
 70
     0
  9
$DIMDEC
 70
     2
  9
$DIMTDEC
 70
     2
  9
$DIMALTU
 70
     2
  9
$DIMALTTD
 70
     2
  9
$DIMTXSTY
  7
Standard
  9
$DIMAUNIT
 70
     0
  9
$DIMADEC
 70
     2
  9
$DIMALTRND
 40
0.0
  9
$DIMAZIN
 70
     0
  9
$DIMDSEP
 70
    46
  9
$DIMATFIT
 70
     3
  9
$DIMFRAC
 70
     0
  9
$DIMLDRBLK
  1

  9
$DIMLUNIT
 70
     2
  9
$DIMLWD
 70
    -2
  9
$DIMLWE
 70
    -2
  9
$DIMTMOVE
 70
     0
  9
$LUNITS
 70
     2
  9
$LUPREC
 70
     3
  9
$SKETCHINC
 40
0.1
  9
$FILLETRAD
 40
0.5
  9
$AUNITS
 70
     0
  9
$AUPREC
 70
     2
  9
$MENU
  1
.
  9
$ELEVATION
 40
0.0
  9
$PELEVATION
 40
0.0
  9
$THICKNESS
 40
0.0
  9
$LIMCHECK
 70
     0
  9
$CHAMFERA
 40
0.5
  9
$CHAMFERB
 40
0.5
  9
$CHAMFERC
 40
1.0
  9
$CHAMFERD
 40
0.0
  9
$SKPOLY
 70
     0
  9
$TDCREATE
 40
2456051.452849016
  9
$TDUCREATE
 40
2456051.702849016
  9
$TDUPDATE
 40
2456051.452849329
  9
$TDUUPDATE
 40
2456051.702849329
  9
$TDINDWG
 40
0.0000000116
  9
$TDUSRTIMER
 40
0.0000000116
  9
$USRTIMER
 70
     1
  9
$ANGBASE
 50
0.0
  9
$ANGDIR
 70
     0
  9
$PDMODE
 70
     0
  9
$PDSIZE
 40
-1.0
  9
$PLINEWID
 40
0.0
  9
$SPLFRAME
 70
     0
  9
$SPLINETYPE
 70
     6
  9
$SPLINESEGS
 70
     8
  9
$HANDSEED
  5
177
  9
$SURFTAB1
 70
     6
  9
$SURFTAB2
 70
     6
  9
$SURFTYPE
 70
     6
  9
$SURFU
 70
     6
  9
$SURFV
 70
     6
  9
$UCSBASE
  2

  9
$UCSNAME
  2

  9
$UCSORG
 10
0.0
 20
0.0
 30
0.0
  9
$UCSXDIR
 10
1.0
 20
0.0
 30
0.0
  9
$UCSYDIR
 10
0.0
 20
1.0
 30
0.0
  9
$UCSORTHOREF
  2

  9
$UCSORTHOVIEW
 70
     0
  9
$UCSORGTOP
 10
0.0
 20
0.0
 30
0.0
  9
$UCSORGBOTTOM
 10
0.0
 20
0.0
 30
0.0
  9
$UCSORGLEFT
 10
0.0
 20
0.0
 30
0.0
  9
$UCSORGRIGHT
 10
0.0
 20
0.0
 30
0.0
  9
$UCSORGFRONT
 10
0.0
 20
0.0
 30
0.0
  9
$UCSORGBACK
 10
0.0
 20
0.0
 30
0.0
  9
$PUCSBASE
  2

  9
$PUCSNAME
  2

  9
$PUCSORG
 10
0.0
 20
0.0
 30
0.0
  9
$PUCSXDIR
 10
1.0
 20
0.0
 30
0.0
  9
$PUCSYDIR
 10
0.0
 20
1.0
 30
0.0
  9
$PUCSORTHOREF
  2

  9
$PUCSORTHOVIEW
 70
     0
  9
$PUCSORGTOP
 10
0.0
 20
0.0
 30
0.0
  9
$PUCSORGBOTTOM
 10
0.0
 20
0.0
 30
0.0
  9
$PUCSORGLEFT
 10
0.0
 20
0.0
 30
0.0
  9
$PUCSORGRIGHT
 10
0.0
 20
0.0
 30
0.0
  9
$PUCSORGFRONT
 10
0.0
 20
0.0
 30
0.0
  9
$PUCSORGBACK
 10
0.0
 20
0.0
 30
0.0
  9
$USERI1
 70
     0
  9
$USERI2
 70
     0
  9
$USERI3
 70
     0
  9
$USERI4
 70
     0
  9
$USERI5
 70
     0
  9
$USERR1
 40
0.0
  9
$USERR2
 40
0.0
  9
$USERR3
 40
0.0
  9
$USERR4
 40
0.0
  9
$USERR5
 40
0.0
  9
$WORLDVIEW
 70
     1
  9
$SHADEDGE
 70
     3
  9
$SHADEDIF
 70
    70
  9
$TILEMODE
 70
     1
  9
$MAXACTVP
 70
    64
  9
$PINSBASE
 10
0.0
 20
0.0
 30
0.0
  9
$PLIMCHECK
 70
     0
  9
$PEXTMIN
 10
1.0000000000E+20
 20
1.0000000000E+20
 30
1.0000000000E+20
  9
$PEXTMAX
 10
-1.0000000000E+20
 20
-1.0000000000E+20
 30
-1.0000000000E+20
  9
$PLIMMIN
 10
0.0
 20
0.0
  9
$PLIMMAX
 10
12.0
 20
9.0
  9
$UNITMODE
 70
     0
  9
$VISRETAIN
 70
     1
  9
$PLINEGEN
 70
     0
  9
$PSLTSCALE
 70
     1
  9
$TREEDEPTH
 70
  3020
  9
$CMLSTYLE
  2
Standard
  9
$CMLJUST
 70
     0
  9
$CMLSCALE
 40
1.0
  9
$PROXYGRAPHICS
 70
     1
  9
$MEASUREMENT
 70
     0
  9
$CELWEIGHT
370
    -1
  9
$ENDCAPS
280
     0
  9
$JOINSTYLE
280
     0
  9
$LWDISPLAY
290
     1
  9
$INSUNITS
 70
     1
  9
$HYPERLINKBASE
  1

  9
$STYLESHEET
  1

  9
$XEDIT
290
     1
  9
$CEPSNTYPE
380
     0
  9
$PSTYLEMODE
290
     1
  9
$FINGERPRINTGUID
  2
{1A2FB34E-1BFA-44E4-AF7A-5828EEC4FE06}
  9
$VERSIONGUID
  2
{FAEB1C32-E019-11D5-929B-00C0DF256EC4}
  9
$EXTNAMES
290
     1
  9
$PSVPSCALE
 40
0.0
  9
$OLESTARTUP
290
     0
  0
ENDSEC
  0
SECTION
  2
CLASSES
  0
CLASS
  1
ACDBDICTIONARYWDFLT
  2
AcDbDictionaryWithDefault
  3
ObjectDBX Classes
 90
        0
280
     0
281
     0
  0
CLASS
  1
VISUALSTYLE
  2
AcDbVisualStyle
  3
ObjectDBX Classes
 90
     4095
280
     0
281
     0
  0
CLASS
  1
MATERIAL
  2
AcDbMaterial
  3
ObjectDBX Classes
 90
     1153
280
     0
281
     0
  0
CLASS
  1
ACDBPLACEHOLDER
  2
AcDbPlaceHolder
  3
ObjectDBX Classes
 90
        0
280
     0
281
     0
  0
CLASS
  1
LAYOUT
  2
AcDbLayout
  3
ObjectDBX Classes
 90
        0
280
     0
281
     0
  0
ENDSEC
  0
SECTION
  2
TABLES
  0
TABLE
  2
VPORT
  5
8
330
0
100
AcDbSymbolTable
 70
     1
  0
VPORT
  5
29
330
8
100
AcDbSymbolTableRecord
100
AcDbViewportTableRecord
  2
*Active
 70
     0
 10
0.0
 20
0.0
 11
1.0
 21
1.0
 12
4.25
 22
5.5
 13
0.0
 23
0.0
 14
0.5
 24
0.5
 15
0.5
 25
0.5
 16
0.0
 26
0.0
 36
1.0
 17
0.0
 27
0.0
 37
0.0
 40
11.0
 41
0.7727272727
 42
50.0
 43
0.0
 44
0.0
 50
0.0
 51
0.0
 71
     0
 72
  2000
 73
     1
 74
     3
 75
     0
 76
     0
 77
     0
 78
     0
281
     0
 65
     1
110
0.0
120
0.0
130
0.0
111
1.0
121
0.0
131
0.0
112
0.0
122
1.0
132
0.0
 79
     0
146
0.0
  0
ENDTAB
  0
TABLE
  2
LTYPE
  5
5
330
0
100
AcDbSymbolTable
 70
     6
  0
LTYPE
  5
14
330
5
100
AcDbSymbolTableRecord
100
AcDbLinetypeTableRecord
  2
ByBlock
 70
     0
  3

 72
    65
 73
     0
 40
0.0
  0
LTYPE
  5
15
330
5
100
AcDbSymbolTableRecord
100
AcDbLinetypeTableRecord
  2
ByLayer
 70
     0
  3

 72
    65
 73
     0
 40
0.0
  0
LTYPE
  5
16
330
5
100
AcDbSymbolTableRecord
100
AcDbLinetypeTableRecord
  2
Continuous
 70
     0
  3
Solid line
 72
    65
 73
     0
 40
0.0
  0
LTYPE
  5
3F
330
5
100
AcDbSymbolTableRecord
100
AcDbLinetypeTableRecord
  2
HIDDEN
 70
     0
  3
Hidden __ __ __ __ __ __ __ __ __ __ __ __ __ __
 72
    65
 73
     2
 40
0.075
 49
0.05
 74
     0
 49
-0.025
 74
     0
  0
LTYPE
  5
40
330
5
100
AcDbSymbolTableRecord
100
AcDbLinetypeTableRecord
  2
PHANTOM
 70
     0
  3
Phantom ______  __  __  ______  __  __  ______
 72
    65
 73
     6
 40
0.5
 49
0.25
 74
     0
 49
-0.05
 74
     0
 49
0.05
 74
     0
 49
-0.05
 74
     0
 49
0.05
 74
     0
 49
-0.05
 74
     0
  0
LTYPE
  5
41
330
5
100
AcDbSymbolTableRecord
100
AcDbLinetypeTableRecord
  2
CENTER
 70
     0
  3
Center ____ _ ____ _ ____ _ ____ _ ____ _ ____
 72
    65
 73
     4
 40
0.4
 49
0.25
 74
     0
 49
-0.05
 74
     0
 49
0.05
 74
     0
 49
-0.05
 74
     0
  0
LTYPE
  5
42
330
5
100
AcDbSymbolTableRecord
100
AcDbLinetypeTableRecord
  2
CENTERX2
 70
     0
  3
Center (2x) ________  __  ________  __  _____
 72
    65
 73
     4
 40
0.8
 49
0.5
 74
     0
 49
-0.1
 74
     0
 49
0.1
 74
     0
 49
-0.1
 74
     0
  0
LTYPE
  5
43
330
5
100
AcDbSymbolTableRecord
100
AcDbLinetypeTableRecord
  2
DOT2
 70
     0
  3
Dot (.5x) ........................................
 72
    65
 73
     2
 40
0.025
 49
0.0
 74
     0
 49
-0.025
 74
     0
  0
ENDTAB
  0
TABLE
  2
LAYER
  5
2
330
0
100
AcDbSymbolTable
 70
     1
  0
LAYER
  5
10
330
2
100
AcDbSymbolTableRecord
100
AcDbLayerTableRecord
  2
0
 70
     0
 62
     7
  6
Continuous
370
    -3
390
F
  0
ENDTAB
  0
TABLE
  2
STYLE
  5
3
330
0
100
AcDbSymbolTable
 70
     1
  0
STYLE
  5
11
330
3
100
AcDbSymbolTableRecord
100
AcDbTextStyleTableRecord
  2
Standard
 70
     0
 40
0.0
 41
1.0
 50
0.0
 71
     0
 42
0.125
  3
txt
  4

  0
ENDTAB
  0
TABLE
  2
VIEW
  5
6
330
0
100
AcDbSymbolTable
 70
     0
  0
ENDTAB
  0
TABLE
  2
UCS
  5
7
330
0
100
AcDbSymbolTable
 70
     0
  0
ENDTAB
  0
TABLE
  2
APPID
  5
9
330
0
100
AcDbSymbolTable
 70
     1
  0
APPID
  5
12
330
9
100
AcDbSymbolTableRecord
100
AcDbRegAppTableRecord
  2
ACAD
 70
     0
  0
ENDTAB
  0
TABLE
  2
DIMSTYLE
  5
A
330
0
100
AcDbSymbolTable
 70
     1
100
AcDbDimStyleTable
  0
DIMSTYLE
105
27
330
A
100
AcDbSymbolTableRecord
100
AcDbDimStyleTableRecord
  2
Standard
 70
     0
178
     0
340
11
  0
ENDTAB
  0
TABLE
  2
BLOCK_RECORD
  5
1
330
0
100
AcDbSymbolTable
 70
     1
  0
BLOCK_RECORD
  5
1F
330
1
100
AcDbSymbolTableRecord
100
AcDbBlockTableRecord
  2
*Model_Space
340
22
  0
BLOCK_RECORD
  5
1B
330
1
100
AcDbSymbolTableRecord
100
AcDbBlockTableRecord
  2
*Paper_Space
340
1E
  0
BLOCK_RECORD
  5
23
330
1
100
AcDbSymbolTableRecord
100
AcDbBlockTableRecord
  2
*Paper_Space0
340
26
  0
ENDTAB
  0
ENDSEC
  0
SECTION
  2
BLOCKS
  0
BLOCK
  5
20
330
1F
100
AcDbEntity
  8
0
100
AcDbBlockBegin
  2
*Model_Space
 70
     0
 10
0.0
 20
0.0
 30
0.0
  3
*Model_Space
  1

  0
ENDBLK
  5
21
330
1F
100
AcDbEntity
  8
0
100
AcDbBlockEnd
  0
BLOCK
  5
1C
330
1B
100
AcDbEntity
 67
     1
  8
0
100
AcDbBlockBegin
  2
*Paper_Space
 70
     0
 10
0.0
 20
0.0
 30
0.0
  3
*Paper_Space
  1

  0
ENDBLK
  5
1D
330
1B
100
AcDbEntity
 67
     1
  8
0
100
AcDbBlockEnd
  0
BLOCK
  5
24
330
23
100
AcDbEntity
  8
0
100
AcDbBlockBegin
  2
*Paper_Space0
 70
     0
 10
0.0
 20
0.0
 30
0.0
  3
*Paper_Space0
  1

  0
ENDBLK
  5
25
330
23
100
AcDbEntity
  8
0
100
AcDbBlockEnd
  0
ENDSEC
  0
SECTION
  2
ENTITIES
  0
LINE
  5
44
330
1F
100
AcDbEntity
  8
0
  6
Continuous
 62
     7
370
    15
100
AcDbLine
 10
3.7626205742
 20
7.8038555626
 30
0.0
 11
3.7626205742
 21
7.8008555673
 31
0.0
  0
SPLINE
  5
45
330
1F
100
AcDbEntity
  8
0
  6
Continuous
 62
     7
370
    15
100
AcDbSpline
210
0.0
220
0.0
230
1.0
 70
     8
 71
     3
 72
    10
 73
     6
 74
     0
 42
0.00000001
 43
0.00000001
 12
1.0
 22
0.0
 32
0.0
 13
1.0
 23
0.0
 33
0.0
 40
0.0
 40
0.0
 40
0.0
 40
0.0
 40
0.1715779818528884
 40
0.7389651528502721
 40
1.0
 40
1.0
 40
1.0
 40
1.0
 10
3.428713913231837
 20
8.176277884506865
 30
0.0
 10
3.429580728462115
 20
8.176460741097667
 30
0.0
 10
3.433313994480386
 20
8.177248281824706
 30
0.0
 10
3.439090292529334
 20
8.17826439262629
 30
0.0
 10
3.444344311425522
 20
8.179036178320148
 30
0.0
 10
3.44599984687659
 20
8.179279367125147
 30
0.0
  0
LINE
  5
46
330
1F
100
AcDbEntity
  8
0
  6
Continuous
 62
     7
370
    15
100
AcDbLine
 10
3.3834998522
 20
8.3601277348
 30
0.0
 11
3.3834998522
 21
8.4299287485
 31
0.0
  0
LINE
  5
47
330
1F
100
AcDbEntity
  8
0
  6
Continuous
 62
     7
370
    15
100
AcDbLine
 10
3.3522498366
 20
8.4299287485
 30
0.0
 11
3.3522498366
 21
8.3601277348
 31
0.0
  0
LINE
  5
48
330
1F
100
AcDbEntity
  8
0
  6
Continuous
 62
     7
370
    15
100
AcDbLine
 10
3.3522498366
 20
8.2881610799
 30
0.0
 11
3.3522498366
 21
8.2851764707
 31
0.0
  0
SPLINE
  5
49
330
1F
100
AcDbEntity
  8
0
  6
Continuous
 62
     7
370
    15
100
AcDbSpline
210
0.0
220
0.0
230
1.0
 70
     8
 71
     3
 72
    18
 73
    14
 74
     0
 42
0.00000001
 43
0.00000001
 12
1.0
 22
0.0
 32
0.0
 13
1.0
 23
0.0
 33
0.0
 40
0.0
 40
0.0
 40
0.0
 40
0.0
 40
0.0498810445090272
 40
0.1622316717701666
 40
0.2600884157461334
 40
0.3639035128285876
 40
0.4636700004396375
 40
0.560977983967189
 40
0.6570698693513269
 40
0.7526862130737947
 40
0.8482239323868574
 40
0.9438591093235243
 40
0.9999999999999999
 40
0.9999999999999999
 40
0.9999999999999999
 40
0.9999999999999999
 10
3.383499852215195
 20
8.429928748477106
 30
0.0
 10
3.383527154610272
 20
8.430993953183057
 30
0.0
 10
3.383615952133263
 20
8.434458394273355
 30
0.0
 10
3.384650685381072
 20
8.440062848210571
 30
0.0
 10
3.387126131833853
 20
8.447024378186107
 30
0.0
 10
3.390802014446756
 20
8.453904127234775
 30
0.0
 10
3.395845025961648
 20
8.460913041795619
 30
0.0
 10
3.402090459184901
 20
8.467787635823308
 30
0.0
 10
3.409532088017403
 20
8.47451474388967
 30
0.0
 10
3.41814542176797
 20
8.481070513932472
 30
0.0
 10
3.427962787167201
 20
8.487389299431893
 30
0.0
 10
3.43724048732475
 20
8.4926523921011
 30
0.0
 10
3.443634680268532
 20
8.4956467571231
 30
0.0
 10
3.44599984687659
 20
8.496754351502037
 30
0.0
  0
SPLINE
  5
4A
330
1F
100
AcDbEntity
  8
0
  6
Continuous
 62
     7
370
    15
100
AcDbSpline
210
0.0
220
0.0
230
1.0
 70
     8
 71
     3
 72
    20
 73
    16
 74
     0
 42
0.00000001
 43
0.00000001
 12
1.0
 22
0.0
 32
0.0
 13
1.0
 23
0.0
 33
0.0
 40
0.0
 40
0.0
 40
0.0
 40
0.0
 40
0.0608053905309548
 40
0.1475694624733936
 40
0.2345842707529552
 40
0.3218250252810382
 40
0.4092097652387179
 40
0.4964813542282858
 40
0.5832821781186289
 40
0.669129936433447
 40
0.7535153360973215
 40
0.8360898417364191
 40
0.9168404254869575
 40
0.9911962624812312
 40
1.0
 40
1.0
 40
1.0
 40
1.0
 10
3.44599984687659
 20
8.530902100357661
 30
0.0
 10
3.44257744228076
 20
8.529488498556463
 30
0.0
 10
3.434271560151509
 20
8.526057808347376
 30
0.0
 10
3.422137873773195
 20
8.519994722837355
 30
0.0
 10
3.409522086434997
 20
8.512814836929016
 30
0.0
 10
3.397980598118136
 20
8.505105035820973
 30
0.0
 10
3.38754941415332
 20
8.496910049170658
 30
0.0
 10
3.3783228907781
 20
8.488252510154602
 30
0.0
 10
3.370384223935749
 20
8.479180111945835
 30
0.0
 10
3.363814344962983
 20
8.469757910152396
 30
0.0
 10
3.358676372794226
 20
8.460073455425164
 30
0.0
 10
3.355001619628188
 20
8.45022789968881
 30
0.0
 10
3.352841792152214
 20
8.440524434782718
 30
0.0
 10
3.352269320134607
 20
8.433738002803226
 30
0.0
 10
3.352251701733794
 20
8.430293412107508
 30
0.0
 10
3.352249836551376
 20
8.429928748477106
 30
0.0
  0
LINE
  5
4B
330
1F
100
AcDbEntity
  8
0
  6
Continuous
 62
     7
370
    15
100
AcDbLine
 10
4.5453748501
 20
8.0987641908
 30
0.0
 11
4.5453748501
 21
8.0657804668
 31
0.0
  0
LINE
  5
4C
330
1F
100
AcDbEntity
  8
0
  6
Continuous
 62
     7
370
    15
100
AcDbLine
 10
4.5766248658
 20
8.0657804668
 30
0.0
 11
4.5766248658
 21
8.093389772
 31
0.0
  0
SPLINE
  5
4D
330
1F
100
AcDbEntity
  8
0
  6
Continuous
 62
     7
370
    15
100
AcDbSpline
210
0.0
220
0.0
230
1.0
 70
     8
 71
     3
 72
    16
 73
    12
 74
     0
 42
0.00000001
 43
0.00000001
 12
1.0
 22
0.0
 32
0.0
 13
1.0
 23
0.0
 33
0.0
 40
0.0
 40
0.0
 40
0.0
 40
0.0
 40
0.0631238749766407
 40
0.1959490344580183
 40
0.3143947271292634
 40
0.4269539367713247
 40
0.5463339304932642
 40
0.6631296059920656
 40
0.779533852918665
 40
0.8963144421988986
 40
1.0
 40
1.0
 40
1.0
 40
1.0
 10
4.545374850136072
 20
8.065780466815797
 30
0.0
 10
4.545357132838584
 20
8.06526787663008
 30
0.0
 10
4.545302134831293
 20
8.063676694973367
 30
0.0
 10
4.544665492161951
 20
8.060963929045297
 30
0.0
 10
4.542991392533958
 20
8.057279698886141
 30
0.0
 10
4.540265574560635
 20
8.05324644710836
 30
0.0
 10
4.536312250433613
 20
8.048861408977334
 30
0.0
 10
4.530998561149649
 20
8.044201023636607
 30
0.0
 10
4.524417242069903
 20
8.039489369919838
 30
0.0
 10
4.51700107812458
 20
8.034955385681695
 30
0.0
 10
4.511219126562536
 20
8.032075599540514
 30
0.0
 10
4.508499866119035
 20
8.03072123182307
 30
0.0
  0
SPLINE
  5
4E
330
1F
100
AcDbEntity
  8
0
  6
Continuous
 62
     7
370
    15
100
AcDbSpline
210
0.0
220
0.0
230
1.0
 70
     8
 71
     3
 72
    18
 73
    14
 74
     0
 42
0.00000001
 43
0.00000001
 12
1.0
 22
0.0
 32
0.0
 13
1.0
 23
0.0
 33
0.0
 40
0.0
 40
0.0
 40
0.0
 40
0.0
 40
0.079288080504032
 40
0.1855315444268117
 40
0.2925270115642134
 40
0.4002502301610588
 40
0.5083336172108777
 40
0.6154352306631562
 40
0.7089137468122904
 40
0.7980105611519219
 40
0.8929287688960046
 40
0.9763160518476305
 40
1.0
 40
1.0
 40
1.0
 40
1.0
 10
4.508499866119035
 20
7.996593301071838
 30
0.0
 10
4.51169023553588
 20
7.997907137331195
 30
0.0
 10
4.519155596803761
 20
8.000981471692334
 30
0.0
 10
4.529686229109456
 20
8.00627732860813
 30
0.0
 10
4.540249324501098
 20
8.012431658966143
 30
0.0
 10
4.549669073494621
 20
8.019052464822652
 30
0.0
 10
4.557888842209332
 20
8.026136243596724
 30
0.0
 10
4.564534115714082
 20
8.033416445994797
 30
0.0
 10
4.569621623346509
 20
8.040756793959615
 30
0.0
 10
4.573380124280291
 20
8.048257816156537
 30
0.0
 10
4.575756768057667
 20
8.055908044510044
 30
0.0
 10
4.576567420042171
 20
8.061890338256458
 30
0.0
 10
4.576614460534454
 20
8.06507584001914
 30
0.0
 10
4.576624865799892
 20
8.065780466815797
 30
0.0
  0
LINE
  5
4F
330
1F
100
AcDbEntity
  8
0
  6
Continuous
 62
     7
370
    15
100
AcDbLine
 10
4.6097498831
 20
8.1367968106
 30
0.0
 11
4.6097498831
 21
8.1794467577
 31
0.0
  0
LINE
  5
50
330
1F
100
AcDbEntity
  8
0
  6
Continuous
 62
     7
370
    15
100
AcDbLine
 10
4.5122498695
 20
8.1460914511
 30
0.0
 11
4.5122498695
 21
8.1367968106
 31
0.0
  0
LINE
  5
51
330
1F
100
AcDbEntity
  8
0
  6
Continuous
 62
     7
370
    15
100
AcDbLine
 10
3.3191248925
 20
8.3192023501
 30
0.0
 11
3.3191248925
 21
8.2613014344
 31
0.0
  0
LINE
  5
52
330
1F
100
AcDbEntity
  8
0
  6
Continuous
 62
     7
370
    15
100
AcDbLine
 10
3.4166248696
 20
8.2996838272
 30
0.0
 11
3.4166248696
 21
8.3192023501
 31
0.0
  0
ARC
  5
53
330
1F
100
AcDbEntity
  8
0
  6
Continuous
 62
     7
370
    15
100
AcDbCircle
 10
4.5843748565
 20
8.2130229042
 30
0.0
 40
0.0235000000000003
100
AcDbArc
 50
0.0
 51
90.0
  0
LINE
  5
54
330
1F
100
AcDbEntity
  8
0
  6
Continuous
 62
     7
370
    15
100
AcDbLine
 10
4.5843748629
 20
8.2365229052
 30
0.0
 11
4.5084998661
 21
8.2365229052
 31
0.0
  0
ARC
  5
55
330
1F
100
AcDbEntity
  8
0
  6
Continuous
 62
     7
370
    15
100
AcDbCircle
 10
3.3701248565
 20
8.2181313474
 30
0.0
 40
0.0235000000000003
100
AcDbArc
 50
180.0
 51
270.0
  0
LINE
  5
56
330
1F
100
AcDbEntity
  8
0
  6
Continuous
 62
     7
370
    15
100
AcDbLine
 10
3.3701248501
 20
8.1946313467
 30
0.0
 11
3.4459998469
 21
8.1946313467
 31
0.0
  0
LINE
  5
57
330
1F
100
AcDbEntity
  8
0
  6
Continuous
 62
     7
370
    15
100
AcDbLine
 10
4.6309998777
 20
8.3176161043
 30
0.0
 11
4.6309998777
 21
8.3182275414
 31
0.0
  0
LINE
  5
58
330
1F
100
AcDbEntity
  8
0
  6
Continuous
 62
     7
370
    15
100
AcDbLine
 10
3.3234998353
 20
8.1418838118
 30
0.0
 11
3.3234998353
 21
8.1215040906
 31
0.0
  0
LINE
  5
59
330
1F
100
AcDbEntity
  8
0
  6
Continuous
 62
     7
370
    15
100
AcDbLine
 10
3.356999875
 20
8.0634025326
 30
0.0
 11
3.4459998469
 21
8.0634025326
 31
0.0
  0
ARC
  5
5A
330
1F
100
AcDbEntity
  8
0
  6
Continuous
 62
     7
370
    15
100
AcDbCircle
 10
3.3569998565
 20
8.0869025363
 30
0.0
 40
0.0235000000000003
100
AcDbArc
 50
180.0
 51
270.0
  0
LINE
  5
5B
330
1F
100
AcDbEntity
  8
0
  6
Continuous
 62
     7
370
    15
100
AcDbLine
 10
3.9459998569
 20
8.4721680772
 30
0.0
 11
3.9459998569
 21
8.425293072
 31
0.0
  0
LINE
  5
5C
330
1F
100
AcDbEntity
  8
0
  6
Continuous
 62
     7
370
    15
100
AcDbLine
 10
4.0084998561
 20
8.425293072
 30
0.0
 11
4.0084998561
 21
8.4721680772
 31
0.0
  0
ARC
  5
5D
330
1F
100
AcDbEntity
  8
0
  6
Continuous
 62
     7
370
    15
100
AcDbCircle
 10
4.4616248565
 20
8.6281055784
 30
0.0
 40
0.046875
100
AcDbArc
 50
0.0
 51
90.0
  0
ARC
  5
5E
330
1F
100
AcDbEntity
  8
0
  6
Continuous
 62
     7
370
    15
100
AcDbCircle
 10
4.4616248565
 20
7.8038555784
 30
0.0
 40
0.046875
100
AcDbArc
 50
270.0
 51
0.0
  0
LINE
  5
5F
330
1F
100
AcDbEntity
  8
0
  6
Continuous
 62
     7
370
    15
100
AcDbLine
 10
4.461624861
 20
8.6749805626
 30
0.0
 11
4.3091248593
 21
8.6749805626
 31
0.0
  0
LINE
  5
60
330
1F
100
AcDbEntity
  8
0
  6
Continuous
 62
     7
370
    15
100
AcDbLine
 10
4.3091248593
 20
7.7569805941
 30
0.0
 11
4.461624861
 21
7.7569805941
 31
0.0
  0
ARC
  5
61
330
1F
100
AcDbEntity
  8
0
  6
Continuous
 62
     7
370
    15
100
AcDbCircle
 10
4.3091248565
 20
7.7882305784
 30
0.0
 40
0.0312500000000009
100
AcDbArc
 50
180.0
 51
270.0
  0
ARC
  5
62
330
1F
100
AcDbEntity
  8
0
  6
Continuous
 62
     7
370
    15
100
AcDbCircle
 10
4.3091248565
 20
8.6437305784
 30
0.0
 40
0.0312500000000009
100
AcDbArc
 50
90.0
 51
180.0
  0
LINE
  5
63
330
1F
100
AcDbEntity
  8
0
  6
Continuous
 62
     7
370
    15
100
AcDbLine
 10
3.492874852
 20
7.7569805941
 30
0.0
 11
3.6453748537
 21
7.7569805941
 31
0.0
  0
LINE
  5
64
330
1F
100
AcDbEntity
  8
0
  6
Continuous
 62
     7
370
    15
100
AcDbLine
 10
3.6453748537
 20
8.6749805626
 30
0.0
 11
3.492874852
 21
8.6749805626
 31
0.0
  0
ARC
  5
65
330
1F
100
AcDbEntity
  8
0
  6
Continuous
 62
     7
370
    15
100
AcDbCircle
 10
3.6453748565
 20
8.6437305784
 30
0.0
 40
0.03125
100
AcDbArc
 50
0.0
 51
90.0
  0
ARC
  5
66
330
1F
100
AcDbEntity
  8
0
  6
Continuous
 62
     7
370
    15
100
AcDbCircle
 10
3.6453748565
 20
7.7882305784
 30
0.0
 40
0.03125
100
AcDbArc
 50
270.0
 51
0.0
  0
ARC
  5
67
330
1F
100
AcDbEntity
  8
0
  6
Continuous
 62
     7
370
    15
100
AcDbCircle
 10
3.4928748565
 20
7.8038555784
 30
0.0
 40
0.046875
100
AcDbArc
 50
180.0
 51
270.0
  0
ARC
  5
68
330
1F
100
AcDbEntity
  8
0
  6
Continuous
 62
     7
370
    15
100
AcDbCircle
 10
3.4928748565
 20
8.6281055784
 30
0.0
 40
0.046875
100
AcDbArc
 50
90.0
 51
180.0
  0
LINE
  5
69
330
1F
100
AcDbEntity
  8
0
  6
Continuous
 62
     7
370
    15
100
AcDbLine
 10
3.6966248566
 20
8.6281055941
 30
0.0
 11
3.6841248577
 21
8.6281055941
 31
0.0
  0
LINE
  5
6A
330
1F
100
AcDbEntity
  8
0
  6
Continuous
 62
     7
370
    15
100
AcDbLine
 10
3.6841248577
 20
7.8038555626
 30
0.0
 11
3.6966248566
 21
7.8038555626
 31
0.0
  0
LINE
  5
6B
330
1F
100
AcDbEntity
  8
0
  6
Continuous
 62
     7
370
    15
100
AcDbLine
 10
4.2741248586
 20
7.8038555626
 30
0.0
 11
4.277874862
 21
7.8076055659
 31
0.0
  0
LINE
  5
6C
330
1F
100
AcDbEntity
  8
0
  6
Continuous
 62
     7
370
    15
100
AcDbLine
 10
4.277874862
 20
8.6243555908
 30
0.0
 11
4.2741248586
 21
8.6281055941
 31
0.0
  0
LINE
  5
6D
330
1F
100
AcDbEntity
  8
0
  6
Continuous
 62
     7
370
    15
100
AcDbLine
 10
3.6803748544
 20
8.6281055941
 30
0.0
 11
3.676624851
 21
8.6243555908
 31
0.0
  0
LINE
  5
6E
330
1F
100
AcDbEntity
  8
0
  6
Continuous
 62
     7
370
    15
100
AcDbLine
 10
3.676624851
 20
7.8076055659
 30
0.0
 11
3.6803748544
 21
7.8038555626
 31
0.0
  0
LINE
  5
6F
330
1F
100
AcDbEntity
  8
0
  6
Continuous
 62
     7
370
    15
100
AcDbLine
 10
3.6841248577
 20
8.6162305713
 30
0.0
 11
3.6803748544
 21
8.612480568
 31
0.0
  0
LINE
  5
70
330
1F
100
AcDbEntity
  8
0
  6
Continuous
 62
     7
370
    15
100
AcDbLine
 10
3.6803748544
 20
7.8194805888
 30
0.0
 11
3.6841248577
 21
7.8157305854
 31
0.0
  0
LINE
  5
71
330
1F
100
AcDbEntity
  8
0
  6
Continuous
 62
     7
370
    15
100
AcDbLine
 10
4.2703748553
 20
7.8157305854
 30
0.0
 11
4.2741248586
 21
7.8194805888
 31
0.0
  0
LINE
  5
72
330
1F
100
AcDbEntity
  8
0
  6
Continuous
 62
     7
370
    15
100
AcDbLine
 10
4.2741248586
 20
8.612480568
 30
0.0
 11
4.2703748553
 21
8.6162305713
 31
0.0
  0
LINE
  5
73
330
1F
100
AcDbEntity
  8
0
  6
Continuous
 62
     7
370
    15
100
AcDbLine
 10
4.1059047003
 20
8.6285899552
 30
0.0
 11
4.1059047003
 21
8.6281055941
 31
0.0
  0
LINE
  5
74
330
1F
100
AcDbEntity
  8
0
  6
Continuous
 62
     7
370
    15
100
AcDbLine
 10
3.8447498605
 20
7.8008555673
 30
0.0
 11
3.8264790715
 21
7.8008555673
 31
0.0
  0
LINE
  5
75
330
1F
100
AcDbEntity
  8
0
  6
Continuous
 62
     7
370
    15
100
AcDbLine
 10
3.7681522637
 20
7.8008555673
 30
0.0
 11
3.8264790715
 21
7.8008555673
 31
0.0
  0
LINE
  5
76
330
1F
100
AcDbEntity
  8
0
  6
Continuous
 62
     7
370
    15
100
AcDbLine
 10
3.7681522637
 20
7.8008555673
 30
0.0
 11
3.7626205742
 21
7.8008555673
 31
0.0
  0
LINE
  5
77
330
1F
100
AcDbEntity
  8
0
  6
Continuous
 62
     7
370
    15
100
AcDbLine
 10
4.1097498525
 20
7.8008555673
 30
0.0
 11
4.1739998536
 21
7.8008555673
 31
0.0
  0
LINE
  5
78
330
1F
100
AcDbEntity
  8
0
  6
Continuous
 62
     7
370
    15
100
AcDbLine
 10
4.1974998538
 20
7.8038555626
 30
0.0
 11
4.1974998538
 21
7.8008555673
 31
0.0
  0
LINE
  5
79
330
1F
100
AcDbEntity
  8
0
  6
Continuous
 62
     7
370
    15
100
AcDbLine
 10
4.1974998538
 20
7.8008555673
 30
0.0
 11
4.1739998536
 21
7.8008555673
 31
0.0
  0
CIRCLE
  5
7A
330
1F
100
AcDbEntity
  8
0
  6
Continuous
 62
     7
370
    15
100
AcDbCircle
 10
3.9772498565
 20
8.4487305784
 30
0.0
 40
0.0405601291492554
  0
CIRCLE
  5
7B
330
1F
100
AcDbEntity
  8
0
  6
Continuous
 62
     7
370
    15
100
AcDbCircle
 10
3.9772498565
 20
8.4487305784
 30
0.0
 40
0.0482453333233916
  0
CIRCLE
  5
7C
330
1F
100
AcDbEntity
  8
0
  6
Continuous
 62
     7
370
    15
100
AcDbCircle
 10
3.9772498565
 20
8.4487305784
 30
0.0
 40
0.0390625000000004
  0
CIRCLE
  5
7D
330
1F
100
AcDbEntity
  8
0
  6
Continuous
 62
     7
370
    15
100
AcDbCircle
 10
3.9772498565
 20
8.4487305784
 30
0.0
 40
0.0499999999999998
  0
CIRCLE
  5
7E
330
1F
100
AcDbEntity
  8
0
  6
Continuous
 62
     7
370
    15
100
AcDbCircle
 10
3.9772498565
 20
8.4487305784
 30
0.0
 40
0.0537500000000004
  0
CIRCLE
  5
7F
330
1F
100
AcDbEntity
  8
0
  6
Continuous
 62
     7
370
    15
100
AcDbCircle
 10
3.9772498565
 20
8.4487305784
 30
0.0
 40
0.0570875000000002
  0
CIRCLE
  5
80
330
1F
100
AcDbEntity
  8
0
  6
Continuous
 62
     7
370
    15
100
AcDbCircle
 10
3.9772498565
 20
8.4487305784
 30
0.0
 40
0.0625000000000004
  0
LINE
  5
81
330
1F
100
AcDbEntity
  8
0
  6
Continuous
 62
     7
370
    15
100
AcDbLine
 10
3.899124854
 20
8.4036250823
 30
0.0
 11
3.899124854
 21
8.4938360669
 31
0.0
  0
LINE
  5
82
330
1F
100
AcDbEntity
  8
0
  6
Continuous
 62
     7
370
    15
100
AcDbLine
 10
4.055374859
 20
8.4938360669
 30
0.0
 11
4.055374859
 21
8.4036250823
 31
0.0
  0
LINE
  5
83
330
1F
100
AcDbEntity
  8
0
  6
Continuous
 62
     7
370
    15
100
AcDbLine
 10
3.9772498565
 20
8.3585195992
 30
0.0
 11
3.899124854
 21
8.4036250823
 31
0.0
  0
LINE
  5
84
330
1F
100
AcDbEntity
  8
0
  6
Continuous
 62
     7
370
    15
100
AcDbLine
 10
4.055374859
 20
8.4036250823
 30
0.0
 11
3.9772498565
 21
8.3585195992
 31
0.0
  0
LINE
  5
85
330
1F
100
AcDbEntity
  8
0
  6
Continuous
 62
     7
370
    15
100
AcDbLine
 10
3.9772498565
 20
8.5389415408
 30
0.0
 11
4.055374859
 21
8.4938360669
 31
0.0
  0
LINE
  5
86
330
1F
100
AcDbEntity
  8
0
  6
Continuous
 62
     7
370
    15
100
AcDbLine
 10
3.899124854
 20
8.4938360669
 30
0.0
 11
3.9772498565
 21
8.5389415408
 31
0.0
  0
CIRCLE
  5
87
330
1F
100
AcDbEntity
  8
0
  6
Continuous
 62
     7
370
    15
100
AcDbCircle
 10
3.9772498565
 20
7.9832305784
 30
0.0
 40
0.0405601291492554
  0
CIRCLE
  5
88
330
1F
100
AcDbEntity
  8
0
  6
Continuous
 62
     7
370
    15
100
AcDbCircle
 10
3.9772498565
 20
7.9832305784
 30
0.0
 40
0.0482453333233916
  0
CIRCLE
  5
89
330
1F
100
AcDbEntity
  8
0
  6
Continuous
 62
     7
370
    15
100
AcDbCircle
 10
3.9772498565
 20
7.9832305784
 30
0.0
 40
0.0390625000000004
  0
CIRCLE
  5
8A
330
1F
100
AcDbEntity
  8
0
  6
Continuous
 62
     7
370
    15
100
AcDbCircle
 10
3.9772498565
 20
7.9832305784
 30
0.0
 40
0.0499999999999998
  0
CIRCLE
  5
8B
330
1F
100
AcDbEntity
  8
0
  6
Continuous
 62
     7
370
    15
100
AcDbCircle
 10
3.9772498565
 20
7.9832305784
 30
0.0
 40
0.0537500000000004
  0
CIRCLE
  5
8C
330
1F
100
AcDbEntity
  8
0
  6
Continuous
 62
     7
370
    15
100
AcDbCircle
 10
3.9772498565
 20
7.9832305784
 30
0.0
 40
0.0570875000000002
  0
CIRCLE
  5
8D
330
1F
100
AcDbEntity
  8
0
  6
Continuous
 62
     7
370
    15
100
AcDbCircle
 10
3.9772498565
 20
7.9832305784
 30
0.0
 40
0.0625000000000004
  0
LINE
  5
8E
330
1F
100
AcDbEntity
  8
0
  6
Continuous
 62
     7
370
    15
100
AcDbLine
 10
4.055374859
 20
7.9381250898
 30
0.0
 11
3.9772498565
 21
7.8930196159
 31
0.0
  0
LINE
  5
8F
330
1F
100
AcDbEntity
  8
0
  6
Continuous
 62
     7
370
    15
100
AcDbLine
 10
3.9772498565
 20
7.8930196159
 30
0.0
 11
3.899124854
 21
7.9381250898
 31
0.0
  0
LINE
  5
90
330
1F
100
AcDbEntity
  8
0
  6
Continuous
 62
     7
370
    15
100
AcDbLine
 10
3.899124854
 20
7.9381250898
 30
0.0
 11
3.899124854
 21
8.0283360744
 31
0.0
  0
LINE
  5
91
330
1F
100
AcDbEntity
  8
0
  6
Continuous
 62
     7
370
    15
100
AcDbLine
 10
3.899124854
 20
8.0283360744
 30
0.0
 11
3.9772498565
 21
8.0734415575
 31
0.0
  0
LINE
  5
92
330
1F
100
AcDbEntity
  8
0
  6
Continuous
 62
     7
370
    15
100
AcDbLine
 10
4.055374859
 20
8.0283360744
 30
0.0
 11
4.055374859
 21
7.9381250898
 31
0.0
  0
LINE
  5
93
330
1F
100
AcDbEntity
  8
0
  6
Continuous
 62
     7
370
    15
100
AcDbLine
 10
3.9772498565
 20
8.0734415575
 30
0.0
 11
4.055374859
 21
8.0283360744
 31
0.0
  0
CIRCLE
  5
94
330
1F
100
AcDbEntity
  8
0
  6
Continuous
 62
     7
370
    15
100
AcDbCircle
 10
4.5722499046
 20
8.318662937
 30
0.0
 40
0.0234374041145266
  0
CIRCLE
  5
95
330
1F
100
AcDbEntity
  8
0
  6
Continuous
 62
     7
370
    15
100
AcDbCircle
 10
4.5722498745
 20
8.3186626369
 30
0.0
 40
0.0156249297762516
  0
ARC
  5
96
330
1F
100
AcDbEntity
  8
0
  6
Continuous
 62
     7
370
    15
100
AcDbCircle
 10
3.3646764403
 20
8.2851753306
 30
0.0
 40
0.0124231941434945
100
AcDbArc
 50
165.1325154345
 51
204.7007717949
  0
ARC
  5
97
330
1F
100
AcDbEntity
  8
0
  6
Continuous
 62
     7
370
    15
100
AcDbCircle
 10
4.5665335914
 20
8.1794465348
 30
0.0
 40
0.0432149106076271
100
AcDbArc
 50
342.8221553764
 51
16.9335355537
  0
ARC
  5
98
330
1F
100
AcDbEntity
  8
0
  6
Continuous
 62
     7
370
    15
100
AcDbCircle
 10
4.5609509576
 20
8.1842000946
 30
0.0
 40
0.0506596418792887
100
AcDbArc
 50
228.7855336636
 51
319.2929098216
  0
ARC
  5
99
330
1F
100
AcDbEntity
  8
0
  6
Continuous
 62
     7
370
    15
100
AcDbCircle
 10
4.560999858
 20
8.1839863727
 30
0.0
 40
0.0412642599440775
100
AcDbArc
 50
246.6856513719
 51
293.3143486281
  0
ARC
  5
9A
330
1F
100
AcDbEntity
  8
0
  6
Continuous
 62
     7
370
    15
100
AcDbCircle
 10
4.5610408933
 20
8.1420896381
 30
0.0
 40
0.051127123090536
100
AcDbArc
 50
263.2189071496
 51
303.1165819969
  0
LINE
  5
9B
330
1F
100
AcDbEntity
  8
0
  6
Continuous
 62
     7
370
    15
100
AcDbLine
 10
4.5550039922
 20
8.0913201734
 30
0.0
 11
4.5550039922
 21
8.1233076298
 31
0.0
  0
ARC
  5
9C
330
1F
100
AcDbEntity
  8
0
  6
Continuous
 62
     7
370
    15
100
AcDbCircle
 10
4.5608887302
 20
8.1741048514
 30
0.0
 40
0.0511369520651564
100
AcDbArc
 50
246.3934174999
 51
263.3918762336
  0
LINE
  5
9D
330
1F
100
AcDbEntity
  8
0
  6
Continuous
 62
     7
370
    15
100
AcDbLine
 10
4.5404107175
 20
8.1272472067
 30
0.0
 11
4.5404107175
 21
8.0952597413
 31
0.0
  0
ARC
  5
9E
330
1F
100
AcDbEntity
  8
0
  6
Continuous
 62
     7
370
    15
100
AcDbCircle
 10
4.5590218917
 20
8.138679248
 30
0.0
 40
0.0472401245943127
100
AcDbArc
 50
204.699591928
 51
246.7982722361
  0
LINE
  5
9F
330
1F
100
AcDbEntity
  8
0
  6
Continuous
 62
     7
370
    15
100
AcDbLine
 10
4.5161037116
 20
8.1189394611
 30
0.0
 11
4.5161037116
 21
8.1460914511
 31
0.0
  0
LINE
  5
A0
330
1F
100
AcDbEntity
  8
0
  6
Continuous
 62
     7
370
    15
100
AcDbLine
 10
4.512436684
 20
8.1460914511
 30
0.0
 11
4.512436684
 21
8.1327889886
 31
0.0
  0
LINE
  5
A1
330
1F
100
AcDbEntity
  8
0
  6
Continuous
 62
     7
370
    15
100
AcDbLine
 10
4.512436684
 20
8.1327889886
 30
0.0
 11
4.5122498695
 21
8.1367968106
 31
0.0
  0
ARC
  5
A2
330
1F
100
AcDbEntity
  8
0
  6
Continuous
 62
     7
370
    15
100
AcDbCircle
 10
4.5657413474
 20
8.1369253784
 30
0.0
 40
0.0440087235499034
100
AcDbArc
 50
320.9123829283
 51
359.8326149398
  0
LINE
  5
A3
330
1F
100
AcDbEntity
  8
0
  6
Continuous
 62
     7
370
    15
100
AcDbLine
 10
4.5999001569
 20
8.109177523
 30
0.0
 11
4.5999001569
 21
8.1411649793
 31
0.0
  0
ARC
  5
A4
330
1F
100
AcDbEntity
  8
0
  6
Continuous
 62
     7
370
    15
100
AcDbCircle
 10
4.5628749891
 20
8.1710088352
 30
0.0
 40
0.0475554285885915
100
AcDbArc
 50
303.2854496438
 51
321.1297123423
  0
LINE
  5
A5
330
1F
100
AcDbEntity
  8
0
  6
Continuous
 62
     7
370
    15
100
AcDbLine
 10
4.5889739098
 20
8.1312550288
 30
0.0
 11
4.5889739098
 21
8.0992675725
 31
0.0
  0
ARC
  5
A6
330
1F
100
AcDbEntity
  8
0
  6
Continuous
 62
     7
370
    15
100
AcDbCircle
 10
4.5471477967
 20
8.0911433334
 30
0.0
 40
0.0078951282590525
100
AcDbArc
 50
5.6923848092
 51
148.5747452415
  0
ARC
  5
A7
330
1F
100
AcDbEntity
  8
0
  6
Continuous
 62
     7
370
    15
100
AcDbCircle
 10
4.5957320954
 20
8.1022598646
 30
0.0
 40
0.0080763070016517
100
AcDbArc
 50
58.9299896218
 51
146.8028522947
  0
LWPOLYLINE
  5
A8
330
1F
100
AcDbEntity
  8
0
  6
Continuous
 62
     7
370
    15
100
AcDbPolyline
 90
        3
 70
   128
 43
0.0
 10
4.512436684
 20
8.1327889886
 10
4.5149935311
 20
8.1323986672
 10
4.5161037116
 20
8.1319513757
  0
LWPOLYLINE
  5
A9
330
1F
100
AcDbEntity
  8
0
  6
Continuous
 62
     7
370
    15
100
AcDbPolyline
 90
       20
 70
   128
 43
0.0
 10
3.3387633323
 20
8.226646007
 10
3.3322489143
 20
8.2318097232
 10
3.3268796563
 20
8.2379213282
 10
3.3228279631
 20
8.2447843873
 10
3.3202240732
 20
8.2521783185
 10
3.3191518056
 20
8.2598654743
 10
3.3196454799
 20
8.2675987837
 10
3.3216893296
 20
8.2751296909
 10
3.3252175755
 20
8.2822161482
 10
3.3301168456
 20
8.2886303849
 10
3.3362297683
 20
8.2941662543
 10
3.3433597393
 20
8.2986458151
 10
3.3512776678
 20
8.3019250972
 10
3.3597290168
 20
8.3038987036
 10
3.3684421628
 20
8.3045031924
 10
3.3771371224
 20
8.303719149
 10
3.385534352
 20
8.3015717629
 10
3.3933640249
 20
8.2981300585
 10
3.4003744273
 20
8.2935046486
 10
3.4035289342
 20
8.2907664044
  0
LWPOLYLINE
  5
AA
330
1F
100
AcDbEntity
  8
0
  6
Continuous
 62
     7
370
    15
100
AcDbPolyline
 90
        3
 70
   128
 43
0.0
 10
3.3466248682
 20
8.2224173763
 10
3.3462133263
 20
8.2225961454
 10
3.3387633323
 20
8.226646007
  0
ARC
  5
AB
330
1F
100
AcDbEntity
  8
0
  6
Continuous
 62
     7
370
    15
100
AcDbCircle
 10
3.3699040675
 20
8.3134422166
 30
0.0
 40
0.0486516223076811
100
AcDbArc
 50
36.3572835914
 51
76.8096809768
  0
LINE
  5
AC
330
1F
100
AcDbEntity
  8
0
  6
Continuous
 62
     7
370
    15
100
AcDbLine
 10
3.40908497
 20
8.3422838051
 30
0.0
 11
3.40908497
 21
8.3035273112
 31
0.0
  0
LINE
  5
AD
330
1F
100
AcDbEntity
  8
0
  6
Continuous
 62
     7
370
    15
100
AcDbLine
 10
3.4150987105
 20
8.3006285605
 30
0.0
 11
3.4150987105
 21
8.329928207
 31
0.0
  0
ARC
  5
AE
330
1F
100
AcDbEntity
  8
0
  6
Continuous
 62
     7
370
    15
100
AcDbCircle
 10
3.3780580037
 20
8.3191862594
 30
0.0
 40
0.0385668692294236
100
AcDbArc
 50
0.0239047214
 51
16.1723625721
  0
ARC
  5
AF
330
1F
100
AcDbEntity
  8
0
  6
Continuous
 62
     7
370
    15
100
AcDbCircle
 10
3.3584231451
 20
8.319088818
 30
0.0
 40
0.0392984165645713
100
AcDbArc
 50
149.0646013033
 51
179.8344736937
  0
LINE
  5
B0
330
1F
100
AcDbEntity
  8
0
  6
Continuous
 62
     7
370
    15
100
AcDbLine
 10
3.324715028
 20
8.3392910055
 30
0.0
 11
3.324715028
 21
8.2958653222
 31
0.0
  0
ARC
  5
B1
330
1F
100
AcDbEntity
  8
0
  6
Continuous
 62
     7
370
    15
100
AcDbCircle
 10
3.3625303531
 20
8.2733041413
 30
0.0
 40
0.0440341423787006
100
AcDbArc
 50
130.7582115289
 51
149.17907434
  0
LINE
  5
B2
330
1F
100
AcDbEntity
  8
0
  6
Continuous
 62
     7
370
    15
100
AcDbLine
 10
3.3337818566
 20
8.3066587458
 30
0.0
 11
3.3337818566
 21
8.3500844292
 31
0.0
  0
ARC
  5
B3
330
1F
100
AcDbEntity
  8
0
  6
Continuous
 62
     7
370
    15
100
AcDbCircle
 10
3.3673471195
 20
8.3104683082
 30
0.0
 40
0.051923635418719
100
AcDbArc
 50
91.5692619031
 51
130.2733634037
  0
LINE
  5
B4
330
1F
100
AcDbEntity
  8
0
  6
Continuous
 62
     7
370
    15
100
AcDbLine
 10
3.3659251719
 20
8.3623724697
 30
0.0
 11
3.3659251719
 21
8.3189467864
 31
0.0
  0
ARC
  5
B5
330
1F
100
AcDbEntity
  8
0
  6
Continuous
 62
     7
370
    15
100
AcDbCircle
 10
3.3678849413
 20
8.2642943942
 30
0.0
 40
0.054687518401531
100
AcDbArc
 50
76.1180370588
 51
92.0536781972
  0
LINE
  5
B6
330
1F
100
AcDbEntity
  8
0
  6
Continuous
 62
     7
370
    15
100
AcDbLine
 10
3.3810057044
 20
8.3173846028
 30
0.0
 11
3.3810057044
 21
8.3608102861
 31
0.0
  0
LWPOLYLINE
  5
B7
330
1F
100
AcDbEntity
  8
0
  6
Continuous
 62
     7
370
    15
100
AcDbPolyline
 90
       17
 70
   128
 43
0.0
 10
3.3466248682
 20
8.2322530273
 10
3.3445483122
 20
8.2335326631
 10
3.3387185262
 20
8.2382625695
 10
3.3340824464
 20
8.2439356921
 10
3.330829784
 20
8.2503197685
 10
3.3290937841
 20
8.2571534373
 10
3.3289454324
 20
8.2641569235
 10
3.3303909624
 20
8.2710435085
 10
3.3333709746
 20
8.2775312473
 10
3.3377636639
 20
8.2833545388
 10
3.3433890722
 20
8.2882749745
 10
3.3500169357
 20
8.29209111
 10
3.357375924
 20
8.2946467104
 10
3.365164714
 20
8.2958371533
 10
3.3730644561
 20
8.2956137001
 10
3.380751754
 20
8.2939854989
 10
3.3870667077
 20
8.2914541531
  0
LWPOLYLINE
  5
B8
330
1F
100
AcDbEntity
  8
0
  6
Continuous
 62
     7
370
    15
100
AcDbPolyline
 90
       14
 70
   128
 43
0.0
 10
3.3466248682
 20
8.241556321
 10
3.3433075265
 20
8.2445308242
 10
3.3392584
 20
8.2498415697
 10
3.3366441702
 20
8.2558176907
 10
3.3355960289
 20
8.2621595207
 10
3.3361664823
 20
8.2685490536
 10
3.3383268574
 20
8.274665895
 10
3.3419689886
 20
8.2802033135
 10
3.3469101316
 20
8.2848836449
 10
3.3529024957
 20
8.2884721976
 10
3.3596456378
 20
8.2907890275
 10
3.3668014218
 20
8.291717953
 10
3.3740110685
 20
8.2912124034
 10
3.3744270837
 20
8.2911385347
  0
ARC
  5
B9
330
1F
100
AcDbEntity
  8
0
  6
Continuous
 62
     7
370
    15
100
AcDbCircle
 10
3.3632040396
 20
8.2673230311
 30
0.0
 40
0.0276658369896754
100
AcDbArc
 50
184.982440159
 51
233.1827155484
  0
ARC
  5
BA
330
1F
100
AcDbEntity
  8
0
  6
Continuous
 62
     7
370
    15
100
AcDbCircle
 10
3.3633212166
 20
8.271047965
 30
0.0
 40
0.027821033475266
100
AcDbArc
 50
188.9294245747
 51
233.1205040048
  0
ARC
  5
BB
330
1F
100
AcDbEntity
  8
0
  6
Continuous
 62
     7
370
    15
100
AcDbCircle
 10
3.3634475985
 20
8.2747809402
 30
0.0
 40
0.0279882216699302
100
AcDbArc
 50
192.8863877098
 51
233.0538153124
  0
ARC
  5
BC
330
1F
100
AcDbEntity
  8
0
  6
Continuous
 62
     7
370
    15
100
AcDbCircle
 10
3.3737378111
 20
8.3642207286
 30
0.0
 40
0.0080282869581458
100
AcDbArc
 50
193.3099268656
 51
334.8617883905
  0
ARC
  5
BD
330
1F
100
AcDbEntity
  8
0
  6
Continuous
 62
     7
370
    15
100
AcDbCircle
 10
3.3635758864
 20
8.2785168292
 30
0.0
 40
0.0281589195502305
100
AcDbArc
 50
196.8628216133
 51
232.9883879246
  0
ARC
  5
BE
330
1F
100
AcDbEntity
  8
0
  6
Continuous
 62
     7
370
    15
100
AcDbCircle
 10
3.3640034419
 20
8.2824778867
 30
0.0
 40
0.028689909186209
100
AcDbArc
 50
201.0823534302
 51
232.7180195778
  0
ARC
  5
BF
330
1F
100
AcDbEntity
  8
0
  6
Continuous
 62
     7
370
    15
100
AcDbCircle
 10
3.3277604309
 20
8.3471768714
 30
0.0
 40
0.0084534820648022
100
AcDbArc
 50
248.8841879339
 51
315.422459131
  0
ARC
  5
C0
330
1F
100
AcDbEntity
  8
0
  6
Continuous
 62
     7
370
    15
100
AcDbCircle
 10
3.4137684123
 20
8.3383609106
 30
0.0
 40
0.008536989091345
100
AcDbArc
 50
236.7285776624
 51
278.9647952785
  0
ARC
  5
C1
330
1F
100
AcDbEntity
  8
0
  6
Continuous
 62
     7
370
    15
100
AcDbCircle
 10
3.3636517471
 20
8.2833492758
 30
0.0
 40
0.0246227456652076
100
AcDbArc
 50
194.3349527605
 51
226.2537726807
  0
LWPOLYLINE
  5
C2
330
1F
100
AcDbEntity
  8
0
  6
Continuous
 62
     7
370
    15
100
AcDbPolyline
 90
        3
 70
   128
 43
0.0
 10
3.3522498366
 20
8.2856085869
 10
3.3515949041
 20
8.2863396339
 10
3.3507679337
 20
8.2873887101
  0
LWPOLYLINE
  5
C3
330
1F
100
AcDbEntity
  8
0
  6
Continuous
 62
     7
370
    15
100
AcDbPolyline
 90
        9
 70
   128
 43
0.0
 10
4.5843748629
 20
8.1881414125
 10
4.5889594633
 20
8.1879873455
 10
4.593367919
 20
8.1875310639
 10
4.5974307588
 20
8.1867901056
 10
4.6009918576
 20
8.1857929396
 10
4.6039143772
 20
8.1845778913
 10
4.6060860455
 20
8.183191653
 10
4.6074233367
 20
8.1816874937
 10
4.6078748448
 20
8.1801232224
  0
ARC
  5
C4
330
1F
100
AcDbEntity
  8
0
  6
Continuous
 62
     7
370
    15
100
AcDbCircle
 10
4.5850588307
 20
8.1808507987
 30
0.0
 40
0.0228276118907615
100
AcDbArc
 50
268.2830295814
 51
358.1735228712
  0
LINE
  5
C5
330
1F
100
AcDbEntity
  8
0
  6
Continuous
 62
     7
370
    15
100
AcDbLine
 10
4.5843748629
 20
8.1580334357
 30
0.0
 11
4.5843748629
 21
8.1881414125
 31
0.0
  0
LINE
  5
C6
330
1F
100
AcDbEntity
  8
0
  6
Continuous
 62
     7
370
    15
100
AcDbLine
 10
4.5084998661
 20
8.1881414125
 30
0.0
 11
4.5843748629
 21
8.1881414125
 31
0.0
  0
LINE
  5
C7
330
1F
100
AcDbEntity
  8
0
  6
Continuous
 62
     7
370
    15
100
AcDbLine
 10
4.5084998661
 20
8.1580334357
 30
0.0
 11
4.5843748629
 21
8.1580334357
 31
0.0
  0
LINE
  5
C8
330
1F
100
AcDbEntity
  8
0
  6
Continuous
 62
     7
370
    15
100
AcDbLine
 10
4.6078748448
 20
8.2130229042
 30
0.0
 11
4.6078748448
 21
8.1801232224
 31
0.0
  0
LINE
  5
C9
330
1F
100
AcDbEntity
  8
0
  6
Continuous
 62
     7
370
    15
100
AcDbLine
 10
4.5843748629
 20
8.1881414125
 30
0.0
 11
4.5843748629
 21
8.221041094
 31
0.0
  0
LWPOLYLINE
  5
CA
330
1F
100
AcDbEntity
  8
0
  6
Continuous
 62
     7
370
    15
100
AcDbPolyline
 90
        9
 70
   128
 43
0.0
 10
4.5843748629
 20
8.221041094
 10
4.5889594633
 20
8.220887027
 10
4.593367919
 20
8.2204307457
 10
4.5974307588
 20
8.2196897854
 10
4.6009918576
 20
8.2186926205
 10
4.6039143772
 20
8.2174775718
 10
4.6060860455
 20
8.2160913326
 10
4.6074233367
 20
8.2145871755
 10
4.6078748448
 20
8.2130229042
  0
LINE
  5
CB
330
1F
100
AcDbEntity
  8
0
  6
Continuous
 62
     7
370
    15
100
AcDbLine
 10
4.5084998661
 20
8.221041094
 30
0.0
 11
4.5843748629
 21
8.221041094
 31
0.0
  0
LINE
  5
CC
330
1F
100
AcDbEntity
  8
0
  6
Continuous
 62
     7
370
    15
100
AcDbLine
 10
4.6078748448
 20
8.1801232224
 30
0.0
 11
4.6078748448
 21
8.1681812401
 31
0.0
  0
ARC
  5
CD
330
1F
100
AcDbEntity
  8
0
  6
Continuous
 62
     7
370
    15
100
AcDbCircle
 10
4.5850588308
 20
8.168908814
 30
0.0
 40
0.0228276117661058
100
AcDbArc
 50
268.2830294524
 51
358.1735289327
  0
LINE
  5
CE
330
1F
100
AcDbEntity
  8
0
  6
Continuous
 62
     7
370
    15
100
AcDbLine
 10
4.5843748629
 20
8.1460914511
 30
0.0
 11
4.5843748629
 21
8.1580334357
 31
0.0
  0
LINE
  5
CF
330
1F
100
AcDbEntity
  8
0
  6
Continuous
 62
     7
370
    15
100
AcDbLine
 10
4.5084998661
 20
8.1460914511
 30
0.0
 11
4.5843748629
 21
8.1460914511
 31
0.0
  0
LWPOLYLINE
  5
D0
330
1F
100
AcDbEntity
  8
0
  6
Continuous
 62
     7
370
    15
100
AcDbPolyline
 90
        3
 70
   128
 43
0.0
 10
4.5562835341
 20
8.1460914511
 10
4.5590213658
 20
8.1458699641
 10
4.5657161818
 20
8.1460914511
  0
ARC
  5
D1
330
1F
100
AcDbEntity
  8
0
  6
Continuous
 62
     7
370
    15
100
AcDbCircle
 10
4.560999858
 20
8.1865619814
 30
0.0
 40
0.0414752285368488
100
AcDbArc
 50
257.3630668533
 51
282.6369331467
  0
ARC
  5
D2
330
1F
100
AcDbEntity
  8
0
  6
Continuous
 62
     7
370
    15
100
AcDbCircle
 10
4.560999858
 20
8.1836508241
 30
0.0
 40
0.0412369029229488
100
AcDbArc
 50
245.6188393361
 51
294.3811606639
  0
LWPOLYLINE
  5
D3
330
1F
100
AcDbEntity
  8
0
  6
Continuous
 62
     7
370
    15
100
AcDbPolyline
 90
        9
 70
   128
 43
0.0
 10
3.3701248501
 20
8.2382647236
 10
3.3655402497
 20
8.2384738839
 10
3.3611317939
 20
8.2390933234
 10
3.3570689542
 20
8.2400992412
 10
3.3535078554
 20
8.2414529749
 10
3.3505853358
 20
8.2431025067
 10
3.3484136675
 20
8.2449844452
 10
3.3470763763
 20
8.2470264662
 10
3.3466248682
 20
8.2491500971
  0
ARC
  5
D4
330
1F
100
AcDbEntity
  8
0
  6
Continuous
 62
     7
370
    15
100
AcDbCircle
 10
3.3688642846
 20
8.2477278005
 30
0.0
 40
0.0222848506709272
100
AcDbArc
 50
86.7572745373
 51
176.3406971596
  0
LINE
  5
D5
330
1F
100
AcDbEntity
  8
0
  6
Continuous
 62
     7
370
    15
100
AcDbLine
 10
3.3701248501
 20
8.26997697
 30
0.0
 11
3.3701248501
 21
8.2382647236
 31
0.0
  0
LINE
  5
D6
330
1F
100
AcDbEntity
  8
0
  6
Continuous
 62
     7
370
    15
100
AcDbLine
 10
3.4459998469
 20
8.2382647236
 30
0.0
 11
3.3701248501
 21
8.2382647236
 31
0.0
  0
LINE
  5
D7
330
1F
100
AcDbEntity
  8
0
  6
Continuous
 62
     7
370
    15
100
AcDbLine
 10
3.4459998469
 20
8.26997697
 30
0.0
 11
3.3701248501
 21
8.26997697
 31
0.0
  0
LINE
  5
D8
330
1F
100
AcDbEntity
  8
0
  6
Continuous
 62
     7
370
    15
100
AcDbLine
 10
3.3466248682
 20
8.2181313474
 30
0.0
 11
3.3466248682
 21
8.2491500971
 31
0.0
  0
LINE
  5
D9
330
1F
100
AcDbEntity
  8
0
  6
Continuous
 62
     7
370
    15
100
AcDbLine
 10
3.3701248501
 20
8.2382647236
 30
0.0
 11
3.3701248501
 21
8.2072459757
 31
0.0
  0
LWPOLYLINE
  5
DA
330
1F
100
AcDbEntity
  8
0
  6
Continuous
 62
     7
370
    15
100
AcDbPolyline
 90
        9
 70
   128
 43
0.0
 10
3.3701248501
 20
8.2072459757
 10
3.3655402497
 20
8.2074551349
 10
3.3611317939
 20
8.2080745755
 10
3.3570689542
 20
8.2090804916
 10
3.3535078554
 20
8.210434227
 10
3.3505853358
 20
8.2120837591
 10
3.3484136675
 20
8.213965696
 10
3.3470763763
 20
8.2160077168
 10
3.3466248682
 20
8.2181313474
  0
LINE
  5
DB
330
1F
100
AcDbEntity
  8
0
  6
Continuous
 62
     7
370
    15
100
AcDbLine
 10
3.4459998469
 20
8.2072459757
 30
0.0
 11
3.3701248501
 21
8.2072459757
 31
0.0
  0
LINE
  5
DC
330
1F
100
AcDbEntity
  8
0
  6
Continuous
 62
     7
370
    15
100
AcDbLine
 10
3.3466248682
 20
8.2491500971
 30
0.0
 11
3.3466248682
 21
8.2653623537
 31
0.0
  0
ARC
  5
DD
330
1F
100
AcDbEntity
  8
0
  6
Continuous
 62
     7
370
    15
100
AcDbCircle
 10
3.3688642847
 20
8.2639400546
 30
0.0
 40
0.0222848509267831
100
AcDbArc
 50
86.7572748143
 51
176.3406906239
  0
LINE
  5
DE
330
1F
100
AcDbEntity
  8
0
  6
Continuous
 62
     7
370
    15
100
AcDbLine
 10
3.3701248501
 20
8.2861892244
 30
0.0
 11
3.3701248501
 21
8.26997697
 31
0.0
  0
LINE
  5
DF
330
1F
100
AcDbEntity
  8
0
  6
Continuous
 62
     7
370
    15
100
AcDbLine
 10
3.4459998469
 20
8.2861892244
 30
0.0
 11
3.3701248501
 21
8.2861892244
 31
0.0
  0
ARC
  5
E0
330
1F
100
AcDbEntity
  8
0
  6
Continuous
 62
     7
370
    15
100
AcDbCircle
 10
3.393499855
 20
8.2434582476
 30
0.0
 40
0.0438528569167763
100
AcDbArc
 50
77.0120034628
 51
102.9879965372
  0
ARC
  5
E1
330
1F
100
AcDbEntity
  8
0
  6
Continuous
 62
     7
370
    15
100
AcDbCircle
 10
3.393499855
 20
8.2445919306
 30
0.0
 40
0.0437195406658787
100
AcDbArc
 50
72.0745346719
 51
107.9254653281
  0
ARC
  5
E2
330
1F
100
AcDbEntity
  8
0
  6
Continuous
 62
     7
370
    15
100
AcDbCircle
 10
3.393499855
 20
8.2489415116
 30
0.0
 40
0.0430263229518714
100
AcDbArc
 50
59.9622669896
 51
120.0377330104
  0
ARC
  5
E3
330
1F
100
AcDbEntity
  8
0
  6
Continuous
 62
     7
370
    15
100
AcDbCircle
 10
3.3922188792
 20
8.2553597547
 30
0.0
 40
0.0399611420284286
100
AcDbArc
 50
109.7770276822
 51
130.0728974264
  0
ARC
  5
E4
330
1F
100
AcDbEntity
  8
0
  6
Continuous
 62
     7
370
    15
100
AcDbCircle
 10
3.3939854035
 20
8.2539371042
 30
0.0
 40
0.0415672189352077
100
AcDbArc
 50
50.8869522867
 51
83.0605823029
  0
LWPOLYLINE
  5
E5
330
1F
100
AcDbEntity
  8
0
  6
Continuous
 62
     7
370
    15
100
AcDbPolyline
 90
        3
 70
   128
 43
0.0
 10
3.3618720121
 20
8.2848626855
 10
3.3638608624
 20
8.2870952885
 10
3.3692798032
 20
8.2917066736
  0
ARC
  5
E6
330
1F
100
AcDbEntity
  8
0
  6
Continuous
 62
     7
370
    15
100
AcDbCircle
 10
3.3943599333
 20
8.2586089019
 30
0.0
 40
0.040477434725017
100
AcDbArc
 50
42.9512041829
 51
83.4067654882
  0
ARC
  5
E7
330
1F
100
AcDbEntity
  8
0
  6
Continuous
 62
     7
370
    15
100
AcDbCircle
 10
3.3888595781
 20
8.266461116
 30
0.0
 40
0.0348321081408456
100
AcDbArc
 50
133.8052268709
 51
150.8396651049
  0
ARC
  5
E8
330
1F
100
AcDbEntity
  8
0
  6
Continuous
 62
     7
370
    15
100
AcDbCircle
 10
3.3946734779
 20
8.2630319147
 30
0.0
 40
0.0396431475879006
100
AcDbArc
 50
35.7425457038
 51
83.7234753591
  0
LWPOLYLINE
  5
E9
330
1F
100
AcDbEntity
  8
0
  6
Continuous
 62
     7
370
    15
100
AcDbPolyline
 90
        3
 70
   128
 43
0.0
 10
3.3562976431
 20
8.2823391589
 10
3.3593457079
 20
8.2885836859
 10
3.3610784079
 20
8.2910928211
  0
ARC
  5
EA
330
1F
100
AcDbEntity
  8
0
  6
Continuous
 62
     7
370
    15
100
AcDbCircle
 10
3.3948384782
 20
8.2671561283
 30
0.0
 40
0.0391228870883286
100
AcDbArc
 50
29.1104791417
 51
83.8827512628
  0
ARC
  5
EB
330
1F
100
AcDbEntity
  8
0
  6
Continuous
 62
     7
370
    15
100
AcDbCircle
 10
4.572248952
 20
8.3182247888
 30
0.0
 40
0.0587522911206683
100
AcDbArc
 50
48.9013850543
 51
69.7644621369
  0
ARC
  5
EC
330
1F
100
AcDbEntity
  8
0
  6
Continuous
 62
     7
370
    15
100
AcDbCircle
 10
4.5722498983
 20
8.3182276256
 30
0.0
 40
0.05874963138447
100
AcDbArc
 50
234.8811937653
 51
40.4061694418
  0
ARC
  5
ED
330
1F
100
AcDbEntity
  8
0
  6
Continuous
 62
     7
370
    15
100
AcDbCircle
 10
4.5722498834
 20
8.31822628
 30
0.0
 40
0.0587505698012352
100
AcDbArc
 50
69.7648114434
 51
124.4494826792
  0
ARC
  5
EE
330
1F
100
AcDbEntity
  8
0
  6
Continuous
 62
     7
370
    15
100
AcDbCircle
 10
4.5722498424
 20
8.3176173109
 30
0.0
 40
0.0587505012175112
100
AcDbArc
 50
233.8582738132
 51
272.1235379604
  0
ARC
  5
EF
330
1F
100
AcDbEntity
  8
0
  6
Continuous
 62
     7
370
    15
100
AcDbCircle
 10
4.572237172
 20
8.317617717
 30
0.0
 40
0.0587627057153523
100
AcDbArc
 50
347.407000905
 51
359.9984275008
  0
LINE
  5
F0
330
1F
100
AcDbEntity
  8
0
  6
Continuous
 62
     7
370
    15
100
AcDbLine
 10
4.6295862473
 20
8.3048060372
 30
0.0
 11
4.6295862473
 21
8.3052646219
 31
0.0
  0
ARC
  5
F1
330
1F
100
AcDbEntity
  8
0
  6
Continuous
 62
     7
370
    15
100
AcDbCircle
 10
4.5722535862
 20
8.3180738002
 30
0.0
 40
0.0587461409820043
100
AcDbArc
 50
332.1228733616
 51
347.4058916268
  0
LINE
  5
F2
330
1F
100
AcDbEntity
  8
0
  6
Continuous
 62
     7
370
    15
100
AcDbLine
 10
4.6241823764
 20
8.290605458
 30
0.0
 11
4.6241823764
 21
8.2901468824
 31
0.0
  0
ARC
  5
F3
330
1F
100
AcDbEntity
  8
0
  6
Continuous
 62
     7
370
    15
100
AcDbCircle
 10
4.5722502752
 20
8.3176166055
 30
0.0
 40
0.0587497134206341
100
AcDbArc
 50
287.4053697495
 51
332.1231928186
  0
LINE
  5
F4
330
1F
100
AcDbEntity
  8
0
  6
Continuous
 62
     7
370
    15
100
AcDbLine
 10
4.58982409
 20
8.2615569064
 30
0.0
 11
4.58982409
 21
8.262015482
 31
0.0
  0
ARC
  5
F5
330
1F
100
AcDbEntity
  8
0
  6
Continuous
 62
     7
370
    15
100
AcDbCircle
 10
4.5722498639
 20
8.3180760878
 30
0.0
 40
0.058750701676564
100
AcDbArc
 50
272.1235097657
 51
287.4054879621
  0
LINE
  5
F6
330
1F
100
AcDbEntity
  8
0
  6
Continuous
 62
     7
370
    15
100
AcDbLine
 10
4.5744267979
 20
8.2593657318
 30
0.0
 11
4.5744267979
 21
8.2589071562
 31
0.0
  0
LINE
  5
F7
330
1F
100
AcDbEntity
  8
0
  6
Continuous
 62
     7
370
    15
100
AcDbLine
 10
4.5897428376
 20
8.2619900769
 30
0.0
 11
4.58982409
 21
8.2615569064
 31
0.0
  0
ARC
  5
F8
330
1F
100
AcDbEntity
  8
0
  6
Continuous
 62
     7
370
    15
100
AcDbCircle
 10
3.3823021198
 20
8.1205268576
 30
0.0
 40
0.0590006963588001
100
AcDbArc
 50
52.0876805522
 51
164.773901116
  0
ARC
  5
F9
330
1F
100
AcDbEntity
  8
0
  6
Continuous
 62
     7
370
    15
100
AcDbCircle
 10
3.3808624667
 20
8.1215069585
 30
0.0
 40
0.0573569852872469
100
AcDbArc
 50
165.3409068218
 51
214.3353203324
  0
ARC
  5
FA
330
1F
100
AcDbEntity
  8
0
  6
Continuous
 62
     7
370
    15
100
AcDbCircle
 10
3.3809760929
 20
8.1418393112
 30
0.0
 40
0.0574762747813825
100
AcDbArc
 50
142.7148200647
 51
179.9556390818
  0
LINE
  5
FB
330
1F
100
AcDbEntity
  8
0
  6
Continuous
 62
     7
370
    15
100
AcDbLine
 10
3.335246233
 20
8.1766574397
 30
0.0
 11
3.335246233
 21
8.1613726488
 31
0.0
  0
ARC
  5
FC
330
1F
100
AcDbEntity
  8
0
  6
Continuous
 62
     7
370
    15
100
AcDbCircle
 10
3.381691434
 20
8.1260555589
 30
0.0
 40
0.0583476951807741
100
AcDbArc
 50
127.4673403191
 51
142.7505171418
  0
LINE
  5
FD
330
1F
100
AcDbEntity
  8
0
  6
Continuous
 62
     7
370
    15
100
AcDbLine
 10
3.3461979998
 20
8.1723661372
 30
0.0
 11
3.3461979998
 21
8.1876509304
 31
0.0
  0
ARC
  5
FE
330
1F
100
AcDbEntity
  8
0
  6
Continuous
 62
     7
370
    15
100
AcDbCircle
 10
3.3820851067
 20
8.1408165844
 30
0.0
 40
0.0590028847574127
100
AcDbArc
 50
110.2018516698
 51
127.4613638149
  0
LINE
  5
FF
330
1F
100
AcDbEntity
  8
0
  6
Continuous
 62
     7
370
    15
100
AcDbLine
 10
3.3892713022
 20
8.1946313467
 30
0.0
 11
3.3892713022
 21
8.1841474801
 31
0.0
  0
ARC
  5
100
330
1F
100
AcDbEntity
  8
0
  6
Continuous
 62
     7
370
    15
100
AcDbCircle
 10
3.3822729801
 20
8.1251708947
 30
0.0
 40
0.0593903538988221
100
AcDbArc
 50
68.1290297761
 51
83.2327712744
  0
LINE
  5
101
330
1F
100
AcDbEntity
  8
0
  6
Continuous
 62
     7
370
    15
100
AcDbLine
 10
3.4043969341
 20
8.1802866347
 30
0.0
 11
3.4043969341
 21
8.1946313467
 31
0.0
  0
ARC
  5
102
330
1F
100
AcDbEntity
  8
0
  6
Continuous
 62
     7
370
    15
100
AcDbCircle
 10
3.3827528534
 20
8.1413408991
 30
0.0
 40
0.058385819953012
100
AcDbArc
 50
26.152973674
 51
65.8852856734
  0
ARC
  5
103
330
1F
100
AcDbEntity
  8
0
  6
Continuous
 62
     7
370
    15
100
AcDbCircle
 10
3.3822498633
 20
8.1202546207
 30
0.0
 40
0.0474973356949088
100
AcDbArc
 50
80.3190973904
 51
99.6809026096
  0
ARC
  5
104
330
1F
100
AcDbEntity
  8
0
  6
Continuous
 62
     7
370
    15
100
AcDbCircle
 10
3.3968082501
 20
8.1975226991
 30
0.0
 40
0.0078423483006816
100
AcDbArc
 50
201.6345115963
 51
338.3654884037
  0
ARC
  5
105
330
1F
100
AcDbEntity
  8
0
  6
Continuous
 62
     7
370
    15
100
AcDbCircle
 10
3.3407961309
 20
8.182257593
 30
0.0
 40
0.0078843569268771
100
AcDbArc
 50
225.2582414208
 51
313.2464249206
  0
LINE
  5
106
330
1F
100
AcDbEntity
  8
0
  6
Continuous
 62
     7
370
    15
100
AcDbLine
 10
3.4459998469
 20
8.1316621707
 30
0.0
 11
3.356999875
 21
8.1316621707
 31
0.0
  0
LINE
  5
107
330
1F
100
AcDbEntity
  8
0
  6
Continuous
 62
     7
370
    15
100
AcDbLine
 10
3.356999875
 20
8.1586791282
 30
0.0
 11
3.356999875
 21
8.1316621707
 31
0.0
  0
LINE
  5
108
330
1F
100
AcDbEntity
  8
0
  6
Continuous
 62
     7
370
    15
100
AcDbLine
 10
3.4459998469
 20
8.1586791282
 30
0.0
 11
3.356999875
 21
8.1586791282
 31
0.0
  0
LWPOLYLINE
  5
109
330
1F
100
AcDbEntity
  8
0
  6
Continuous
 62
     7
370
    15
100
AcDbPolyline
 90
        9
 70
   128
 43
0.0
 10
3.356999875
 20
8.1316621707
 10
3.3524152013
 20
8.1317357966
 10
3.3480068189
 20
8.1319538232
 10
3.3439439792
 20
8.1323078816
 10
3.3403828803
 20
8.1327843594
 10
3.3374602874
 20
8.1333649602
 10
3.3352886925
 20
8.1340273543
 10
3.3339514013
 20
8.1347460951
 10
3.3334998932
 20
8.135493564
  0
ARC
  5
10A
330
1F
100
AcDbEntity
  8
0
  6
Continuous
 62
     7
370
    15
100
AcDbCircle
 10
3.3568436899
 20
8.1353353176
 30
0.0
 40
0.023344333069487
100
AcDbArc
 50
89.6166599844
 51
179.6116009379
  0
LINE
  5
10B
330
1F
100
AcDbEntity
  8
0
  6
Continuous
 62
     7
370
    15
100
AcDbLine
 10
3.4459998469
 20
8.0830711487
 30
0.0
 11
3.356999875
 21
8.0830711487
 31
0.0
  0
LINE
  5
10C
330
1F
100
AcDbEntity
  8
0
  6
Continuous
 62
     7
370
    15
100
AcDbLine
 10
3.356999875
 20
8.1316621707
 30
0.0
 11
3.356999875
 21
8.0830711487
 31
0.0
  0
LINE
  5
10D
330
1F
100
AcDbEntity
  8
0
  6
Continuous
 62
     7
370
    15
100
AcDbLine
 10
3.3334998932
 20
8.0869025328
 30
0.0
 11
3.3334998932
 21
8.135493564
 31
0.0
  0
LWPOLYLINE
  5
10E
330
1F
100
AcDbEntity
  8
0
  6
Continuous
 62
     7
370
    15
100
AcDbPolyline
 90
        9
 70
   128
 43
0.0
 10
3.356999875
 20
8.0830711487
 10
3.3524152013
 20
8.0831447654
 10
3.3480068189
 20
8.083362792
 10
3.3439439792
 20
8.0837168504
 10
3.3403828803
 20
8.0841933374
 10
3.3374602874
 20
8.0847739291
 10
3.3352886925
 20
8.0854363322
 10
3.3339514013
 20
8.0861550731
 10
3.3334998932
 20
8.0869025328
  0
LINE
  5
10F
330
1F
100
AcDbEntity
  8
0
  6
Continuous
 62
     7
370
    15
100
AcDbLine
 10
3.356999875
 20
8.1670755741
 30
0.0
 11
3.356999875
 21
8.1586791282
 31
0.0
  0
LINE
  5
110
330
1F
100
AcDbEntity
  8
0
  6
Continuous
 62
     7
370
    15
100
AcDbLine
 10
3.4459998469
 20
8.1670755741
 30
0.0
 11
3.356999875
 21
8.1670755741
 31
0.0
  0
LINE
  5
111
330
1F
100
AcDbEntity
  8
0
  6
Continuous
 62
     7
370
    15
100
AcDbLine
 10
3.3334998932
 20
8.135493564
 30
0.0
 11
3.3334998932
 21
8.1438900099
 31
0.0
  0
ARC
  5
112
330
1F
100
AcDbEntity
  8
0
  6
Continuous
 62
     7
370
    15
100
AcDbCircle
 10
3.3568436899
 20
8.1437317636
 30
0.0
 40
0.0233443330694875
100
AcDbArc
 50
89.6166599844
 51
179.6116009379
  0
LWPOLYLINE
  5
113
330
1F
100
AcDbEntity
  8
0
  6
Continuous
 62
     7
370
    15
100
AcDbPolyline
 90
        3
 70
   128
 43
0.0
 10
3.377946053
 20
8.1670755741
 10
3.3822498633
 20
8.1672709181
 10
3.3865536369
 20
8.1670755741
  0
ARC
  5
114
330
1F
100
AcDbEntity
  8
0
  6
Continuous
 62
     7
370
    15
100
AcDbCircle
 10
4.6033741142
 20
7.0927570794
 30
0.0
 40
1.20129658980095
100
AcDbArc
 50
89.1593127022
 51
90.2801744186
  0
ARC
  5
115
330
1F
100
AcDbEntity
  8
0
  6
Continuous
 62
     7
370
    15
100
AcDbCircle
 10
4.5974999941
 20
8.2939244585
 30
0.0
 40
0.0234998257654893
100
AcDbArc
 50
269.9996194209
 51
359.9997547987
  0
LINE
  5
116
330
1F
100
AcDbEntity
  8
0
  6
Continuous
 62
     7
370
    15
100
AcDbLine
 10
4.597499838
 20
8.2704246327
 30
0.0
 11
4.597499838
 21
8.2940393066
 31
0.0
  0
LINE
  5
117
330
1F
100
AcDbEntity
  8
0
  6
Continuous
 62
     7
370
    15
100
AcDbLine
 10
4.5084998661
 20
8.2940393066
 30
0.0
 11
4.597499838
 21
8.2940393066
 31
0.0
  0
LINE
  5
118
330
1F
100
AcDbEntity
  8
0
  6
Continuous
 62
     7
370
    15
100
AcDbLine
 10
4.5084998661
 20
8.2704246327
 30
0.0
 11
4.597499838
 21
8.2704246327
 31
0.0
  0
LINE
  5
119
330
1F
100
AcDbEntity
  8
0
  6
Continuous
 62
     7
370
    15
100
AcDbLine
 10
4.6209998198
 20
8.3431737682
 30
0.0
 11
4.6209998198
 21
8.2939243579
 31
0.0
  0
LINE
  5
11A
330
1F
100
AcDbEntity
  8
0
  6
Continuous
 62
     7
370
    15
100
AcDbLine
 10
4.597499838
 20
8.2940393066
 30
0.0
 11
4.597499838
 21
8.3432887169
 31
0.0
  0
ARC
  5
11B
330
1F
100
AcDbEntity
  8
0
  6
Continuous
 62
     7
370
    15
100
AcDbCircle
 10
4.6033741142
 20
7.1420064896
 30
0.0
 40
1.201296589815974
100
AcDbArc
 50
89.1593127022
 51
90.2801744186
  0
LINE
  5
11C
330
1F
100
AcDbEntity
  8
0
  6
Continuous
 62
     7
370
    15
100
AcDbLine
 10
4.5084998661
 20
8.3432887169
 30
0.0
 11
4.597499838
 21
8.3432887169
 31
0.0
  0
ARC
  5
11D
330
1F
100
AcDbEntity
  8
0
  6
Continuous
 62
     7
370
    15
100
AcDbCircle
 10
4.5975000013
 20
8.3431736657
 30
0.0
 40
0.0234998185533149
100
AcDbArc
 50
0.0002499663
 51
90.0003981635
  0
LINE
  5
11E
330
1F
100
AcDbEntity
  8
0
  6
Continuous
 62
     7
370
    15
100
AcDbLine
 10
4.597499838
 20
8.3432887169
 30
0.0
 11
4.597499838
 21
8.3666734842
 31
0.0
  0
LINE
  5
11F
330
1F
100
AcDbEntity
  8
0
  6
Continuous
 62
     7
370
    15
100
AcDbLine
 10
4.5084998661
 20
8.3666734842
 30
0.0
 11
4.597499838
 21
8.3666734842
 31
0.0
  0
LINE
  5
120
330
1F
100
AcDbEntity
  8
0
  6
Continuous
 62
     7
370
    15
100
AcDbLine
 10
4.6209998198
 20
8.2939243579
 30
0.0
 11
4.6209998198
 21
8.2936724425
 31
0.0
  0
ARC
  5
121
330
1F
100
AcDbEntity
  8
0
  6
Continuous
 62
     7
370
    15
100
AcDbCircle
 10
4.597499996
 20
8.2936725458
 30
0.0
 40
0.0234998238584379
100
AcDbArc
 50
269.9996147712
 51
359.9997482737
  0
LINE
  5
122
330
1F
100
AcDbEntity
  8
0
  6
Continuous
 62
     7
370
    15
100
AcDbLine
 10
4.597499838
 20
8.2701727219
 30
0.0
 11
4.597499838
 21
8.2704246327
 31
0.0
  0
LINE
  5
123
330
1F
100
AcDbEntity
  8
0
  6
Continuous
 62
     7
370
    15
100
AcDbLine
 10
4.5084998661
 20
8.2701727219
 30
0.0
 11
4.597499838
 21
8.2701727219
 31
0.0
  0
LINE
  5
124
330
1F
100
AcDbEntity
  8
0
  6
Continuous
 62
     7
370
    15
100
AcDbLine
 10
3.8447498605
 20
7.7101055889
 30
0.0
 11
4.1097498525
 21
7.7101055889
 31
0.0
  0
LINE
  5
125
330
1F
100
AcDbEntity
  8
0
  6
Continuous
 62
     7
370
    15
100
AcDbLine
 10
3.8447498605
 20
7.7101055889
 30
0.0
 11
3.8447498605
 21
7.8038555626
 31
0.0
  0
LINE
  5
126
330
1F
100
AcDbEntity
  8
0
  6
Continuous
 62
     7
370
    15
100
AcDbLine
 10
4.1097498525
 20
7.7101055889
 30
0.0
 11
4.1097498525
 21
7.8038555626
 31
0.0
  0
LINE
  5
127
330
1F
100
AcDbEntity
  8
0
  6
Continuous
 62
     7
370
    15
100
AcDbLine
 10
4.5084998661
 20
8.2159805784
 30
0.0
 11
4.5084998661
 21
7.8038555626
 31
0.0
  0
LINE
  5
128
330
1F
100
AcDbEntity
  8
0
  6
Continuous
 62
     7
370
    15
100
AcDbLine
 10
4.5084998661
 20
8.6281055941
 30
0.0
 11
4.5084998661
 21
8.2159805784
 31
0.0
  0
LINE
  5
129
330
1F
100
AcDbEntity
  8
0
  6
Continuous
 62
     7
370
    15
100
AcDbLine
 10
4.277874862
 20
7.7882305731
 30
0.0
 11
4.277874862
 21
8.6437305836
 31
0.0
  0
LINE
  5
12A
330
1F
100
AcDbEntity
  8
0
  6
Continuous
 62
     7
370
    15
100
AcDbLine
 10
3.676624851
 20
8.6437305836
 30
0.0
 11
3.676624851
 21
7.7882305731
 31
0.0
  0
LINE
  5
12B
330
1F
100
AcDbEntity
  8
0
  6
Continuous
 62
     7
370
    15
100
AcDbLine
 10
3.4459998469
 20
8.2159805784
 30
0.0
 11
3.4459998469
 21
8.6281055941
 31
0.0
  0
LINE
  5
12C
330
1F
100
AcDbEntity
  8
0
  6
Continuous
 62
     7
370
    15
100
AcDbLine
 10
3.4459998469
 20
7.8038555626
 30
0.0
 11
3.4459998469
 21
8.2159805784
 31
0.0
  0
SPLINE
  5
12D
330
1F
100
AcDbEntity
  8
0
  6
Continuous
 62
     7
370
    15
100
AcDbSpline
210
0.0
220
0.0
230
1.0
 70
     8
 71
     3
 72
    31
 73
    27
 74
     0
 42
0.00000001
 43
0.00000001
 12
1.0
 22
0.0
 32
0.0
 13
1.0
 23
0.0
 33
0.0
 40
0.0
 40
0.0
 40
0.0
 40
0.0
 40
0.0436332182657579
 40
0.0865377766972013
 40
0.129177336089892
 40
0.1714363236638287
 40
0.2134158945709079
 40
0.2552659545538503
 40
0.2973694811566236
 40
0.3399407478985554
 40
0.382347458751812
 40
0.4239529468152708
 40
0.4648711632610174
 40
0.505572294118273
 40
0.5460025771083162
 40
0.5865679748069133
 40
0.6270647991481679
 40
0.6682706840331737
 40
0.7095492248503334
 40
0.7504281535131889
 40
0.7910961944485934
 40
0.8320271447794346
 40
0.873135955335967
 40
0.9146107643654489
 40
0.9569559864804378
 40
1.0
 40
1.0
 40
1.0
 40
1.0
 10
3.93242953937887
 20
8.297971154817706
 30
0.0
 10
3.932926457599243
 20
8.297977982040647
 30
0.0
 10
3.933911995675519
 20
8.297991522474241
 30
0.0
 10
3.935377868424686
 20
8.298127903102964
 30
0.0
 10
3.936817332617869
 20
8.298346600081876
 30
0.0
 10
3.938228369235794
 20
8.298661477264416
 30
0.0
 10
3.939609376851466
 20
8.299055560286046
 30
0.0
 10
3.940966119572714
 20
8.29952373732972
 30
0.0
 10
3.942284146153101
 20
8.300107832170593
 30
0.0
 10
3.943580083854657
 20
8.300753188360876
 30
0.0
 10
3.944820548601856
 20
8.301488887134536
 30
0.0
 10
3.946004720370334
 20
8.302279116930034
 30
0.0
 10
3.94710275143234
 20
8.30315449557146
 30
0.0
 10
3.948142103253929
 20
8.30407796142502
 30
0.0
 10
3.949113091835004
 20
8.305068134381894
 30
0.0
 10
3.950009151007538
 20
8.306123727097761
 30
0.0
 10
3.950827263506871
 20
8.307251402499057
 30
0.0
 10
3.951580557675502
 20
8.30843284445801
 30
0.0
 10
3.952252552155423
 20
8.30966756622089
 30
0.0
 10
3.952838052563806
 20
8.310938662537424
 30
0.0
 10
3.953334778593093
 20
8.3122430034835
 30
0.0
 10
3.953735772027582
 20
8.313582470378913
 30
0.0
 10
3.954050000322271
 20
8.31495451922956
 30
0.0
 10
3.954266515632084
 20
8.31636098715321
 30
0.0
 10
3.954417968589104
 20
8.317799060511838
 30
0.0
 10
3.9544293841924
 20
8.31877171700146
 30
0.0
 10
3.954435138704417
 20
8.319262025162413
 30
0.0
  0
SPLINE
  5
12E
330
1F
100
AcDbEntity
  8
0
  6
Continuous
 62
     7
370
    15
100
AcDbSpline
210
0.0
220
0.0
230
1.0
 70
     8
 71
     3
 72
    23
 73
    19
 74
     0
 42
0.00000001
 43
0.00000001
 12
1.0
 22
0.0
 32
0.0
 13
1.0
 23
0.0
 33
0.0
 40
0.0
 40
0.0
 40
0.0
 40
0.0
 40
0.0645039992970557
 40
0.1268993215900397
 40
0.1877465401000115
 40
0.2481497329298263
 40
0.3085860647627416
 40
0.3695830050869937
 40
0.4318269653810491
 40
0.496179722524157
 40
0.5606678546118794
 40
0.6235044551176645
 40
0.6852604113304276
 40
0.7465368217511668
 40
0.8083273517367077
 40
0.8704861878877672
 40
0.9343168833592458
 40
1.0
 40
1.0
 40
1.0
 40
1.0
 10
3.910625272160601
 20
8.319030493239044
 30
0.0
 10
3.91064357644427
 20
8.318304528182942
 30
0.0
 10
3.910679586632865
 20
8.316876330332867
 30
0.0
 10
3.910994850249998
 20
8.314783412397846
 30
0.0
 10
3.911480461269275
 20
8.312772045036214
 30
0.0
 10
3.912196306128291
 20
8.310853233824266
 30
0.0
 10
3.913091527239014
 20
8.309010485167141
 30
0.0
 10
3.914197468193178
 20
8.307260146225278
 30
0.0
 10
3.915507752949715
 20
8.305601743938638
 30
0.0
 10
3.91699613887719
 20
8.304046856123891
 30
0.0
 10
3.918623209914568
 20
8.302627642357557
 30
0.0
 10
3.920350929853414
 20
8.301381905880318
 30
0.0
 10
3.922160789325128
 20
8.300327892126864
 30
0.0
 10
3.924057508010447
 20
8.299469219544086
 30
0.0
 10
3.926030959903929
 20
8.298788804540285
 30
0.0
 10
3.928093861409101
 20
8.298322481050254
 30
0.0
 10
3.930232470572832
 20
8.298015575352505
 30
0.0
 10
3.931690233040514
 20
8.297986102179772
 30
0.0
 10
3.93242953937887
 20
8.297971154817706
 30
0.0
  0
SPLINE
  5
12F
330
1F
100
AcDbEntity
  8
0
  6
Continuous
 62
     7
370
    15
100
AcDbSpline
210
0.0
220
0.0
230
1.0
 70
     8
 71
     3
 72
    31
 73
    27
 74
     0
 42
0.00000001
 43
0.00000001
 12
1.0
 22
0.0
 32
0.0
 13
1.0
 23
0.0
 33
0.0
 40
0.0
 40
0.0
 40
0.0
 40
0.0
 40
0.0420233285259238
 40
0.0836449111687119
 40
0.1249837954173945
 40
0.1662474611728953
 40
0.2077015560969882
 40
0.2496310707996494
 40
0.2917417703321306
 40
0.3347428753531985
 40
0.3774601685508652
 40
0.4195563188419396
 40
0.4610441763330337
 40
0.5020962839443966
 40
0.5428907140755994
 40
0.5838008186265052
 40
0.6248635833101929
 40
0.6662246890691704
 40
0.7073991864779364
 40
0.7485566775366933
 40
0.7896545909521796
 40
0.8307397264898321
 40
0.8720701422586045
 40
0.9139933952421323
 40
0.9564981300675879
 40
0.9999999999999999
 40
0.9999999999999999
 40
0.9999999999999999
 40
0.9999999999999999
 10
3.93242953937887
 20
8.340492495874939
 30
0.0
 10
3.931952648472519
 20
8.34048668251922
 30
0.0
 10
3.931003425769366
 20
8.340475111383862
 30
0.0
 10
3.929592270607725
 20
8.340322692474476
 30
0.0
 10
3.928199674444689
 20
8.340105459716076
 30
0.0
 10
3.92682534968155
 20
8.339795595361155
 30
0.0
 10
3.925475046655695
 20
8.339373416222612
 30
0.0
 10
3.924136178918014
 20
8.33888753335548
 30
0.0
 10
3.922820955514361
 20
8.338295686896378
 30
0.0
 10
3.921533718385242
 20
8.337627002740431
 30
0.0
 10
3.92028580430231
 20
8.336886870788375
 30
0.0
 10
3.919108277792061
 20
8.336068878394153
 30
0.0
 10
3.917998090449189
 20
8.335192208499999
 30
0.0
 10
3.916957960500298
 20
8.334254815170125
 30
0.0
 10
3.915990942107719
 20
8.333251924686328
 30
0.0
 10
3.915078002157214
 20
8.332198741013706
 30
0.0
 10
3.914255733783865
 20
8.331065161176813
 30
0.0
 10
3.913502153460048
 20
8.329881924469756
 30
0.0
 10
3.912827795999866
 20
8.328650572086048
 30
0.0
 10
3.912228135075115
 20
8.327384067636817
 30
0.0
 10
3.911737613176052
 20
8.326072080021264
 30
0.0
 10
3.911337569205653
 20
8.324728842952664
 30
0.0
 10
3.911005905461242
 20
8.323356483815944
 30
0.0
 10
3.91079579369484
 20
8.321944591915518
 30
0.0
 10
3.91064170002954
 20
8.320500261840845
 30
0.0
 10
3.910630790278389
 20
8.319524188209192
 30
0.0
 10
3.910625272160601
 20
8.319030493239044
 30
0.0
  0
SPLINE
  5
130
330
1F
100
AcDbEntity
  8
0
  6
Continuous
 62
     7
370
    15
100
AcDbSpline
210
0.0
220
0.0
230
1.0
 70
     8
 71
     3
 72
    31
 73
    27
 74
     0
 42
0.00000001
 43
0.00000001
 12
1.0
 22
0.0
 32
0.0
 13
1.0
 23
0.0
 33
0.0
 40
0.0
 40
0.0
 40
0.0
 40
0.0
 40
0.0429150821010497
 40
0.0851299705846992
 40
0.1264733185549986
 40
0.1674530378853887
 40
0.2079763328949881
 40
0.2482493780637602
 40
0.2887499869834431
 40
0.3296698569108731
 40
0.3705372867119749
 40
0.4111285639171175
 40
0.4518189126736376
 40
0.492405876934264
 40
0.5334858617420232
 40
0.5752630624415513
 40
0.6174406128021906
 40
0.6606716882923647
 40
0.703940204243489
 40
0.7468675221598703
 40
0.7890793003947231
 40
0.8311040424574041
 40
0.873237989854775
 40
0.9151657696593334
 40
0.9573806581429826
 40
1.0
 40
1.0
 40
1.0
 40
1.0
 10
3.954435138704417
 20
8.319262025162413
 30
0.0
 10
3.954429379582268
 20
8.319748979069262
 30
0.0
 10
3.95441795530262
 20
8.320714941843573
 30
0.0
 10
3.954266587976174
 20
8.32214298589375
 30
0.0
 10
3.954049771575502
 20
8.32353933344341
 30
0.0
 10
3.95373730575988
 20
8.324898502640515
 30
0.0
 10
3.953334565707982
 20
8.326220839947997
 30
0.0
 10
3.952837965818829
 20
8.327505103419451
 30
0.0
 10
3.952252376385643
 20
8.328756077447629
 30
0.0
 10
3.951580310667414
 20
8.329970670133472
 30
0.0
 10
3.950824860281035
 20
8.33113616528541
 30
0.0
 10
3.949999366247984
 20
8.332250369504841
 30
0.0
 10
3.949089575740614
 20
8.33329235843215
 30
0.0
 10
3.948121482623801
 20
8.334287855944948
 30
0.0
 10
3.947070905631152
 20
8.335215630261608
 30
0.0
 10
3.94594260369833
 20
8.336075989149727
 30
0.0
 10
3.944750274579326
 20
8.336889695828253
 30
0.0
 10
3.943487828045329
 20
8.337623749253526
 30
0.0
 10
3.942184939477234
 20
8.33830164438068
 30
0.0
 10
3.9408480227309
 20
8.3388824340355
 30
0.0
 10
3.939492223370988
 20
8.33937594395621
 30
0.0
 10
3.938120989133924
 20
8.339796872701816
 30
0.0
 10
3.936722778410428
 20
8.340104246103493
 30
0.0
 10
3.935307038891796
 20
8.340322888241742
 30
0.0
 10
3.933875729287904
 20
8.340475058334105
 30
0.0
 10
3.932913132432093
 20
8.340486664916252
 30
0.0
 10
3.93242953937887
 20
8.340492495874939
 30
0.0
  0
LINE
  5
131
330
1F
100
AcDbEntity
  8
0
  6
Continuous
 62
     7
370
    15
100
AcDbLine
 10
3.975036221
 20
8.1314005204
 30
0.0
 11
3.975036221
 21
8.0909805799
 31
0.0
  0
LINE
  5
132
330
1F
100
AcDbEntity
  8
0
  6
Continuous
 62
     7
370
    15
100
AcDbLine
 10
4.0089600977
 20
8.0909805799
 30
0.0
 11
3.975036221
 21
8.1314005204
 31
0.0
  0
LINE
  5
133
330
1F
100
AcDbEntity
  8
0
  6
Continuous
 62
     7
370
    15
100
AcDbLine
 10
4.0100118414
 20
8.0909805799
 30
0.0
 11
4.0089600977
 21
8.0909805799
 31
0.0
  0
LINE
  5
134
330
1F
100
AcDbEntity
  8
0
  6
Continuous
 62
     7
370
    15
100
AcDbLine
 10
4.0100118414
 20
8.1424541323
 30
0.0
 11
4.0100118414
 21
8.0909805799
 31
0.0
  0
LINE
  5
135
330
1F
100
AcDbEntity
  8
0
  6
Continuous
 62
     7
370
    15
100
AcDbLine
 10
4.0053924195
 20
8.1424541323
 30
0.0
 11
4.0100118414
 21
8.1424541323
 31
0.0
  0
LINE
  5
136
330
1F
100
AcDbEntity
  8
0
  6
Continuous
 62
     7
370
    15
100
AcDbLine
 10
4.0053924195
 20
8.1019413941
 30
0.0
 11
4.0053924195
 21
8.1424541323
 31
0.0
  0
LINE
  5
137
330
1F
100
AcDbEntity
  8
0
  6
Continuous
 62
     7
370
    15
100
AcDbLine
 10
3.9713860528
 20
8.1424541323
 30
0.0
 11
4.0053924195
 21
8.1019413941
 31
0.0
  0
LINE
  5
138
330
1F
100
AcDbEntity
  8
0
  6
Continuous
 62
     7
370
    15
100
AcDbLine
 10
3.9704167996
 20
8.1424541323
 30
0.0
 11
3.9713860528
 21
8.1424541323
 31
0.0
  0
LINE
  5
139
330
1F
100
AcDbEntity
  8
0
  6
Continuous
 62
     7
370
    15
100
AcDbLine
 10
3.9704167996
 20
8.0909805799
 30
0.0
 11
3.9704167996
 21
8.1424541323
 31
0.0
  0
LINE
  5
13A
330
1F
100
AcDbEntity
  8
0
  6
Continuous
 62
     7
370
    15
100
AcDbLine
 10
3.975036221
 20
8.0909805799
 30
0.0
 11
3.9704167996
 21
8.0909805799
 31
0.0
  0
LINE
  5
13B
330
1F
100
AcDbEntity
  8
0
  6
Continuous
 62
     7
370
    15
100
AcDbLine
 10
4.0195056759
 20
8.2941055809
 30
0.0
 11
4.0195056759
 21
8.339203969
 31
0.0
  0
LINE
  5
13C
330
1F
100
AcDbEntity
  8
0
  6
Continuous
 62
     7
370
    15
100
AcDbLine
 10
4.0240155138
 20
8.2941055809
 30
0.0
 11
4.0195056759
 21
8.2941055809
 31
0.0
  0
LINE
  5
13D
330
1F
100
AcDbEntity
  8
0
  6
Continuous
 62
     7
370
    15
100
AcDbLine
 10
4.0240155138
 20
8.339203969
 30
0.0
 11
4.0240155138
 21
8.2941055809
 31
0.0
  0
LINE
  5
13E
330
1F
100
AcDbEntity
  8
0
  6
Continuous
 62
     7
370
    15
100
AcDbLine
 10
4.0349679818
 20
8.339203969
 30
0.0
 11
4.0240155138
 21
8.339203969
 31
0.0
  0
LINE
  5
13F
330
1F
100
AcDbEntity
  8
0
  6
Continuous
 62
     7
370
    15
100
AcDbLine
 10
4.0349679818
 20
8.3443580695
 30
0.0
 11
4.0349679818
 21
8.339203969
 31
0.0
  0
LINE
  5
140
330
1F
100
AcDbEntity
  8
0
  6
Continuous
 62
     7
370
    15
100
AcDbLine
 10
4.0085532101
 20
8.3443580695
 30
0.0
 11
4.0349679818
 21
8.3443580695
 31
0.0
  0
LINE
  5
141
330
1F
100
AcDbEntity
  8
0
  6
Continuous
 62
     7
370
    15
100
AcDbLine
 10
4.0085532101
 20
8.339203969
 30
0.0
 11
4.0085532101
 21
8.3443580695
 31
0.0
  0
LINE
  5
142
330
1F
100
AcDbEntity
  8
0
  6
Continuous
 62
     7
370
    15
100
AcDbLine
 10
4.0195056759
 20
8.339203969
 30
0.0
 11
4.0085532101
 21
8.339203969
 31
0.0
  0
SPLINE
  5
143
330
1F
100
AcDbEntity
  8
0
  6
Continuous
 62
     7
370
    15
100
AcDbSpline
210
0.0
220
0.0
230
1.0
 70
     8
 71
     3
 72
    23
 73
    19
 74
     0
 42
0.00000001
 43
0.00000001
 12
1.0
 22
0.0
 32
0.0
 13
1.0
 23
0.0
 33
0.0
 40
0.0
 40
0.0
 40
0.0
 40
0.0
 40
0.065818876843307
 40
0.1297465269068316
 40
0.1920719544880059
 40
0.2534594242982026
 40
0.3145695877964205
 40
0.3762798811880262
 40
0.4390256536685599
 40
0.5032670288290859
 40
0.567492822879295
 40
0.6297047956052447
 40
0.6909996492157555
 40
0.751451650917447
 40
0.8120043642646945
 40
0.8731496810680427
 40
0.9356354837317858
 40
1.0
 40
1.0
 40
1.0
 40
1.0
 10
3.93261073827542
 20
8.292817052871374
 30
0.0
 10
3.931700101073277
 20
8.29283929874382
 30
0.0
 10
3.929904992740885
 20
8.29288315128015
 30
0.0
 10
3.927269794522334
 20
8.29325906010504
 30
0.0
 10
3.924738824162065
 20
8.293846889425803
 30
0.0
 10
3.922319319470839
 20
8.294686959451848
 30
0.0
 10
3.920009931226314
 20
8.295772660718
 30
0.0
 10
3.917806142810286
 20
8.297096517861885
 30
0.0
 10
3.915716799933069
 20
8.298667369777082
 30
0.0
 10
3.913759224849072
 20
8.300450135503151
 30
0.0
 10
3.911968093897568
 20
8.302390909104151
 30
0.0
 10
3.910406542505591
 20
8.304470418398704
 30
0.0
 10
3.909082387662283
 20
8.306647865519139
 30
0.0
 10
3.908000331830202
 20
8.308929293197249
 30
0.0
 10
3.907143678149103
 20
8.311303672462477
 30
0.0
 10
3.906559244255287
 20
8.313786841697713
 30
0.0
 10
3.906181116463084
 20
8.316364643964723
 30
0.0
 10
3.906137542576071
 20
8.318119789825236
 30
0.0
 10
3.906115432957561
 20
8.319010360028315
 30
0.0
  0
SPLINE
  5
144
330
1F
100
AcDbEntity
  8
0
  6
Continuous
 62
     7
370
    15
100
AcDbSpline
210
0.0
220
0.0
230
1.0
 70
     8
 71
     3
 72
    23
 73
    19
 74
     0
 42
0.00000001
 43
0.00000001
 12
1.0
 22
0.0
 32
0.0
 13
1.0
 23
0.0
 33
0.0
 40
0.0
 40
0.0
 40
0.0
 40
0.0
 40
0.065226503892276
 40
0.1285689957067288
 40
0.1903203781044671
 40
0.2513779886240633
 40
0.3123875283336944
 40
0.3737887042767238
 40
0.4364311597804506
 40
0.5005667553098542
 40
0.564686795384744
 40
0.6271355178835135
 40
0.6884554088949799
 40
0.7492457464637473
 40
0.8101551773646786
 40
0.8716709256529236
 40
0.9347734961077242
 40
1.0
 40
1.0
 40
1.0
 40
1.0
 10
3.958944977907457
 20
8.31925195855705
 30
0.0
 10
3.958922724200362
 20
8.318348024644528
 30
0.0
 10
3.958878859565572
 20
8.316566266181589
 30
0.0
 10
3.958503132041148
 20
8.313951076944134
 30
0.0
 10
3.95791387129715
 20
8.311437150038318
 30
0.0
 10
3.957072554579035
 20
8.30902868220812
 30
0.0
 10
3.955992478035215
 20
8.306723132763578
 30
0.0
 10
3.954662148484023
 20
8.304526568198302
 30
0.0
 10
3.953095114759614
 20
8.30243826840285
 30
0.0
 10
3.951311770750065
 20
8.300481110863393
 30
0.0
 10
3.949367702164849
 20
8.298686415251067
 30
0.0
 10
3.947282506991119
 20
8.297122573781284
 30
0.0
 10
3.945103080449666
 20
8.295776896350747
 30
0.0
 10
3.942801376837183
 20
8.294703163172032
 30
0.0
 10
3.940407921809599
 20
8.293844966579993
 30
0.0
 10
3.937901294055471
 20
8.293259846209939
 30
0.0
 10
3.935293239094669
 20
8.292882420643455
 30
0.0
 10
3.933514717131103
 20
8.292839081227667
 30
0.0
 10
3.93261073827542
 20
8.292817052871374
 30
0.0
  0
SPLINE
  5
145
330
1F
100
AcDbEntity
  8
0
  6
Continuous
 62
     7
370
    15
100
AcDbSpline
210
0.0
220
0.0
230
1.0
 70
     8
 71
     3
 72
    23
 73
    19
 74
     0
 42
0.00000001
 43
0.00000001
 12
1.0
 22
0.0
 32
0.0
 13
1.0
 23
0.0
 33
0.0
 40
0.0
 40
0.0
 40
0.0
 40
0.0
 40
0.0665700352151802
 40
0.1307490414821779
 40
0.1934128000295039
 40
0.2549893988897087
 40
0.3161135558759003
 40
0.3772617579089842
 40
0.4394007841555528
 40
0.502970589371976
 40
0.566524976360731
 40
0.6282311025133088
 40
0.6890906105998628
 40
0.7493446689958042
 40
0.8101695933722066
 40
0.8716098243170437
 40
0.9348691840727639
 40
1.0
 40
1.0
 40
1.0
 40
1.0
 10
3.932208074060863
 20
8.34564659782127
 30
0.0
 10
3.93313857947566
 20
8.345623029697782
 30
0.0
 10
3.934966168881093
 20
8.345576739958778
 30
0.0
 10
3.937652163215685
 20
8.345222400957988
 30
0.0
 10
3.940216405772845
 20
8.34460938672166
 30
0.0
 10
3.94267978502048
 20
8.34379295624034
 30
0.0
 10
3.945012835685139
 20
8.342703849941925
 30
0.0
 10
3.947233118546125
 20
8.341387447837727
 30
0.0
 10
3.949335350851843
 20
8.339829958526195
 30
0.0
 10
3.951291197753202
 20
8.338043421676797
 30
0.0
 10
3.953081004222706
 20
8.336099605619157
 30
0.0
 10
3.954657868419345
 20
8.33402521267467
 30
0.0
 10
3.955979398365447
 20
8.33183278534805
 30
0.0
 10
3.957064648169518
 20
8.329528911940814
 30
0.0
 10
3.957916049034223
 20
8.327118802789506
 30
0.0
 10
3.958503558747536
 20
8.324589609086152
 30
0.0
 10
3.958878846528429
 20
8.321957718132227
 30
0.0
 10
3.958922720938646
 20
8.320162600484666
 30
0.0
 10
3.958944977907457
 20
8.31925195855705
 30
0.0
  0
SPLINE
  5
146
330
1F
100
AcDbEntity
  8
0
  6
Continuous
 62
     7
370
    15
100
AcDbSpline
210
0.0
220
0.0
230
1.0
 70
     8
 71
     3
 72
    31
 73
    27
 74
     0
 42
0.00000001
 43
0.00000001
 12
1.0
 22
0.0
 32
0.0
 13
1.0
 23
0.0
 33
0.0
 40
0.0
 40
0.0
 40
0.0
 40
0.0
 40
0.0432089861713365
 40
0.0858728716306187
 40
0.1281200066967026
 40
0.1701519644541989
 40
0.2119176209878614
 40
0.253753002619124
 40
0.2960064088559506
 40
0.3384433571447839
 40
0.381015368162034
 40
0.4228204794407608
 40
0.4640890557943135
 40
0.5051258486836864
 40
0.5459749706852409
 40
0.5869852111338598
 40
0.6283385916346624
 40
0.6700838015912061
 40
0.7119916023637224
 40
0.7530391548630188
 40
0.7940493953116378
 40
0.8348855427015816
 40
0.8754983129295131
 40
0.9165472998303793
 40
0.9580037786449609
 40
1.0
 40
1.0
 40
1.0
 40
1.0
 10
3.906115432957561
 20
8.319010360028315
 30
0.0
 10
3.906123109176847
 20
8.319608115872608
 30
0.0
 10
3.906138364776475
 20
8.320796086603508
 30
0.0
 10
3.906322026047544
 20
8.322560187484678
 30
0.0
 10
3.906588532269855
 20
8.324295918070758
 30
0.0
 10
3.906970478684185
 20
8.32599834259887
 30
0.0
 10
3.907470012408665
 20
8.32766329365181
 30
0.0
 10
3.908059431482712
 20
8.329302253800916
 30
0.0
 10
3.908779332133232
 20
8.330898613631724
 30
0.0
 10
3.909593144682995
 20
8.332459935528002
 30
0.0
 10
3.910501448576316
 20
8.33396188071599
 30
0.0
 10
3.911504714484446
 20
8.335381579475053
 30
0.0
 10
3.912567703601017
 20
8.336730945039262
 30
0.0
 10
3.913733035872281
 20
8.337975010193125
 30
0.0
 10
3.914962304414137
 20
8.33914996600022
 30
0.0
 10
3.916275450584511
 20
8.340237756137567
 30
0.0
 10
3.917664461742304
 20
8.341248189508727
 30
0.0
 10
3.919135314620056
 20
8.342158769596768
 30
0.0
 10
3.920651766540689
 20
8.34298232375871
 30
0.0
 10
3.922215003574851
 20
8.343689043978719
 30
0.0
 10
3.923803794630015
 20
8.344295606822033
 30
0.0
 10
3.925425581134163
 20
8.344787231639739
 30
0.0
 10
3.927076056416042
 20
8.345175353704272
 30
0.0
 10
3.92875882269413
 20
8.345439643827524
 30
0.0
 10
3.930472539364183
 20
8.345623773529637
 30
0.0
 10
3.931627073455953
 20
8.345638956990308
 30
0.0
 10
3.932208074060863
 20
8.34564659782127
 30
0.0
  0
LINE
  5
147
330
1F
100
AcDbEntity
  8
0
  6
Continuous
 62
     7
370
    15
100
AcDbLine
 10
3.6966248566
 20
7.8038555626
 30
0.0
 11
4.2703748553
 21
7.8038555626
 31
0.0
  0
LINE
  5
148
330
1F
100
AcDbEntity
  8
0
  6
Continuous
 62
     7
370
    15
100
AcDbLine
 10
3.6966248566
 20
7.8038555626
 30
0.0
 11
3.6966248566
 21
8.2159805784
 31
0.0
  0
LINE
  5
149
330
1F
100
AcDbEntity
  8
0
  6
Continuous
 62
     7
370
    15
100
AcDbLine
 10
3.6966248566
 20
8.2159805784
 30
0.0
 11
3.6966248566
 21
8.5968555785
 31
0.0
  0
LINE
  5
14A
330
1F
100
AcDbEntity
  8
0
  6
Continuous
 62
     7
370
    15
100
AcDbLine
 10
4.2703748553
 20
8.5968555785
 30
0.0
 11
3.6966248566
 21
8.5968555785
 31
0.0
  0
LINE
  5
14B
330
1F
100
AcDbEntity
  8
0
  6
Continuous
 62
     7
370
    15
100
AcDbLine
 10
4.2703748553
 20
7.8038555626
 30
0.0
 11
4.2703748553
 21
8.5968555785
 31
0.0
  0
SPLINE
  5
14C
330
1F
100
AcDbEntity
  8
0
  6
Continuous
 62
     7
370
    15
100
AcDbSpline
210
0.0
220
0.0
230
1.0
 70
     8
 71
     3
 72
    15
 73
    11
 74
     0
 42
0.00000001
 43
0.00000001
 12
1.0
 22
0.0
 32
0.0
 13
1.0
 23
0.0
 33
0.0
 40
0.0
 40
0.0
 40
0.0
 40
0.0
 40
0.0781298651584275
 40
0.1694654174977322
 40
0.2743352908540837
 40
0.3921101633539195
 40
0.5236873298575195
 40
0.6683654211389629
 40
0.8271319021257839
 40
1.0
 40
1.0
 40
1.0
 40
1.0
 10
3.970149109677509
 20
8.30341718831959
 30
0.0
 10
3.970074776788946
 20
8.303684712129671
 30
0.0
 10
3.969913547098243
 20
8.304264977231549
 30
0.0
 10
3.969740889613254
 20
8.305225323763937
 30
0.0
 10
3.969595744880598
 20
8.306331092816892
 30
0.0
 10
3.969459265449952
 20
8.307582360079639
 30
0.0
 10
3.969378732842543
 20
8.308980095389662
 30
0.0
 10
3.969308128968695
 20
8.310523692860285
 30
0.0
 10
3.969252684404319
 20
8.312215018963172
 30
0.0
 10
3.969253011367197
 20
8.313393145835125
 30
0.0
 10
3.96925318180012
 20
8.314007257162443
 30
0.0
  0
SPLINE
  5
14D
330
1F
100
AcDbEntity
  8
0
  6
Continuous
 62
     7
370
    15
100
AcDbSpline
210
0.0
220
0.0
230
1.0
 70
     8
 71
     3
 72
    23
 73
    19
 74
     0
 42
0.00000001
 43
0.00000001
 12
1.0
 22
0.0
 32
0.0
 13
1.0
 23
0.0
 33
0.0
 40
0.0
 40
0.0
 40
0.0
 40
0.0
 40
0.0711745037456344
 40
0.1396441217506233
 40
0.2063172239119628
 40
0.271373240191883
 40
0.3354180839163128
 40
0.3980763446528608
 40
0.4606079146322841
 40
0.5229695111172334
 40
0.5847157240924584
 40
0.6448949403163614
 40
0.70429056082079
 40
0.762998189919322
 40
0.8210874309038769
 40
0.8801038914767003
 40
0.9393884881896686
 40
1.0
 40
1.0
 40
1.0
 40
1.0
 10
3.985853014045238
 20
8.292817052871374
 30
0.0
 10
3.985369597937806
 20
8.292828320417577
 30
0.0
 10
3.984421137264254
 20
8.292850427302922
 30
0.0
 10
3.983023571367203
 20
8.292977103073682
 30
0.0
 10
3.981683779627927
 20
8.293215707576604
 30
0.0
 10
3.980387611637516
 20
8.293519518989315
 30
0.0
 10
3.979152714070595
 20
8.293938534869831
 30
0.0
 10
3.977962541980736
 20
8.294428110816732
 30
0.0
 10
3.97683747936618
 20
8.29502937846534
 30
0.0
 10
3.975759274366629
 20
8.295698359665936
 30
0.0
 10
3.974756740612867
 20
8.296451065041309
 30
0.0
 10
3.973836439366127
 20
8.297271475397677
 30
0.0
 10
3.972996851270505
 20
8.298146448525678
 30
0.0
 10
3.972252128027415
 20
8.29908545752192
 30
0.0
 10
3.97158993103468
 20
8.300081199304346
 30
0.0
 10
3.971019490374755
 20
8.301136490763147
 30
0.0
 10
3.970529697347706
 20
8.302250923324584
 30
0.0
 10
3.970276904803412
 20
8.303025575575552
 30
0.0
 10
3.970149109677509
 20
8.30341718831959
 30
0.0
  0
LINE
  5
14E
330
1F
100
AcDbEntity
  8
0
  6
Continuous
 62
     7
370
    15
100
AcDbLine
 10
4.0014663197
 20
8.3443580695
 30
0.0
 11
4.0014663197
 21
8.3140072568
 31
0.0
  0
LINE
  5
14F
330
1F
100
AcDbEntity
  8
0
  6
Continuous
 62
     7
370
    15
100
AcDbLine
 10
3.9969564795
 20
8.3443580695
 30
0.0
 11
4.0014663197
 21
8.3443580695
 31
0.0
  0
LINE
  5
150
330
1F
100
AcDbEntity
  8
0
  6
Continuous
 62
     7
370
    15
100
AcDbLine
 10
3.9969564795
 20
8.3142488598
 30
0.0
 11
3.9969564795
 21
8.3443580695
 31
0.0
  0
SPLINE
  5
151
330
1F
100
AcDbEntity
  8
0
  6
Continuous
 62
     7
370
    15
100
AcDbSpline
210
0.0
220
0.0
230
1.0
 70
     8
 71
     3
 72
    15
 73
    11
 74
     0
 42
0.00000001
 43
0.00000001
 12
1.0
 22
0.0
 32
0.0
 13
1.0
 23
0.0
 33
0.0
 40
0.0
 40
0.0
 40
0.0
 40
0.0
 40
0.0698351039154363
 40
0.1556207549116648
 40
0.257801556658275
 40
0.3738112340663709
 40
0.5064024926743712
 40
0.655564458143102
 40
0.8200792824038514
 40
1.0
 40
1.0
 40
1.0
 40
1.0
 10
3.99644308288809
 20
8.306447236534133
 30
0.0
 10
3.996486158253324
 20
8.306624535579212
 30
0.0
 10
3.996582147526339
 20
8.307019629302763
 30
0.0
 10
3.996671841695063
 20
8.307687575266586
 30
0.0
 10
3.996765261446281
 20
8.308475668818623
 30
0.0
 10
3.996830080989646
 20
8.3093895723443
 30
0.0
 10
3.996893273076036
 20
8.310426223470275
 30
0.0
 10
3.996931078354562
 20
8.311591022546143
 30
0.0
 10
3.99694855233733
 20
8.31287974001258
 30
0.0
 10
3.996953759649424
 20
8.313779075325396
 30
0.0
 10
3.996956479761651
 20
8.314248855691178
 30
0.0
  0
SPLINE
  5
152
330
1F
100
AcDbEntity
  8
0
  6
Continuous
 62
     7
370
    15
100
AcDbSpline
210
0.0
220
0.0
230
1.0
 70
     8
 71
     3
 72
    19
 73
    15
 74
     0
 42
0.00000001
 43
0.00000001
 12
1.0
 22
0.0
 32
0.0
 13
1.0
 23
0.0
 33
0.0
 40
0.0
 40
0.0
 40
0.0
 40
0.0
 40
0.0828906475568685
 40
0.1653025405594715
 40
0.2477618761145891
 40
0.3315277110598009
 40
0.4152798127751564
 40
0.4963662304840514
 40
0.5771513480211473
 40
0.657782540138881
 40
0.7393216419943467
 40
0.8237930816663174
 40
0.9094759533791144
 40
1.0
 40
1.0
 40
1.0
 40
1.0
 10
3.985601348911139
 20
8.297971154817706
 30
0.0
 10
3.986011319387452
 20
8.297986573004794
 30
0.0
 10
3.986828892458556
 20
8.298017320327583
 30
0.0
 10
3.988043659358151
 20
8.298207726036992
 30
0.0
 10
3.989226748204902
 20
8.298550886903536
 30
0.0
 10
3.99038400111392
 20
8.298993679696158
 30
0.0
 10
3.991468751225201
 20
8.299578727717895
 30
0.0
 10
3.992481603766566
 20
8.300254564025627
 30
0.0
 10
3.993385630831013
 20
8.301047273801208
 30
0.0
 10
3.99421060445672
 20
8.30192454371421
 30
0.0
 10
3.994928998831737
 20
8.302914371394955
 30
0.0
 10
3.995551715412339
 20
8.303995204017493
 30
0.0
 10
3.996061791573918
 20
8.305183307176291
 30
0.0
 10
3.996313678967154
 20
8.306018279963101
 30
0.0
 10
3.99644308288809
 20
8.306447236534133
 30
0.0
  0
SPLINE
  5
153
330
1F
100
AcDbEntity
  8
0
  6
Continuous
 62
     7
370
    15
100
AcDbSpline
210
0.0
220
0.0
230
1.0
 70
     8
 71
     3
 72
    19
 73
    15
 74
     0
 42
0.00000001
 43
0.00000001
 12
1.0
 22
0.0
 32
0.0
 13
1.0
 23
0.0
 33
0.0
 40
0.0
 40
0.0
 40
0.0
 40
0.0
 40
0.0863150037405922
 40
0.1677664659179403
 40
0.2444326843848596
 40
0.3181346623514534
 40
0.391884106979964
 40
0.4700680503917548
 40
0.55390417871391
 40
0.6443394983098211
 40
0.73687466333451
 40
0.826168364307647
 40
0.9136785948895816
 40
1.0
 40
1.0
 40
1.0
 40
1.0
 10
3.973964353110438
 20
8.30756462972953
 30
0.0
 10
3.974038690315417
 20
8.30709302065025
 30
0.0
 10
3.974183176089907
 20
8.30617637597555
 30
0.0
 10
3.974551403074114
 20
8.304871128008163
 30
0.0
 10
3.975065665575062
 20
8.303694767975712
 30
0.0
 10
3.975675056646192
 20
8.302610587775204
 30
0.0
 10
3.97647812899333
 20
8.301648764228876
 30
0.0
 10
3.977440156065592
 20
8.300762717240243
 30
0.0
 10
3.978605694729635
 20
8.299987797872333
 30
0.0
 10
3.979901643456187
 20
8.299279226051253
 30
0.0
 10
3.981298450831114
 20
8.298709720533331
 30
0.0
 10
3.982725783420694
 20
8.298279080144516
 30
0.0
 10
3.984162186051382
 20
8.298016634344295
 30
0.0
 10
3.985123820146326
 20
8.297986245383731
 30
0.0
 10
3.985601348911139
 20
8.297971154817706
 30
0.0
  0
SPLINE
  5
154
330
1F
100
AcDbEntity
  8
0
  6
Continuous
 62
     7
370
    15
100
AcDbSpline
210
0.0
220
0.0
230
1.0
 70
     8
 71
     3
 72
    15
 73
    11
 74
     0
 42
0.00000001
 43
0.00000001
 12
1.0
 22
0.0
 32
0.0
 13
1.0
 23
0.0
 33
0.0
 40
0.0
 40
0.0
 40
0.0
 40
0.0
 40
0.1910785917157215
 40
0.3626045563099715
 40
0.5160987502785604
 40
0.6500380260398416
 40
0.7659767209867907
 40
0.8623740257993889
 40
0.9408420582211754
 40
1.0
 40
1.0
 40
1.0
 40
1.0
 10
3.97376302100316
 20
8.314248855691178
 30
0.0
 10
3.973762349859957
 20
8.313822703978538
 30
0.0
 10
3.973761076250073
 20
8.313014007665181
 30
0.0
 10
3.973769583478573
 20
8.311862962796752
 30
0.0
 10
3.973793408450342
 20
8.310839643134123
 30
0.0
 10
3.973808429058029
 20
8.30994010414375
 30
0.0
 10
3.973841844576445
 20
8.30916847354576
 30
0.0
 10
3.973869096459418
 20
8.30852057085909
 30
0.0
 10
3.973904137619792
 20
8.307999463947594
 30
0.0
 10
3.973946250896789
 20
8.307695351273654
 30
0.0
 10
3.973964353110438
 20
8.30756462972953
 30
0.0
  0
LINE
  5
155
330
1F
100
AcDbEntity
  8
0
  6
Continuous
 62
     7
370
    15
100
AcDbLine
 10
3.9737630211
 20
8.3443580695
 30
0.0
 11
3.9737630211
 21
8.3142488598
 31
0.0
  0
LINE
  5
156
330
1F
100
AcDbEntity
  8
0
  6
Continuous
 62
     7
370
    15
100
AcDbLine
 10
3.9692531821
 20
8.3443580695
 30
0.0
 11
3.9737630211
 21
8.3443580695
 31
0.0
  0
LINE
  5
157
330
1F
100
AcDbEntity
  8
0
  6
Continuous
 62
     7
370
    15
100
AcDbLine
 10
3.9692531821
 20
8.3140072568
 30
0.0
 11
3.9692531821
 21
8.3443580695
 31
0.0
  0
LINE
  5
158
330
1F
100
AcDbEntity
  8
0
  6
Continuous
 62
     7
370
    15
100
AcDbLine
 10
3.9572184508
 20
8.0909805799
 30
0.0
 11
3.9525990313
 21
8.0909805799
 31
0.0
  0
LINE
  5
159
330
1F
100
AcDbEntity
  8
0
  6
Continuous
 62
     7
370
    15
100
AcDbLine
 10
3.9572184508
 20
8.1424541323
 30
0.0
 11
3.9572184508
 21
8.0909805799
 31
0.0
  0
LINE
  5
15A
330
1F
100
AcDbEntity
  8
0
  6
Continuous
 62
     7
370
    15
100
AcDbLine
 10
3.9525990313
 20
8.1424541323
 30
0.0
 11
3.9572184508
 21
8.1424541323
 31
0.0
  0
LINE
  5
15B
330
1F
100
AcDbEntity
  8
0
  6
Continuous
 62
     7
370
    15
100
AcDbLine
 10
3.9525990313
 20
8.0909805799
 30
0.0
 11
3.9525990313
 21
8.1424541323
 31
0.0
  0
SPLINE
  5
15C
330
1F
100
AcDbEntity
  8
0
  6
Continuous
 62
     7
370
    15
100
AcDbSpline
210
0.0
220
0.0
230
1.0
 70
     8
 71
     3
 72
    31
 73
    27
 74
     0
 42
0.00000001
 43
0.00000001
 12
1.0
 22
0.0
 32
0.0
 13
1.0
 23
0.0
 33
0.0
 40
0.0
 40
0.0
 40
0.0
 40
0.0
 40
0.0548580354451539
 40
0.1070587915426411
 40
0.156978354576524
 40
0.2039922771829772
 40
0.248491535786849
 40
0.2904833137405235
 40
0.3304890042981892
 40
0.3678859257629637
 40
0.4038581313538711
 40
0.4400093433074114
 40
0.4762950107796838
 40
0.5127922945733485
 40
0.5504848246303716
 40
0.5883811157748433
 40
0.6276453271698538
 40
0.6679794644543812
 40
0.7084327575000836
 40
0.7486023022886338
 40
0.789087777195782
 40
0.8294612046317061
 40
0.8703710453051784
 40
0.9122142271494423
 40
0.9555465749316859
 40
1.0
 40
1.0
 40
1.0
 40
1.0
 10
4.001466318964691
 20
8.314007257162443
 30
0.0
 10
4.00146267034095
 20
8.313460246145686
 30
0.0
 10
4.001455549829885
 20
8.312392720888191
 30
0.0
 10
4.001393802774307
 20
8.3108284130273
 30
0.0
 10
4.001295350961802
 20
8.30934448586427
 30
0.0
 10
4.001156250795355
 20
8.307940739926309
 30
0.0
 10
4.000971938959788
 20
8.306622198345098
 30
0.0
 10
4.000766977407666
 20
8.305377303819244
 30
0.0
 10
4.000505958300395
 20
8.304214992454845
 30
0.0
 10
4.000201092196091
 20
8.303126201565997
 30
0.0
 10
3.999852576102801
 20
8.302089772400842
 30
0.0
 10
3.999401148640624
 20
8.301106135616342
 30
0.0
 10
3.998892528792195
 20
8.300145388340807
 30
0.0
 10
3.998289288480085
 20
8.299222061811024
 30
0.0
 10
3.997611434273831
 20
8.29833206784297
 30
0.0
 10
3.996843982769603
 20
8.297480803875882
 30
0.0
 10
3.996012316042051
 20
8.296654666568356
 30
0.0
 10
3.995102608645752
 20
8.295874847417013
 30
0.0
 10
3.994129856399357
 20
8.295159701635503
 30
0.0
 10
3.993096952888242
 20
8.294530859570479
 30
0.0
 10
3.992011832554879
 20
8.29399927982349
 30
0.0
 10
3.99087731608213
 20
8.293561710907088
 30
0.0
 10
3.989692919317465
 20
8.293232706404757
 30
0.0
 10
3.988458612395542
 20
8.292987543786747
 30
0.0
 10
3.987171585817794
 20
8.292848239601414
 30
0.0
 10
3.986296264098255
 20
8.292827536578088
 30
0.0
 10
3.985853014045238
 20
8.292817052871374
 30
0.0
  0
LINE
  5
15D
330
1F
100
AcDbEntity
  8
0
  6
Continuous
 62
     7
370
    15
100
AcDbLine
 10
3.6841248577
 20
8.2159805784
 30
0.0
 11
3.6841248577
 21
8.6281055941
 31
0.0
  0
LINE
  5
15E
330
1F
100
AcDbEntity
  8
0
  6
Continuous
 62
     7
370
    15
100
AcDbLine
 10
3.6841248577
 20
7.8038555626
 30
0.0
 11
3.6841248577
 21
8.2159805784
 31
0.0
  0
LINE
  5
15F
330
1F
100
AcDbEntity
  8
0
  6
Continuous
 62
     7
370
    15
100
AcDbLine
 10
4.2741248586
 20
8.2159805784
 30
0.0
 11
4.2741248586
 21
8.6281055941
 31
0.0
  0
LINE
  5
160
330
1F
100
AcDbEntity
  8
0
  6
Continuous
 62
     7
370
    15
100
AcDbLine
 10
4.2741248586
 20
7.8038555626
 30
0.0
 11
4.2741248586
 21
8.2159805784
 31
0.0
  0
LINE
  5
161
330
1F
100
AcDbEntity
  8
0
  6
Continuous
 62
     7
370
    15
100
AcDbLine
 10
3.6966248566
 20
8.6281055941
 30
0.0
 11
4.2703748553
 21
8.6281055941
 31
0.0
  0
LINE
  5
162
330
1F
100
AcDbEntity
  8
0
  6
Continuous
 62
     7
370
    15
100
AcDbLine
 10
4.2703748553
 20
8.6281055941
 30
0.0
 11
4.2703748553
 21
8.5968555785
 31
0.0
  0
LINE
  5
163
330
1F
100
AcDbEntity
  8
0
  6
Continuous
 62
     7
370
    15
100
AcDbLine
 10
3.6966248566
 20
8.5968555785
 30
0.0
 11
3.6966248566
 21
8.6281055941
 31
0.0
  0
LINE
  5
164
330
1F
100
AcDbEntity
  8
0
  6
Continuous
 62
     7
370
    15
100
AcDbLine
 10
3.6803748544
 20
8.2159805784
 30
0.0
 11
3.6803748544
 21
8.6281055941
 31
0.0
  0
LINE
  5
165
330
1F
100
AcDbEntity
  8
0
  6
Continuous
 62
     7
370
    15
100
AcDbLine
 10
3.6803748544
 20
7.8038555626
 30
0.0
 11
3.6803748544
 21
8.2159805784
 31
0.0
  0
LINE
  5
166
330
1F
100
AcDbEntity
  8
0
  6
Continuous
 62
     8
370
    15
100
AcDbLine
 10
3.8264790715
 20
7.8008555673
 30
0.0
 11
3.8264790715
 21
7.8038555626
 31
0.0
  0
LINE
  5
167
330
1F
100
AcDbEntity
  8
0
  6
Continuous
 62
     8
370
    15
100
AcDbLine
 10
3.7681522637
 20
7.8038555626
 30
0.0
 11
3.7681522637
 21
7.8008555673
 31
0.0
  0
LINE
  5
168
330
1F
100
AcDbEntity
  8
0
  6
Continuous
 62
     8
370
    15
100
AcDbLine
 10
4.1739998536
 20
7.8008555673
 30
0.0
 11
4.1739998536
 21
7.8038555626
 31
0.0
  0
LINE
  5
169
330
1F
100
AcDbEntity
  8
0
  6
Continuous
 62
     8
370
    15
100
AcDbLine
 10
3.40042884
 20
8.1946313467
 30
0.0
 11
3.4023343113
 21
8.1919545597
 31
0.0
  0
ARC
  5
16A
330
1F
100
AcDbEntity
  8
0
  6
Continuous
 62
     8
370
    15
100
AcDbCircle
 10
3.3687747708
 20
8.4290527773
 30
0.0
 40
0.0147511134154173
100
AcDbArc
 50
3.40442074
 51
93.4975647254
  0
ARC
  5
16B
330
1F
100
AcDbEntity
  8
0
  6
Continuous
 62
     8
370
    15
100
AcDbCircle
 10
3.3670985921
 20
8.4289132318
 30
0.0
 40
0.0148834409689333
100
AcDbArc
 50
87.0102867484
 51
176.0875943081
  0
ARC
  5
16C
330
1F
100
AcDbEntity
  8
0
  6
Continuous
 62
     8
370
    15
100
AcDbCircle
 10
4.5605115969
 20
8.066228613
 30
0.0
 40
0.0151433793314239
100
AcDbArc
 50
181.69583236
 51
271.8476124973
  0
ARC
  5
16D
330
1F
100
AcDbEntity
  8
0
  6
Continuous
 62
     8
370
    15
100
AcDbCircle
 10
4.5614210458
 20
8.0662999671
 30
0.0
 40
0.0152126928687882
100
AcDbArc
 50
268.4134026698
 51
358.0430182774
  0
LINE
  5
16E
330
1F
100
AcDbEntity
  8
0
  6
Continuous
 62
     8
370
    15
100
AcDbLine
 10
4.5843748629
 20
8.221041094
 30
0.0
 11
4.5843748629
 21
8.2365229052
 31
0.0
  0
LINE
  5
16F
330
1F
100
AcDbEntity
  8
0
  6
Continuous
 62
     8
370
    15
100
AcDbLine
 10
3.3701248501
 20
8.2072459757
 30
0.0
 11
3.3701248501
 21
8.1946313467
 31
0.0
  0
LINE
  5
170
330
1F
100
AcDbEntity
  8
0
  6
Continuous
 62
     8
370
    15
100
AcDbLine
 10
3.356999875
 20
8.0830711487
 30
0.0
 11
3.356999875
 21
8.0634025326
 31
0.0
  0
LINE
  5
171
330
1F
100
AcDbEntity
  8
0
  6
Continuous
 62
     8
370
    15
100
AcDbLine
 10
4.461624861
 20
8.2159805784
 30
0.0
 11
4.461624861
 21
8.6749805626
 31
0.0
  0
LINE
  5
172
330
1F
100
AcDbEntity
  8
0
  6
Continuous
 62
     8
370
    15
100
AcDbLine
 10
4.461624861
 20
7.7569805941
 30
0.0
 11
4.461624861
 21
8.2159805784
 31
0.0
  0
LINE
  5
173
330
1F
100
AcDbEntity
  8
0
  6
Continuous
 62
     8
370
    15
100
AcDbLine
 10
4.3091248593
 20
8.6749805626
 30
0.0
 11
4.3091248593
 21
7.7569805941
 31
0.0
  0
LINE
  5
174
330
1F
100
AcDbEntity
  8
0
  6
Continuous
 62
     8
370
    15
100
AcDbLine
 10
3.6453748537
 20
7.7569805941
 30
0.0
 11
3.6453748537
 21
8.6749805626
 31
0.0
  0
LINE
  5
175
330
1F
100
AcDbEntity
  8
0
  6
Continuous
 62
     8
370
    15
100
AcDbLine
 10
3.492874852
 20
8.2159805784
 30
0.0
 11
3.492874852
 21
7.7569805941
 31
0.0
  0
LINE
  5
176
330
1F
100
AcDbEntity
  8
0
  6
Continuous
 62
     8
370
    15
100
AcDbLine
 10
3.492874852
 20
8.6749805626
 30
0.0
 11
3.492874852
 21
8.2159805784
 31
0.0
  0
ENDSEC
  0
SECTION
  2
OBJECTS
  0
DICTIONARY
  5
C
330
0
100
AcDbDictionary
281
     1
  3
ACAD_GROUP
350
D
  3
ACAD_LAYOUT
350
1A
  3
ACAD_MLINESTYLE
350
17
  3
ACAD_PLOTSETTINGS
350
19
  3
ACAD_PLOTSTYLENAME
350
E
  0
DICTIONARY
  5
D
102
{ACAD_REACTORS
330
C
102
}
330
C
100
AcDbDictionary
281
     1
  0
DICTIONARY
  5
1A
102
{ACAD_REACTORS
330
C
102
}
330
C
100
AcDbDictionary
281
     1
  3
Layout1
350
1E
  3
Layout2
350
26
  3
Model
350
22
  0
DICTIONARY
  5
17
102
{ACAD_REACTORS
330
C
102
}
330
C
100
AcDbDictionary
281
     1
  3
Standard
350
18
  0
DICTIONARY
  5
19
102
{ACAD_REACTORS
330
C
102
}
330
C
100
AcDbDictionary
281
     1
  0
ACDBDICTIONARYWDFLT
  5
E
102
{ACAD_REACTORS
330
C
102
}
330
C
100
AcDbDictionary
281
     1
  3
Normal
350
F
100
AcDbDictionaryWithDefault
340
F
  0
LAYOUT
  5
1E
102
{ACAD_REACTORS
330
1A
102
}
330
1A
100
AcDbPlotSettings
  1

  2
none_device
  4

  6

 40
0.0
 41
0.0
 42
0.0
 43
0.0
 44
0.0
 45
0.0
 46
0.0
 47
0.0
 48
0.0
 49
0.0
140
0.0
141
0.0
142
1.0
143
1.0
 70
   688
 72
     0
 73
     0
 74
     5
  7

 75
    16
147
1.0
148
0.0
149
0.0
100
AcDbLayout
  1
Layout1
 70
     1
 71
     1
 10
0.0
 20
0.0
 11
12.0
 21
9.0
 12
0.0
 22
0.0
 32
0.0
 14
1.0000000000E+20
 24
1.0000000000E+20
 34
1.0000000000E+20
 15
-1.0000000000E+20
 25
-1.0000000000E+20
 35
-1.0000000000E+20
146
0.0
 13
0.0
 23
0.0
 33
0.0
 16
1.0
 26
0.0
 36
0.0
 17
0.0
 27
1.0
 37
0.0
 76
     0
330
1B
  0
LAYOUT
  5
26
102
{ACAD_REACTORS
330
1A
102
}
330
1A
100
AcDbPlotSettings
  1

  2
none_device
  4

  6

 40
0.0
 41
0.0
 42
0.0
 43
0.0
 44
0.0
 45
0.0
 46
0.0
 47
0.0
 48
0.0
 49
0.0
140
0.0
141
0.0
142
1.0
143
1.0
 70
   688
 72
     0
 73
     0
 74
     5
  7

 75
    16
147
1.0
148
0.0
149
0.0
100
AcDbLayout
  1
Layout2
 70
     1
 71
     2
 10
0.0
 20
0.0
 11
0.0
 21
0.0
 12
0.0
 22
0.0
 32
0.0
 14
0.0
 24
0.0
 34
0.0
 15
0.0
 25
0.0
 35
0.0
146
0.0
 13
0.0
 23
0.0
 33
0.0
 16
1.0
 26
0.0
 36
0.0
 17
0.0
 27
1.0
 37
0.0
 76
     0
330
23
  0
LAYOUT
  5
22
102
{ACAD_REACTORS
330
1A
102
}
330
1A
100
AcDbPlotSettings
  1

  2
none_device
  4

  6

 40
0.0
 41
0.0
 42
0.0
 43
0.0
 44
0.0
 45
0.0
 46
0.0
 47
0.0
 48
0.0
 49
0.0
140
0.0
141
0.0
142
1.0
143
1.0
 70
  1712
 72
     0
 73
     0
 74
     0
  7

 75
     0
147
1.0
148
0.0
149
0.0
100
AcDbLayout
  1
Model
 70
     1
 71
     0
 10
0.0
 20
0.0
 11
8.5
 21
11.0
 12
0.0
 22
0.0
 32
0.0
 14
0.0
 24
0.0
 34
0.0
 15
8.5
 25
11.0
 35
0.0
146
0.0
 13
0.0
 23
0.0
 33
0.0
 16
1.0
 26
0.0
 36
0.0
 17
0.0
 27
1.0
 37
0.0
 76
     0
330
1F
331
29
  0
MLINESTYLE
  5
18
102
{ACAD_REACTORS
330
17
102
}
330
17
100
AcDbMlineStyle
  2
Standard
 70
     0
  3

 62
   256
 51
90.0
 52
90.0
 71
     2
 49
0.5
 62
   256
  6
BYLAYER
 49
-0.5
 62
   256
  6
BYLAYER
  0
ACDBPLACEHOLDER
  5
F
102
{ACAD_REACTORS
330
E
102
}
330
E
  0
ENDSEC
  0
EOF
