  0
SECTION
  2
HEADER
  9
$ACADVER
  1
AC1015
  9
$ACADMAINTVER
 70
     6
  9
$DWGCODEPAGE
  3
ANSI_1252
  9
$INSBASE
 10
0.0
 20
0.0
 30
0.0
  9
$EXTMIN
 10
0.0
 20
0.0
 30
0.0
  9
$EXTMAX
 10
8.5
 20
11.0
 30
0.0
  9
$LIMMIN
 10
0.0
 20
0.0
  9
$LIMMAX
 10
8.5
 20
11.0
  9
$ORTHOMODE
 70
     0
  9
$REGENMODE
 70
     1
  9
$FILLMODE
 70
     1
  9
$QTEXTMODE
 70
     0
  9
$MIRRTEXT
 70
     1
  9
$LTSCALE
 40
1.0
  9
$ATTMODE
 70
     1
  9
$TEXTSIZE
 40
0.125
  9
$TRACEWID
 40
0.05
  9
$TEXTSTYLE
  7
Standard
  9
$CLAYER
  8
0
  9
$CELTYPE
  6
ByLayer
  9
$CECOLOR
 62
   256
  9
$CELTSCALE
 40
1.0
  9
$DISPSILH
 70
     0
  9
$DIMSCALE
 40
1.0
  9
$DIMASZ
 40
0.13
  9
$DIMEXO
 40
0.05
  9
$DIMDLI
 40
0.38
  9
$DIMRND
 40
0.0
  9
$DIMDLE
 40
0.0
  9
$DIMEXE
 40
0.125
  9
$DIMTP
 40
0.0
  9
$DIMTM
 40
0.0
  9
$DIMTXT
 40
0.1527777778
  9
$DIMCEN
 40
0.09
  9
$DIMTSZ
 40
0.0
  9
$DIMTOL
 70
     0
  9
$DIMLIM
 70
     0
  9
$DIMTIH
 70
     1
  9
$DIMTOH
 70
     1
  9
$DIMSE1
 70
     0
  9
$DIMSE2
 70
     0
  9
$DIMTAD
 70
     1
  9
$DIMZIN
 70
     0
  9
$DIMBLK
  1

  9
$DIMASO
 70
     1
  9
$DIMSHO
 70
     1
  9
$DIMPOST
  1

  9
$DIMAPOST
  1

  9
$DIMALT
 70
     0
  9
$DIMALTD
 70
     2
  9
$DIMALTF
 40
25.4
  9
$DIMLFAC
 40
8.0
  9
$DIMTOFL
 70
     0
  9
$DIMTVP
 40
0.0
  9
$DIMTIX
 70
     0
  9
$DIMSOXD
 70
     0
  9
$DIMSAH
 70
     0
  9
$DIMBLK1
  1

  9
$DIMBLK2
  1

  9
$DIMSTYLE
  2
Standard
  9
$DIMCLRD
 70
     0
  9
$DIMCLRE
 70
     0
  9
$DIMCLRT
 70
     0
  9
$DIMTFAC
 40
1.0
  9
$DIMGAP
 40
0.06
  9
$DIMJUST
 70
     0
  9
$DIMSD1
 70
     0
  9
$DIMSD2
 70
     0
  9
$DIMTOLJ
 70
     1
  9
$DIMTZIN
 70
     0
  9
$DIMALTZ
 70
     0
  9
$DIMALTTZ
 70
     0
  9
$DIMUPT
 70
     0
  9
$DIMDEC
 70
     2
  9
$DIMTDEC
 70
     2
  9
$DIMALTU
 70
     2
  9
$DIMALTTD
 70
     2
  9
$DIMTXSTY
  7
Standard
  9
$DIMAUNIT
 70
     0
  9
$DIMADEC
 70
     2
  9
$DIMALTRND
 40
0.0
  9
$DIMAZIN
 70
     0
  9
$DIMDSEP
 70
    46
  9
$DIMATFIT
 70
     3
  9
$DIMFRAC
 70
     0
  9
$DIMLDRBLK
  1

  9
$DIMLUNIT
 70
     2
  9
$DIMLWD
 70
    -2
  9
$DIMLWE
 70
    -2
  9
$DIMTMOVE
 70
     0
  9
$LUNITS
 70
     2
  9
$LUPREC
 70
     3
  9
$SKETCHINC
 40
0.1
  9
$FILLETRAD
 40
0.5
  9
$AUNITS
 70
     0
  9
$AUPREC
 70
     2
  9
$MENU
  1
.
  9
$ELEVATION
 40
0.0
  9
$PELEVATION
 40
0.0
  9
$THICKNESS
 40
0.0
  9
$LIMCHECK
 70
     0
  9
$CHAMFERA
 40
0.5
  9
$CHAMFERB
 40
0.5
  9
$CHAMFERC
 40
1.0
  9
$CHAMFERD
 40
0.0
  9
$SKPOLY
 70
     0
  9
$TDCREATE
 40
2456051.455075984
  9
$TDUCREATE
 40
2456051.705075984
  9
$TDUPDATE
 40
2456051.455076158
  9
$TDUUPDATE
 40
2456051.705076158
  9
$TDINDWG
 40
0.0000000116
  9
$TDUSRTIMER
 40
0.0000000116
  9
$USRTIMER
 70
     1
  9
$ANGBASE
 50
0.0
  9
$ANGDIR
 70
     0
  9
$PDMODE
 70
     0
  9
$PDSIZE
 40
-1.0
  9
$PLINEWID
 40
0.0
  9
$SPLFRAME
 70
     0
  9
$SPLINETYPE
 70
     6
  9
$SPLINESEGS
 70
     8
  9
$HANDSEED
  5
142
  9
$SURFTAB1
 70
     6
  9
$SURFTAB2
 70
     6
  9
$SURFTYPE
 70
     6
  9
$SURFU
 70
     6
  9
$SURFV
 70
     6
  9
$UCSBASE
  2

  9
$UCSNAME
  2

  9
$UCSORG
 10
0.0
 20
0.0
 30
0.0
  9
$UCSXDIR
 10
1.0
 20
0.0
 30
0.0
  9
$UCSYDIR
 10
0.0
 20
1.0
 30
0.0
  9
$UCSORTHOREF
  2

  9
$UCSORTHOVIEW
 70
     0
  9
$UCSORGTOP
 10
0.0
 20
0.0
 30
0.0
  9
$UCSORGBOTTOM
 10
0.0
 20
0.0
 30
0.0
  9
$UCSORGLEFT
 10
0.0
 20
0.0
 30
0.0
  9
$UCSORGRIGHT
 10
0.0
 20
0.0
 30
0.0
  9
$UCSORGFRONT
 10
0.0
 20
0.0
 30
0.0
  9
$UCSORGBACK
 10
0.0
 20
0.0
 30
0.0
  9
$PUCSBASE
  2

  9
$PUCSNAME
  2

  9
$PUCSORG
 10
0.0
 20
0.0
 30
0.0
  9
$PUCSXDIR
 10
1.0
 20
0.0
 30
0.0
  9
$PUCSYDIR
 10
0.0
 20
1.0
 30
0.0
  9
$PUCSORTHOREF
  2

  9
$PUCSORTHOVIEW
 70
     0
  9
$PUCSORGTOP
 10
0.0
 20
0.0
 30
0.0
  9
$PUCSORGBOTTOM
 10
0.0
 20
0.0
 30
0.0
  9
$PUCSORGLEFT
 10
0.0
 20
0.0
 30
0.0
  9
$PUCSORGRIGHT
 10
0.0
 20
0.0
 30
0.0
  9
$PUCSORGFRONT
 10
0.0
 20
0.0
 30
0.0
  9
$PUCSORGBACK
 10
0.0
 20
0.0
 30
0.0
  9
$USERI1
 70
     0
  9
$USERI2
 70
     0
  9
$USERI3
 70
     0
  9
$USERI4
 70
     0
  9
$USERI5
 70
     0
  9
$USERR1
 40
0.0
  9
$USERR2
 40
0.0
  9
$USERR3
 40
0.0
  9
$USERR4
 40
0.0
  9
$USERR5
 40
0.0
  9
$WORLDVIEW
 70
     1
  9
$SHADEDGE
 70
     3
  9
$SHADEDIF
 70
    70
  9
$TILEMODE
 70
     1
  9
$MAXACTVP
 70
    64
  9
$PINSBASE
 10
0.0
 20
0.0
 30
0.0
  9
$PLIMCHECK
 70
     0
  9
$PEXTMIN
 10
1.0000000000E+20
 20
1.0000000000E+20
 30
1.0000000000E+20
  9
$PEXTMAX
 10
-1.0000000000E+20
 20
-1.0000000000E+20
 30
-1.0000000000E+20
  9
$PLIMMIN
 10
0.0
 20
0.0
  9
$PLIMMAX
 10
12.0
 20
9.0
  9
$UNITMODE
 70
     0
  9
$VISRETAIN
 70
     1
  9
$PLINEGEN
 70
     0
  9
$PSLTSCALE
 70
     1
  9
$TREEDEPTH
 70
  3020
  9
$CMLSTYLE
  2
Standard
  9
$CMLJUST
 70
     0
  9
$CMLSCALE
 40
1.0
  9
$PROXYGRAPHICS
 70
     1
  9
$MEASUREMENT
 70
     0
  9
$CELWEIGHT
370
    -1
  9
$ENDCAPS
280
     0
  9
$JOINSTYLE
280
     0
  9
$LWDISPLAY
290
     1
  9
$INSUNITS
 70
     1
  9
$HYPERLINKBASE
  1

  9
$STYLESHEET
  1

  9
$XEDIT
290
     1
  9
$CEPSNTYPE
380
     0
  9
$PSTYLEMODE
290
     1
  9
$FINGERPRINTGUID
  2
{887E728B-6E6B-4EAE-89BE-6B5F9EBCB970}
  9
$VERSIONGUID
  2
{FAEB1C32-E019-11D5-929B-00C0DF256EC4}
  9
$EXTNAMES
290
     1
  9
$PSVPSCALE
 40
0.0
  9
$OLESTARTUP
290
     0
  0
ENDSEC
  0
SECTION
  2
CLASSES
  0
CLASS
  1
ACDBDICTIONARYWDFLT
  2
AcDbDictionaryWithDefault
  3
ObjectDBX Classes
 90
        0
280
     0
281
     0
  0
CLASS
  1
VISUALSTYLE
  2
AcDbVisualStyle
  3
ObjectDBX Classes
 90
     4095
280
     0
281
     0
  0
CLASS
  1
MATERIAL
  2
AcDbMaterial
  3
ObjectDBX Classes
 90
     1153
280
     0
281
     0
  0
CLASS
  1
ACDBPLACEHOLDER
  2
AcDbPlaceHolder
  3
ObjectDBX Classes
 90
        0
280
     0
281
     0
  0
CLASS
  1
LAYOUT
  2
AcDbLayout
  3
ObjectDBX Classes
 90
        0
280
     0
281
     0
  0
ENDSEC
  0
SECTION
  2
TABLES
  0
TABLE
  2
VPORT
  5
8
330
0
100
AcDbSymbolTable
 70
     1
  0
VPORT
  5
29
330
8
100
AcDbSymbolTableRecord
100
AcDbViewportTableRecord
  2
*Active
 70
     0
 10
0.0
 20
0.0
 11
1.0
 21
1.0
 12
4.25
 22
5.5
 13
0.0
 23
0.0
 14
0.5
 24
0.5
 15
0.5
 25
0.5
 16
0.0
 26
0.0
 36
1.0
 17
0.0
 27
0.0
 37
0.0
 40
11.0
 41
0.7727272727
 42
50.0
 43
0.0
 44
0.0
 50
0.0
 51
0.0
 71
     0
 72
  2000
 73
     1
 74
     3
 75
     0
 76
     0
 77
     0
 78
     0
281
     0
 65
     1
110
0.0
120
0.0
130
0.0
111
1.0
121
0.0
131
0.0
112
0.0
122
1.0
132
0.0
 79
     0
146
0.0
  0
ENDTAB
  0
TABLE
  2
LTYPE
  5
5
330
0
100
AcDbSymbolTable
 70
     6
  0
LTYPE
  5
14
330
5
100
AcDbSymbolTableRecord
100
AcDbLinetypeTableRecord
  2
ByBlock
 70
     0
  3

 72
    65
 73
     0
 40
0.0
  0
LTYPE
  5
15
330
5
100
AcDbSymbolTableRecord
100
AcDbLinetypeTableRecord
  2
ByLayer
 70
     0
  3

 72
    65
 73
     0
 40
0.0
  0
LTYPE
  5
16
330
5
100
AcDbSymbolTableRecord
100
AcDbLinetypeTableRecord
  2
Continuous
 70
     0
  3
Solid line
 72
    65
 73
     0
 40
0.0
  0
LTYPE
  5
3F
330
5
100
AcDbSymbolTableRecord
100
AcDbLinetypeTableRecord
  2
HIDDEN
 70
     0
  3
Hidden __ __ __ __ __ __ __ __ __ __ __ __ __ __
 72
    65
 73
     2
 40
0.075
 49
0.05
 74
     0
 49
-0.025
 74
     0
  0
LTYPE
  5
40
330
5
100
AcDbSymbolTableRecord
100
AcDbLinetypeTableRecord
  2
PHANTOM
 70
     0
  3
Phantom ______  __  __  ______  __  __  ______
 72
    65
 73
     6
 40
0.5
 49
0.25
 74
     0
 49
-0.05
 74
     0
 49
0.05
 74
     0
 49
-0.05
 74
     0
 49
0.05
 74
     0
 49
-0.05
 74
     0
  0
LTYPE
  5
41
330
5
100
AcDbSymbolTableRecord
100
AcDbLinetypeTableRecord
  2
CENTER
 70
     0
  3
Center ____ _ ____ _ ____ _ ____ _ ____ _ ____
 72
    65
 73
     4
 40
0.4
 49
0.25
 74
     0
 49
-0.05
 74
     0
 49
0.05
 74
     0
 49
-0.05
 74
     0
  0
LTYPE
  5
42
330
5
100
AcDbSymbolTableRecord
100
AcDbLinetypeTableRecord
  2
CENTERX2
 70
     0
  3
Center (2x) ________  __  ________  __  _____
 72
    65
 73
     4
 40
0.8
 49
0.5
 74
     0
 49
-0.1
 74
     0
 49
0.1
 74
     0
 49
-0.1
 74
     0
  0
LTYPE
  5
43
330
5
100
AcDbSymbolTableRecord
100
AcDbLinetypeTableRecord
  2
DOT2
 70
     0
  3
Dot (.5x) ........................................
 72
    65
 73
     2
 40
0.025
 49
0.0
 74
     0
 49
-0.025
 74
     0
  0
ENDTAB
  0
TABLE
  2
LAYER
  5
2
330
0
100
AcDbSymbolTable
 70
     1
  0
LAYER
  5
10
330
2
100
AcDbSymbolTableRecord
100
AcDbLayerTableRecord
  2
0
 70
     0
 62
     7
  6
Continuous
370
    -3
390
F
  0
ENDTAB
  0
TABLE
  2
STYLE
  5
3
330
0
100
AcDbSymbolTable
 70
     1
  0
STYLE
  5
11
330
3
100
AcDbSymbolTableRecord
100
AcDbTextStyleTableRecord
  2
Standard
 70
     0
 40
0.0
 41
1.0
 50
0.0
 71
     0
 42
0.125
  3
txt
  4

  0
ENDTAB
  0
TABLE
  2
VIEW
  5
6
330
0
100
AcDbSymbolTable
 70
     0
  0
ENDTAB
  0
TABLE
  2
UCS
  5
7
330
0
100
AcDbSymbolTable
 70
     0
  0
ENDTAB
  0
TABLE
  2
APPID
  5
9
330
0
100
AcDbSymbolTable
 70
     1
  0
APPID
  5
12
330
9
100
AcDbSymbolTableRecord
100
AcDbRegAppTableRecord
  2
ACAD
 70
     0
  0
ENDTAB
  0
TABLE
  2
DIMSTYLE
  5
A
330
0
100
AcDbSymbolTable
 70
     1
100
AcDbDimStyleTable
  0
DIMSTYLE
105
27
330
A
100
AcDbSymbolTableRecord
100
AcDbDimStyleTableRecord
  2
Standard
 70
     0
178
     0
340
11
  0
ENDTAB
  0
TABLE
  2
BLOCK_RECORD
  5
1
330
0
100
AcDbSymbolTable
 70
     1
  0
BLOCK_RECORD
  5
1F
330
1
100
AcDbSymbolTableRecord
100
AcDbBlockTableRecord
  2
*Model_Space
340
22
  0
BLOCK_RECORD
  5
1B
330
1
100
AcDbSymbolTableRecord
100
AcDbBlockTableRecord
  2
*Paper_Space
340
1E
  0
BLOCK_RECORD
  5
23
330
1
100
AcDbSymbolTableRecord
100
AcDbBlockTableRecord
  2
*Paper_Space0
340
26
  0
ENDTAB
  0
ENDSEC
  0
SECTION
  2
BLOCKS
  0
BLOCK
  5
20
330
1F
100
AcDbEntity
  8
0
100
AcDbBlockBegin
  2
*Model_Space
 70
     0
 10
0.0
 20
0.0
 30
0.0
  3
*Model_Space
  1

  0
ENDBLK
  5
21
330
1F
100
AcDbEntity
  8
0
100
AcDbBlockEnd
  0
BLOCK
  5
1C
330
1B
100
AcDbEntity
 67
     1
  8
0
100
AcDbBlockBegin
  2
*Paper_Space
 70
     0
 10
0.0
 20
0.0
 30
0.0
  3
*Paper_Space
  1

  0
ENDBLK
  5
1D
330
1B
100
AcDbEntity
 67
     1
  8
0
100
AcDbBlockEnd
  0
BLOCK
  5
24
330
23
100
AcDbEntity
  8
0
100
AcDbBlockBegin
  2
*Paper_Space0
 70
     0
 10
0.0
 20
0.0
 30
0.0
  3
*Paper_Space0
  1

  0
ENDBLK
  5
25
330
23
100
AcDbEntity
  8
0
100
AcDbBlockEnd
  0
ENDSEC
  0
SECTION
  2
ENTITIES
  0
LINE
  5
44
330
1F
100
AcDbEntity
  8
0
  6
Continuous
 62
     7
370
    15
100
AcDbLine
 10
4.8886691948
 20
7.5127472898
 30
0.0
 11
4.8886691948
 21
7.5197019595
 31
0.0
  0
LINE
  5
45
330
1F
100
AcDbEntity
  8
0
  6
Continuous
 62
     7
370
    15
100
AcDbLine
 10
3.2361691379
 20
7.2056053913
 30
0.0
 11
3.2361691379
 21
7.175476776
 31
0.0
  0
LINE
  5
46
330
1F
100
AcDbEntity
  8
0
  6
Continuous
 62
     7
370
    15
100
AcDbLine
 10
3.2699191681
 20
7.4407364292
 30
0.0
 11
3.2699191681
 21
7.3955157682
 31
0.0
  0
LINE
  5
47
330
1F
100
AcDbEntity
  8
0
  6
Continuous
 62
     7
370
    15
100
AcDbLine
 10
3.3874191507
 20
7.4343352181
 30
0.0
 11
3.3874191507
 21
7.4407364292
 31
0.0
  0
LINE
  5
48
330
1F
100
AcDbEntity
  8
0
  6
Continuous
 62
     7
370
    15
100
AcDbLine
 10
4.8549191647
 20
7.2742249911
 30
0.0
 11
4.8549191647
 21
7.2981807847
 31
0.0
  0
LINE
  5
49
330
1F
100
AcDbEntity
  8
0
  6
Continuous
 62
     7
370
    15
100
AcDbLine
 10
3.3034191344
 20
7.3243817224
 30
0.0
 11
3.3924191796
 21
7.3243817224
 31
0.0
  0
ARC
  5
4A
330
1F
100
AcDbEntity
  8
0
  6
Continuous
 62
     7
370
    15
100
AcDbCircle
 10
3.3034191664
 20
7.3478817219
 30
0.0
 40
0.0235000000000012
100
AcDbArc
 50
180.0
 51
270.0
  0
LINE
  5
4B
330
1F
100
AcDbEntity
  8
0
  6
Continuous
 62
     7
370
    15
100
AcDbLine
 10
4.8214191983
 20
7.3585051661
 30
0.0
 11
4.7324191531
 21
7.3585051661
 31
0.0
  0
ARC
  5
4C
330
1F
100
AcDbEntity
  8
0
  6
Continuous
 62
     7
370
    15
100
AcDbCircle
 10
4.8214191664
 20
7.3350051666
 30
0.0
 40
0.0234999999999994
100
AcDbArc
 50
0.0
 51
90.0
  0
ARC
  5
4D
330
1F
100
AcDbEntity
  8
0
  6
Continuous
 62
     7
370
    15
100
AcDbCircle
 10
3.2659191664
 20
7.1175699582
 30
0.0
 40
0.0235000000000012
100
AcDbArc
 50
180.0
 51
270.0
  0
LINE
  5
4E
330
1F
100
AcDbEntity
  8
0
  6
Continuous
 62
     7
370
    15
100
AcDbLine
 10
3.2659191743
 20
7.0940699614
 30
0.0
 11
3.3924191796
 21
7.0940699614
 31
0.0
  0
ARC
  5
4F
330
1F
100
AcDbEntity
  8
0
  6
Continuous
 62
     7
370
    15
100
AcDbCircle
 10
4.8589191664
 20
7.5633589066
 30
0.0
 40
0.0234999999999994
100
AcDbArc
 50
0.0
 51
90.0
  0
LINE
  5
50
330
1F
100
AcDbEntity
  8
0
  6
Continuous
 62
     7
370
    15
100
AcDbLine
 10
4.8589191585
 20
7.5868589153
 30
0.0
 11
4.7324191531
 21
7.5868589153
 31
0.0
  0
SPLINE
  5
51
330
1F
100
AcDbEntity
  8
0
  6
Continuous
 62
     7
370
    15
100
AcDbSpline
210
0.0
220
0.0
230
1.0
 70
     8
 71
     3
 72
    16
 73
    12
 74
     0
 42
0.00000001
 43
0.00000001
 12
1.0
 22
0.0
 32
0.0
 13
1.0
 23
0.0
 33
0.0
 40
0.0
 40
0.0
 40
0.0
 40
0.0
 40
0.0369654225740597
 40
0.1644552893122495
 40
0.2921523917866351
 40
0.4201769994247404
 40
0.5487112766278304
 40
0.6780505903403442
 40
0.8087286507835582
 40
0.941822209196313
 40
0.9999999999999999
 40
0.9999999999999999
 40
0.9999999999999999
 40
0.9999999999999999
 10
4.732419153140039
 20
7.447255568034115
 30
0.0
 10
4.733757007407074
 20
7.447271811502848
 30
0.0
 10
4.739708980770882
 20
7.447344076992159
 30
0.0
 10
4.749887979479956
 20
7.447558477979827
 30
0.0
 10
4.76275226877372
 20
7.447897860204873
 30
0.0
 10
4.774885697899464
 20
7.448323431469094
 30
0.0
 10
4.786191485787829
 20
7.44882496500917
 30
0.0
 10
4.796578363762031
 20
7.449400563058462
 30
0.0
 10
4.805902220842001
 20
7.450061395487771
 30
0.0
 10
4.812761807952169
 20
7.45063944297514
 30
0.0
 10
4.81612819505761
 20
7.451053023284547
 30
0.0
 10
4.817152127630821
 20
7.451178819379047
 30
0.0
  0
LINE
  5
52
330
1F
100
AcDbEntity
  8
0
  6
Continuous
 62
     7
370
    15
100
AcDbLine
 10
3.3299191483
 20
7.2581362103
 30
0.0
 11
3.3299191483
 21
7.3243817224
 31
0.0
  0
LINE
  5
53
330
1F
100
AcDbEntity
  8
0
  6
Continuous
 62
     7
370
    15
100
AcDbLine
 10
3.2674191903
 20
7.3307749528
 30
0.0
 11
3.2674191903
 21
7.2581362103
 31
0.0
  0
SPLINE
  5
54
330
1F
100
AcDbEntity
  8
0
  6
Continuous
 62
     7
370
    15
100
AcDbSpline
210
0.0
220
0.0
230
1.0
 70
     8
 71
     3
 72
    13
 73
     9
 74
     0
 42
0.00000001
 43
0.00000001
 12
1.0
 22
0.0
 32
0.0
 13
1.0
 23
0.0
 33
0.0
 40
0.0
 40
0.0
 40
0.0
 40
0.0
 40
0.0600138326972391
 40
0.2974118635601291
 40
0.5218057913017197
 40
0.7394832190663662
 40
0.9543208684164495
 40
1.0
 40
1.0
 40
1.0
 40
1.0
 10
3.279919152543993
 20
7.359658461525864
 30
0.0
 10
3.279492757873324
 20
7.359270410037296
 30
0.0
 10
3.277379664476083
 20
7.357347334786385
 30
0.0
 10
3.274138716300394
 20
7.35300662098423
 30
0.0
 10
3.270567047247268
 20
7.346663705638807
 30
0.0
 10
3.26823246922584
 20
7.33968186670559
 30
0.0
 10
3.267463635791396
 20
7.334265170851115
 30
0.0
 10
3.267425820779454
 20
7.331295632932349
 30
0.0
 10
3.267419190277956
 20
7.330774952794788
 30
0.0
  0
SPLINE
  5
55
330
1F
100
AcDbEntity
  8
0
  6
Continuous
 62
     7
370
    15
100
AcDbSpline
210
0.0
220
0.0
230
1.0
 70
     8
 71
     3
 72
    12
 73
     8
 74
     0
 42
0.00000001
 43
0.00000001
 12
1.0
 22
0.0
 32
0.0
 13
1.0
 23
0.0
 33
0.0
 40
0.0
 40
0.0
 40
0.0
 40
0.0
 40
0.148628572622029
 40
0.4095695007806852
 40
0.6849491388209649
 40
0.971592533692169
 40
0.9999999999999999
 40
0.9999999999999999
 40
0.9999999999999999
 40
0.9999999999999999
 10
3.329919148273108
 20
7.317926966007494
 30
0.0
 10
3.330778329977352
 20
7.318247956985722
 30
0.0
 10
3.333145940830897
 20
7.319132498311718
 30
0.0
 10
3.338505386980718
 20
7.320714468608117
 30
0.0
 10
3.345961138626834
 20
7.322511114880956
 30
0.0
 10
3.351855607891415
 20
7.323766038253894
 30
0.0
 10
3.3554377184557
 20
7.324330799094835
 30
0.0
 10
3.355760709749185
 20
7.324381722379099
 30
0.0
  0
LINE
  5
56
330
1F
100
AcDbEntity
  8
0
  6
Continuous
 62
     7
370
    15
100
AcDbLine
 10
4.7730441772
 20
7.2212186934
 30
0.0
 11
4.7730441772
 21
7.1808483073
 31
0.0
  0
LINE
  5
57
330
1F
100
AcDbEntity
  8
0
  6
Continuous
 62
     7
370
    15
100
AcDbLine
 10
4.8192941696
 20
7.1808483073
 30
0.0
 11
4.8192941696
 21
7.2212186934
 31
0.0
  0
SPLINE
  5
58
330
1F
100
AcDbEntity
  8
0
  6
Continuous
 62
     7
370
    15
100
AcDbSpline
210
0.0
220
0.0
230
1.0
 70
     8
 71
     3
 72
    13
 73
     9
 74
     0
 42
0.00000001
 43
0.00000001
 12
1.0
 22
0.0
 32
0.0
 13
1.0
 23
0.0
 33
0.0
 40
0.0
 40
0.0
 40
0.0
 40
0.0
 40
0.1570122601376377
 40
0.3346702211670931
 40
0.5221278674181236
 40
0.7169055389158181
 40
0.9169340966197195
 40
1.0
 40
1.0
 40
1.0
 40
1.0
 10
4.773044177169628
 20
7.189717018974743
 30
0.0
 10
4.771801294583003
 20
7.18922130294478
 30
0.0
 10
4.769152101521355
 20
7.188164688682694
 30
0.0
 10
4.763394586921787
 20
7.186365707987729
 30
0.0
 10
4.756117409853227
 20
7.18446518434543
 30
0.0
 10
4.747269824187886
 20
7.182577341222943
 30
0.0
 10
4.739300814425602
 20
7.181104758169034
 30
0.0
 10
4.733980303572797
 20
7.180344551402834
 30
0.0
 10
4.732419153140039
 20
7.180121490656439
 30
0.0
  0
SPLINE
  5
59
330
1F
100
AcDbEntity
  8
0
  6
Continuous
 62
     7
370
    15
100
AcDbSpline
210
0.0
220
0.0
230
1.0
 70
     8
 71
     3
 72
    20
 73
    16
 74
     0
 42
0.00000001
 43
0.00000001
 12
1.0
 22
0.0
 32
0.0
 13
1.0
 23
0.0
 33
0.0
 40
0.0
 40
0.0
 40
0.0
 40
0.0
 40
0.0408608999716706
 40
0.1391646521896919
 40
0.2385582009485101
 40
0.3396303325797153
 40
0.4434158589107448
 40
0.55184389436519
 40
0.6682735921912277
 40
0.7450024869384078
 40
0.8105666055903143
 40
0.8699728215364878
 40
0.9261456397816554
 40
0.9808545391546971
 40
1.0
 40
1.0
 40
1.0
 40
1.0
 10
4.732419153140039
 20
7.13342013682113
 30
0.0
 10
4.734329203139117
 20
7.13366476443365
 30
0.0
 10
4.74083447942943
 20
7.134497920742883
 30
0.0
 10
4.75105370884445
 20
7.13621541533762
 30
0.0
 10
4.763032928210612
 20
7.138574987110527
 30
0.0
 10
4.774072639878731
 20
7.141279063190987
 30
0.0
 10
4.784280992473824
 20
7.144384980720716
 30
0.0
 10
4.79378175364343
 20
7.14809733702236
 30
0.0
 10
4.801538026584858
 20
7.152189145374864
 30
0.0
 10
4.807707638107232
 20
7.15675090477947
 30
0.0
 10
4.812205493840805
 20
7.161308949970921
 30
0.0
 10
4.815751916469168
 20
7.166464749523124
 30
0.0
 10
4.818224831295684
 20
7.172276436681699
 30
0.0
 10
4.819208103708137
 20
7.177235099016793
 30
0.0
 10
4.819276451558645
 20
7.180104472098373
 30
0.0
 10
4.819294169552436
 20
7.180848307260192
 30
0.0
  0
LINE
  5
5A
330
1F
100
AcDbEntity
  8
0
  6
Continuous
 62
     7
370
    15
100
AcDbLine
 10
3.3517941556
 20
7.491085845
 30
0.0
 11
3.3517941556
 21
7.6318777286
 31
0.0
  0
LINE
  5
5B
330
1F
100
AcDbEntity
  8
0
  6
Continuous
 62
     7
370
    15
100
AcDbLine
 10
3.3055441632
 20
7.6318777286
 30
0.0
 11
3.3055441632
 21
7.491085845
 31
0.0
  0
SPLINE
  5
5C
330
1F
100
AcDbEntity
  8
0
  6
Continuous
 62
     7
370
    15
100
AcDbSpline
210
0.0
220
0.0
230
1.0
 70
     8
 71
     3
 72
    17
 73
    13
 74
     0
 42
0.00000001
 43
0.00000001
 12
1.0
 22
0.0
 32
0.0
 13
1.0
 23
0.0
 33
0.0
 40
0.0
 40
0.0
 40
0.0
 40
0.0
 40
0.0434714356942703
 40
0.1579026548990711
 40
0.2794613264888762
 40
0.3951764060650584
 40
0.5109473397349229
 40
0.6287717852352698
 40
0.7494740938492405
 40
0.8730335622237978
 40
0.9991064825796275
 40
1.0
 40
1.0
 40
1.0
 40
1.0
 10
3.351760642624969
 20
7.631440446981343
 30
0.0
 10
3.351753117994357
 20
7.631410973898183
 30
0.0
 10
3.35172578604335
 20
7.63130391789682
 30
0.0
 10
3.352094941028847
 20
7.632167954508041
 30
0.0
 10
3.353607552386002
 20
7.634112043448507
 30
0.0
 10
3.356565100528546
 20
7.636884691618994
 30
0.0
 10
3.360888230567362
 20
7.640026762392435
 30
0.0
 10
3.366642887081317
 20
7.64339286034688
 30
0.0
 10
3.373792969364655
 20
7.64684504992742
 30
0.0
 10
3.382443241560719
 20
7.65020833528654
 30
0.0
 10
3.388748827749213
 20
7.652428520225264
 30
0.0
 10
3.39239353026188
 20
7.653407690624441
 30
0.0
 10
3.392419179600747
 20
7.653414581467599
 30
0.0
  0
SPLINE
  5
5D
330
1F
100
AcDbEntity
  8
0
  6
Continuous
 62
     7
370
    15
100
AcDbSpline
210
0.0
220
0.0
230
1.0
 70
     8
 71
     3
 72
    19
 73
    15
 74
     0
 42
0.00000001
 43
0.00000001
 12
1.0
 22
0.0
 32
0.0
 13
1.0
 23
0.0
 33
0.0
 40
0.0
 40
0.0
 40
0.0
 40
0.0
 40
0.0573265099072444
 40
0.1555465604078853
 40
0.2549053312190146
 40
0.3557305751325764
 40
0.4582995705250612
 40
0.562479899723259
 40
0.6535472099868986
 40
0.7379352325112422
 40
0.8164341562772971
 40
0.8908452968972289
 40
0.9707811316957644
 40
1.0
 40
1.0
 40
1.0
 40
1.0
 10
3.392419179600747
 20
7.7012021727546
 30
0.0
 10
3.389636393273968
 20
7.700536108296531
 30
0.0
 10
3.38208573578268
 20
7.698728846078231
 30
0.0
 10
3.370679479321794
 20
7.695156589242828
 30
0.0
 10
3.358183252734244
 20
7.690519002996785
 30
0.0
 10
3.346636926589016
 20
7.685214159023531
 30
0.0
 10
3.336072734314735
 20
7.679198786244124
 30
0.0
 10
3.327039780141834
 20
7.672657884490315
 30
0.0
 10
3.319674970429098
 20
7.665739984716534
 30
0.0
 10
3.31400887913792
 20
7.658689381228372
 30
0.0
 10
3.309775352967222
 20
7.651354369813255
 30
0.0
 10
3.306853748963711
 20
7.643495843069781
 30
0.0
 10
3.305657260298354
 20
7.636904896329906
 30
0.0
 10
3.305568044696424
 20
7.632939261882457
 30
0.0
 10
3.30554416318835
 20
7.631877728596494
 30
0.0
  0
LINE
  5
5E
330
1F
100
AcDbEntity
  8
0
  6
Continuous
 62
     7
370
    15
100
AcDbLine
 10
4.685544148
 20
7.940153549
 30
0.0
 11
4.4824191745
 21
7.940153549
 31
0.0
  0
LINE
  5
5F
330
1F
100
AcDbEntity
  8
0
  6
Continuous
 62
     7
370
    15
100
AcDbLine
 10
4.4824191745
 20
6.7439035815
 30
0.0
 11
4.685544148
 21
6.7439035815
 31
0.0
  0
ARC
  5
60
330
1F
100
AcDbEntity
  8
0
  6
Continuous
 62
     7
370
    15
100
AcDbCircle
 10
4.6855441664
 20
7.8932785653
 30
0.0
 40
0.0468750000000009
100
AcDbArc
 50
0.0
 51
90.0
  0
ARC
  5
61
330
1F
100
AcDbEntity
  8
0
  6
Continuous
 62
     7
370
    15
100
AcDbCircle
 10
4.6855441664
 20
6.7907785653
 30
0.0
 40
0.046875
100
AcDbArc
 50
270.0
 51
0.0
  0
ARC
  5
62
330
1F
100
AcDbEntity
  8
0
  6
Continuous
 62
     7
370
    15
100
AcDbCircle
 10
4.4824191664
 20
6.7751535653
 30
0.0
 40
0.03125
100
AcDbArc
 50
180.0
 51
270.0
  0
ARC
  5
63
330
1F
100
AcDbEntity
  8
0
  6
Continuous
 62
     7
370
    15
100
AcDbCircle
 10
4.4824191664
 20
7.9089035653
 30
0.0
 40
0.0312500000000009
100
AcDbArc
 50
90.0
 51
180.0
  0
LINE
  5
64
330
1F
100
AcDbEntity
  8
0
  6
Continuous
 62
     7
370
    15
100
AcDbLine
 10
3.4392941848
 20
6.7439035815
 30
0.0
 11
3.6424191582
 21
6.7439035815
 31
0.0
  0
LINE
  5
65
330
1F
100
AcDbEntity
  8
0
  6
Continuous
 62
     7
370
    15
100
AcDbLine
 10
3.6424191582
 20
7.940153549
 30
0.0
 11
3.4392941848
 21
7.940153549
 31
0.0
  0
ARC
  5
66
330
1F
100
AcDbEntity
  8
0
  6
Continuous
 62
     7
370
    15
100
AcDbCircle
 10
3.4392941664
 20
6.7907785653
 30
0.0
 40
0.046875
100
AcDbArc
 50
180.0
 51
270.0
  0
ARC
  5
67
330
1F
100
AcDbEntity
  8
0
  6
Continuous
 62
     7
370
    15
100
AcDbCircle
 10
3.4392941664
 20
7.8932785653
 30
0.0
 40
0.0468750000000009
100
AcDbArc
 50
90.0
 51
180.0
  0
ARC
  5
68
330
1F
100
AcDbEntity
  8
0
  6
Continuous
 62
     7
370
    15
100
AcDbCircle
 10
3.6424191664
 20
7.9089035653
 30
0.0
 40
0.0312500000000009
100
AcDbArc
 50
0.0
 51
90.0
  0
ARC
  5
69
330
1F
100
AcDbEntity
  8
0
  6
Continuous
 62
     7
370
    15
100
AcDbCircle
 10
3.6424191664
 20
6.7751535653
 30
0.0
 40
0.03125
100
AcDbArc
 50
270.0
 51
0.0
  0
LINE
  5
6A
330
1F
100
AcDbEntity
  8
0
  6
Continuous
 62
     7
370
    15
100
AcDbLine
 10
4.0155441658
 20
7.7084603289
 30
0.0
 11
4.0155441658
 21
7.6533468223
 31
0.0
  0
LINE
  5
6B
330
1F
100
AcDbEntity
  8
0
  6
Continuous
 62
     7
370
    15
100
AcDbLine
 10
4.1092941669
 20
7.6533468223
 30
0.0
 11
4.1092941669
 21
7.7084603289
 31
0.0
  0
LINE
  5
6C
330
1F
100
AcDbEntity
  8
0
  6
Continuous
 62
     7
370
    15
100
AcDbLine
 10
3.677294182
 20
7.8932785805
 30
0.0
 11
3.6736691739
 21
7.8896535724
 31
0.0
  0
LINE
  5
6D
330
1F
100
AcDbEntity
  8
0
  6
Continuous
 62
     7
370
    15
100
AcDbLine
 10
3.6736691739
 20
6.7944035582
 30
0.0
 11
3.677294182
 21
6.79077855
 31
0.0
  0
LINE
  5
6E
330
1F
100
AcDbEntity
  8
0
  6
Continuous
 62
     7
370
    15
100
AcDbLine
 10
4.4475441507
 20
6.79077855
 30
0.0
 11
4.4511691588
 21
6.7944035582
 31
0.0
  0
LINE
  5
6F
330
1F
100
AcDbEntity
  8
0
  6
Continuous
 62
     7
370
    15
100
AcDbLine
 10
4.4511691588
 20
7.8896535724
 30
0.0
 11
4.4475441507
 21
7.8932785805
 31
0.0
  0
LINE
  5
70
330
1F
100
AcDbEntity
  8
0
  6
Continuous
 62
     7
370
    15
100
AcDbLine
 10
3.6804191726
 20
7.8807785816
 30
0.0
 11
3.677294182
 21
7.8776535544
 31
0.0
  0
LINE
  5
71
330
1F
100
AcDbEntity
  8
0
  6
Continuous
 62
     7
370
    15
100
AcDbLine
 10
3.677294182
 20
6.8064035762
 30
0.0
 11
3.6804191726
 21
6.803278549
 31
0.0
  0
LINE
  5
72
330
1F
100
AcDbEntity
  8
0
  6
Continuous
 62
     7
370
    15
100
AcDbLine
 10
4.4444191601
 20
6.803278549
 30
0.0
 11
4.4475441507
 21
6.8064035762
 31
0.0
  0
LINE
  5
73
330
1F
100
AcDbEntity
  8
0
  6
Continuous
 62
     7
370
    15
100
AcDbLine
 10
4.4475441507
 20
7.8776535544
 30
0.0
 11
4.4444191601
 21
7.8807785816
 31
0.0
  0
ARC
  5
74
330
1F
100
AcDbEntity
  8
0
  6
Continuous
 62
     7
370
    15
100
AcDbCircle
 10
4.8261691635
 20
7.5198943014
 30
0.0
 40
0.0625955350353677
100
AcDbArc
 50
260.7792760485
 51
279.2207239515
  0
ARC
  5
75
330
1F
100
AcDbEntity
  8
0
  6
Continuous
 62
     7
370
    15
100
AcDbCircle
 10
4.826349409
 20
7.5197018966
 30
0.0
 40
0.0623194075081667
100
AcDbArc
 50
333.7414277538
 51
25.8793156027
  0
ARC
  5
76
330
1F
100
AcDbEntity
  8
0
  6
Continuous
 62
     7
370
    15
100
AcDbCircle
 10
4.8263519762
 20
7.5127483143
 30
0.0
 40
0.0623172186227381
100
AcDbArc
 50
340.1590249556
 51
359.9990580221
  0
LINE
  5
77
330
1F
100
AcDbEntity
  8
0
  6
Continuous
 62
     7
370
    15
100
AcDbLine
 10
4.8849699375
 20
7.4915971833
 30
0.0
 11
4.8849699375
 21
7.4968131855
 31
0.0
  0
ARC
  5
78
330
1F
100
AcDbEntity
  8
0
  6
Continuous
 62
     7
370
    15
100
AcDbCircle
 10
4.8263461019
 20
7.5179637553
 30
0.0
 40
0.0623225537743377
100
AcDbArc
 50
334.1216878574
 51
340.1613433093
  0
LINE
  5
79
330
1F
100
AcDbEntity
  8
0
  6
Continuous
 62
     7
370
    15
100
AcDbLine
 10
4.856359928
 20
7.4581076027
 30
0.0
 11
4.8527690562
 21
7.4562778655
 31
0.0
  0
LINE
  5
7A
330
1F
100
AcDbEntity
  8
0
  6
Continuous
 62
     7
370
    15
100
AcDbLine
 10
4.8527690562
 20
7.4562778655
 30
0.0
 11
4.8527690562
 21
7.4581076027
 31
0.0
  0
ARC
  5
7B
330
1F
100
AcDbEntity
  8
0
  6
Continuous
 62
     7
370
    15
100
AcDbCircle
 10
4.8261671455
 20
7.518158978
 30
0.0
 40
0.0625992130303223
100
AcDbArc
 50
282.3520922981
 51
286.4029966674
  0
LINE
  5
7C
330
1F
100
AcDbEntity
  8
0
  6
Continuous
 62
     7
370
    15
100
AcDbLine
 10
4.8395582821
 20
7.4570088437
 30
0.0
 11
4.8395582821
 21
7.4517928323
 31
0.0
  0
ARC
  5
7D
330
1F
100
AcDbEntity
  8
0
  6
Continuous
 62
     7
370
    15
100
AcDbCircle
 10
4.8261693413
 20
7.5129353939
 30
0.0
 40
0.0625913458729809
100
AcDbArc
 50
250.2184737742
 51
282.3516116756
  0
LINE
  5
7E
330
1F
100
AcDbEntity
  8
0
  6
Continuous
 62
     7
370
    15
100
AcDbLine
 10
4.8049862682
 20
7.4540375672
 30
0.0
 11
4.8049862682
 21
7.4581076027
 31
0.0
  0
ARC
  5
7F
330
1F
100
AcDbEntity
  8
0
  6
Continuous
 62
     7
370
    15
100
AcDbCircle
 10
4.8472861416
 20
7.4507065943
 30
0.0
 40
0.0078038276222941
100
AcDbArc
 50
108.4894918788
 51
171.9988502585
  0
LWPOLYLINE
  5
80
330
1F
100
AcDbEntity
  8
0
  6
Continuous
 62
     7
370
    15
100
AcDbPolyline
 90
        3
 70
   128
 43
0.0
 10
4.8497795107
 20
7.4581076027
 10
4.8510427361
 20
7.4575565457
 10
4.8527690562
 20
7.4562778655
  0
LWPOLYLINE
  5
81
330
1F
100
AcDbEntity
  8
0
  6
Continuous
 62
     7
370
    15
100
AcDbPolyline
 90
        3
 70
   128
 43
0.0
 10
4.8037946886
 20
7.4581076027
 10
4.8046711585
 20
7.4561605243
 10
4.8049862682
 20
7.4540375672
  0
LWPOLYLINE
  5
82
330
1F
100
AcDbEntity
  8
0
  6
Continuous
 62
     7
370
    15
100
AcDbPolyline
 90
        3
 70
   128
 43
0.0
 10
4.8826386245
 20
7.4912194568
 10
4.8828437354
 20
7.4912825503
 10
4.8849699375
 20
7.4915971833
  0
LINE
  5
83
330
1F
100
AcDbEntity
  8
0
  6
Continuous
 62
     7
370
    15
100
AcDbLine
 10
3.240635673
 20
7.1979953767
 30
0.0
 11
3.2424191924
 21
7.2019167122
 31
0.0
  0
ARC
  5
84
330
1F
100
AcDbEntity
  8
0
  6
Continuous
 62
     7
370
    15
100
AcDbCircle
 10
3.2986691693
 20
7.1718499833
 30
0.0
 40
0.0642850403135848
100
AcDbArc
 50
72.0610025464
 51
107.9389974536
  0
ARC
  5
85
330
1F
100
AcDbEntity
  8
0
  6
Continuous
 62
     7
370
    15
100
AcDbCircle
 10
3.2952378206
 20
7.1754727336
 30
0.0
 40
0.0590649131838038
100
AcDbArc
 50
157.5845186693
 51
206.5881128004
  0
ARC
  5
86
330
1F
100
AcDbEntity
  8
0
  6
Continuous
 62
     7
370
    15
100
AcDbCircle
 10
3.2951546837
 20
7.2055982339
 30
0.0
 40
0.0589855461854187
100
AcDbArc
 50
164.1624342014
 51
179.9930476723
  0
LINE
  5
87
330
1F
100
AcDbEntity
  8
0
  6
Continuous
 62
     7
370
    15
100
AcDbLine
 10
3.2384082721
 20
7.2216960421
 30
0.0
 11
3.2384082721
 21
7.1990995806
 31
0.0
  0
ARC
  5
88
330
1F
100
AcDbEntity
  8
0
  6
Continuous
 62
     7
370
    15
100
AcDbCircle
 10
3.2956909544
 20
7.1828512434
 30
0.0
 40
0.0595425407641183
100
AcDbArc
 50
153.4678769183
 51
164.1639154677
  0
LINE
  5
89
330
1F
100
AcDbEntity
  8
0
  6
Continuous
 62
     7
370
    15
100
AcDbLine
 10
3.2435884789
 20
7.2173073127
 30
0.0
 11
3.2435884789
 21
7.2342704551
 31
0.0
  0
ARC
  5
8A
330
1F
100
AcDbEntity
  8
0
  6
Continuous
 62
     7
370
    15
100
AcDbCircle
 10
3.2973887596
 20
7.204382307
 30
0.0
 40
0.0615448747006553
100
AcDbArc
 50
118.7549058855
 51
150.9461256178
  0
LINE
  5
8B
330
1F
100
AcDbEntity
  8
0
  6
Continuous
 62
     7
370
    15
100
AcDbLine
 10
3.2677817461
 20
7.2583378104
 30
0.0
 11
3.2677817461
 21
7.235741349
 31
0.0
  0
ARC
  5
8C
330
1F
100
AcDbEntity
  8
0
  6
Continuous
 62
     7
370
    15
100
AcDbCircle
 10
3.2984505713
 20
7.1801173112
 30
0.0
 40
0.0635185832568977
100
AcDbArc
 50
106.3158035137
 51
118.8705496223
  0
LINE
  5
8D
330
1F
100
AcDbEntity
  8
0
  6
Continuous
 62
     7
370
    15
100
AcDbLine
 10
3.2806062046
 20
7.241077864
 30
0.0
 11
3.2806062046
 21
7.2636743254
 31
0.0
  0
ARC
  5
8E
330
1F
100
AcDbEntity
  8
0
  6
Continuous
 62
     7
370
    15
100
AcDbCircle
 10
3.2986698748
 20
7.2019504837
 30
0.0
 40
0.0643127423159108
100
AcDbArc
 50
75.0614357872
 51
106.3122753366
  0
LINE
  5
8F
330
1F
100
AcDbEntity
  8
0
  6
Continuous
 62
     7
370
    15
100
AcDbLine
 10
3.3152486177
 20
7.2640896348
 30
0.0
 11
3.3152486177
 21
7.2414931825
 31
0.0
  0
ARC
  5
90
330
1F
100
AcDbEntity
  8
0
  6
Continuous
 62
     7
370
    15
100
AcDbCircle
 10
3.2988517773
 20
7.1800275205
 30
0.0
 40
0.0636151238425088
100
AcDbArc
 50
62.5212917793
 51
75.0633636716
  0
LINE
  5
91
330
1F
100
AcDbEntity
  8
0
  6
Continuous
 62
     7
370
    15
100
AcDbLine
 10
3.3282050014
 20
7.2364657364
 30
0.0
 11
3.3282050014
 21
7.2590621979
 31
0.0
  0
ARC
  5
92
330
1F
100
AcDbEntity
  8
0
  6
Continuous
 62
     7
370
    15
100
AcDbCircle
 10
3.2998562591
 20
7.2042860911
 30
0.0
 40
0.0616771681418501
100
AcDbArc
 50
30.491989626
 51
62.6366967626
  0
LINE
  5
93
330
1F
100
AcDbEntity
  8
0
  6
Continuous
 62
     7
370
    15
100
AcDbLine
 10
3.3530034816
 20
7.23558219
 30
0.0
 11
3.3530034816
 21
7.2330098055
 31
0.0
  0
ARC
  5
94
330
1F
100
AcDbEntity
  8
0
  6
Continuous
 62
     7
370
    15
100
AcDbCircle
 10
3.2727932921
 20
7.2643721231
 30
0.0
 40
0.0078440119118865
100
AcDbArc
 50
230.2900910406
 51
354.8962620954
  0
ARC
  5
95
330
1F
100
AcDbEntity
  8
0
  6
Continuous
 62
     7
370
    15
100
AcDbCircle
 10
3.3230490342
 20
7.2649834676
 30
0.0
 40
0.0078514605911729
100
AcDbArc
 50
186.5368880821
 51
311.0478378322
  0
ARC
  5
96
330
1F
100
AcDbEntity
  8
0
  6
Continuous
 62
     7
370
    15
100
AcDbCircle
 10
3.2377714493
 20
7.2295611645
 30
0.0
 40
0.0078908614969333
100
AcDbArc
 50
274.6290236467
 51
317.4922225071
  0
LWPOLYLINE
  5
97
330
1F
100
AcDbEntity
  8
0
  6
Continuous
 62
     7
370
    15
100
AcDbPolyline
 90
       14
 70
   128
 43
0.0
 10
3.2703133302
 20
7.4018495913
 10
3.2723796196
 20
7.4112004137
 10
3.276156316
 20
7.420074662
 10
3.2815285073
 20
7.4282026973
 10
3.288333102
 20
7.4353375632
 10
3.2963632292
 20
7.4412624614
 10
3.3053749851
 20
7.4457973699
 10
3.3150945462
 20
7.4488044968
 10
3.3252265291
 20
7.4501924699
 10
3.3354631576
 20
7.4499191231
 10
3.345493355
 20
7.447992752
 10
3.3550122784
 20
7.4444719035
 10
3.363730851
 20
7.4394635422
 10
3.3701142239
 20
7.4343352181
  0
ARC
  5
98
330
1F
100
AcDbEntity
  8
0
  6
Continuous
 62
     7
370
    15
100
AcDbCircle
 10
3.3220163859
 20
7.3956083947
 30
0.0
 40
0.0520783880856436
100
AcDbArc
 50
173.1169955454
 51
216.0655860048
  0
ARC
  5
99
330
1F
100
AcDbEntity
  8
0
  6
Continuous
 62
     7
370
    15
100
AcDbCircle
 10
3.336113561
 20
7.4407216187
 30
0.0
 40
0.0513055918760306
100
AcDbArc
 50
0.0165396286
 51
16.827597511
  0
ARC
  5
9A
330
1F
100
AcDbEntity
  8
0
  6
Continuous
 62
     7
370
    15
100
AcDbCircle
 10
3.3217843794
 20
7.4406471027
 30
0.0
 40
0.0518652882269399
100
AcDbArc
 50
149.090420284
 51
179.9013206106
  0
LINE
  5
9B
330
1F
100
AcDbEntity
  8
0
  6
Continuous
 62
     7
370
    15
100
AcDbLine
 10
3.2772850496
 20
7.4672895083
 30
0.0
 11
3.2772850496
 21
7.4333740126
 31
0.0
  0
ARC
  5
9C
330
1F
100
AcDbEntity
  8
0
  6
Continuous
 62
     7
370
    15
100
AcDbCircle
 10
3.3247280318
 20
7.4050869264
 30
0.0
 40
0.0552358199388724
100
AcDbArc
 50
133.6389768433
 51
149.1951951615
  0
LINE
  5
9D
330
1F
100
AcDbEntity
  8
0
  6
Continuous
 62
     7
370
    15
100
AcDbLine
 10
3.2866091286
 20
7.4450612309
 30
0.0
 11
3.2866091286
 21
7.4789767266
 31
0.0
  0
ARC
  5
9E
330
1F
100
AcDbEntity
  8
0
  6
Continuous
 62
     7
370
    15
100
AcDbCircle
 10
3.3282912874
 20
7.4346725904
 30
0.0
 40
0.0608297530032635
100
AcDbArc
 50
90.6102391979
 51
133.2534227841
  0
LINE
  5
9F
330
1F
100
AcDbEntity
  8
0
  6
Continuous
 62
     7
370
    15
100
AcDbLine
 10
3.3276434212
 20
7.4954988932
 30
0.0
 11
3.3276434212
 21
7.4615833975
 31
0.0
  0
ARC
  5
A0
330
1F
100
AcDbEntity
  8
0
  6
Continuous
 62
     7
370
    15
100
AcDbCircle
 10
3.3286778602
 20
7.398781478
 30
0.0
 40
0.062810438264309
100
AcDbArc
 50
76.6673061713
 51
90.943659503
  0
LINE
  5
A1
330
1F
100
AcDbEntity
  8
0
  6
Continuous
 62
     7
370
    15
100
AcDbLine
 10
3.343162262
 20
7.4598990145
 30
0.0
 11
3.343162262
 21
7.4938145193
 31
0.0
  0
ARC
  5
A2
330
1F
100
AcDbEntity
  8
0
  6
Continuous
 62
     7
370
    15
100
AcDbCircle
 10
3.3301393793
 20
7.4367366502
 30
0.0
 40
0.0585446719915574
100
AcDbArc
 50
33.3782673335
 51
77.1474069405
  0
LINE
  5
A3
330
1F
100
AcDbEntity
  8
0
  6
Continuous
 62
     7
370
    15
100
AcDbLine
 10
3.3790274943
 20
7.4689458233
 30
0.0
 11
3.3790274943
 21
7.4350303184
 31
0.0
  0
LINE
  5
A4
330
1F
100
AcDbEntity
  8
0
  6
Continuous
 62
     7
370
    15
100
AcDbLine
 10
3.3794680759
 20
7.4343352181
 30
0.0
 11
3.3790274943
 21
7.4350303184
 31
0.0
  0
LINE
  5
A5
330
1F
100
AcDbEntity
  8
0
  6
Continuous
 62
     7
370
    15
100
AcDbLine
 10
3.3852222561
 20
7.4343352181
 30
0.0
 11
3.3852222561
 21
7.4555742219
 31
0.0
  0
ARC
  5
A6
330
1F
100
AcDbEntity
  8
0
  6
Continuous
 62
     7
370
    15
100
AcDbCircle
 10
3.3286691594
 20
7.3894829528
 30
0.0
 40
0.0497505979366591
100
AcDbArc
 50
64.3615337858
 51
115.6384662142
  0
ARC
  5
A7
330
1F
100
AcDbEntity
  8
0
  6
Continuous
 62
     7
370
    15
100
AcDbCircle
 10
3.3353862823
 20
7.4950616835
 30
0.0
 40
0.0078753589353974
100
AcDbArc
 50
190.5248937144
 51
350.888118296
  0
ARC
  5
A8
330
1F
100
AcDbEntity
  8
0
  6
Continuous
 62
     7
370
    15
100
AcDbCircle
 10
3.2820309309
 20
7.4740312304
 30
0.0
 40
0.0082446470797282
100
AcDbArc
 50
234.8561087951
 51
303.7309225775
  0
ARC
  5
A9
330
1F
100
AcDbEntity
  8
0
  6
Continuous
 62
     7
370
    15
100
AcDbCircle
 10
3.3820296771
 20
7.4632565185
 30
0.0
 40
0.0083192692216867
100
AcDbArc
 50
248.846304413
 51
292.5666033569
  0
LWPOLYLINE
  5
AA
330
1F
100
AcDbEntity
  8
0
  6
Continuous
 62
     7
370
    15
100
AcDbPolyline
 90
        3
 70
   128
 43
0.0
 10
4.7745798328
 20
7.2445541813
 10
4.7654197986
 20
7.2490483536
 10
4.7587430957
 20
7.2537338686
  0
ARC
  5
AB
330
1F
100
AcDbEntity
  8
0
  6
Continuous
 62
     7
370
    15
100
AcDbCircle
 10
4.7965371224
 20
7.2982880353
 30
0.0
 40
0.0580469605824003
100
AcDbArc
 50
247.7735794277
 51
33.5401803548
  0
ARC
  5
AC
330
1F
100
AcDbEntity
  8
0
  6
Continuous
 62
     7
370
    15
100
AcDbCircle
 10
4.7982704833
 20
7.2742279339
 30
0.0
 40
0.0566486815016959
100
AcDbArc
 50
345.8239632166
 51
359.9970235516
  0
LINE
  5
AD
330
1F
100
AcDbEntity
  8
0
  6
Continuous
 62
     7
370
    15
100
AcDbLine
 10
4.8531940913
 20
7.2603545638
 30
0.0
 11
4.8531940913
 21
7.2783214125
 31
0.0
  0
ARC
  5
AE
330
1F
100
AcDbEntity
  8
0
  6
Continuous
 62
     7
370
    15
100
AcDbCircle
 10
4.7978904842
 20
7.292299636
 30
0.0
 40
0.0570427881805727
100
AcDbArc
 50
330.3265612111
 51
345.8153272068
  0
LINE
  5
AF
330
1F
100
AcDbEntity
  8
0
  6
Continuous
 62
     7
370
    15
100
AcDbLine
 10
4.8474527443
 20
7.2640602652
 30
0.0
 11
4.8474527443
 21
7.246093421
 31
0.0
  0
ARC
  5
B0
330
1F
100
AcDbEntity
  8
0
  6
Continuous
 62
     7
370
    15
100
AcDbCircle
 10
4.7966389545
 20
7.2752145293
 30
0.0
 40
0.0585668863085379
100
AcDbArc
 50
285.6547450348
 51
330.1832111358
  0
LINE
  5
B1
330
1F
100
AcDbEntity
  8
0
  6
Continuous
 62
     7
370
    15
100
AcDbLine
 10
4.812442642
 20
7.2188201711
 30
0.0
 11
4.812442642
 21
7.2367870152
 31
0.0
  0
ARC
  5
B2
330
1F
100
AcDbEntity
  8
0
  6
Continuous
 62
     7
370
    15
100
AcDbCircle
 10
4.7961745209
 20
7.2943106598
 30
0.0
 40
0.0597797746461809
100
AcDbArc
 50
270.7798806212
 51
285.7913037482
  0
LINE
  5
B3
330
1F
100
AcDbEntity
  8
0
  6
Continuous
 62
     7
370
    15
100
AcDbLine
 10
4.7969881872
 20
7.2345364229
 30
0.0
 11
4.7969881872
 21
7.2165695788
 31
0.0
  0
ARC
  5
B4
330
1F
100
AcDbEntity
  8
0
  6
Continuous
 62
     7
370
    15
100
AcDbCircle
 10
4.7960882666
 20
7.2759074329
 30
0.0
 40
0.059344677893076
100
AcDbArc
 50
226.7385792007
 51
270.8688838593
  0
LINE
  5
B5
330
1F
100
AcDbEntity
  8
0
  6
Continuous
 62
     7
370
    15
100
AcDbLine
 10
4.7554176875
 20
7.2326905984
 30
0.0
 11
4.7554176875
 21
7.2506574425
 31
0.0
  0
ARC
  5
B6
330
1F
100
AcDbEntity
  8
0
  6
Continuous
 62
     7
370
    15
100
AcDbCircle
 10
4.7953905793
 20
7.2929512095
 30
0.0
 40
0.0581944568674569
100
AcDbArc
 50
222.3689155378
 51
226.6159777911
  0
LINE
  5
B7
330
1F
100
AcDbEntity
  8
0
  6
Continuous
 62
     7
370
    15
100
AcDbLine
 10
4.745704653
 20
7.2537338686
 30
0.0
 11
4.745704653
 21
7.2447011488
 31
0.0
  0
LWPOLYLINE
  5
B8
330
1F
100
AcDbEntity
  8
0
  6
Continuous
 62
     7
370
    15
100
AcDbPolyline
 90
        3
 70
   128
 43
0.0
 10
4.745704653
 20
7.2447011488
 10
4.7430145241
 20
7.2496659048
 10
4.7412541044
 20
7.2537338686
  0
ARC
  5
B9
330
1F
100
AcDbEntity
  8
0
  6
Continuous
 62
     7
370
    15
100
AcDbCircle
 10
4.7961691734
 20
7.2998938213
 30
0.0
 40
0.0477195353758423
100
AcDbArc
 50
255.3112885752
 51
284.6887114248
  0
ARC
  5
BA
330
1F
100
AcDbEntity
  8
0
  6
Continuous
 62
     7
370
    15
100
AcDbCircle
 10
4.80469902
 20
7.2176576024
 30
0.0
 40
0.0078304053729016
100
AcDbArc
 50
8.5381851945
 51
169.9742797681
  0
ARC
  5
BB
330
1F
100
AcDbEntity
  8
0
  6
Continuous
 62
     7
370
    15
100
AcDbCircle
 10
4.7506424059
 20
7.2385066625
 30
0.0
 40
0.0079216831425759
100
AcDbArc
 50
52.928478427
 51
128.5590726673
  0
LWPOLYLINE
  5
BC
330
1F
100
AcDbEntity
  8
0
  6
Continuous
 62
     7
370
    15
100
AcDbPolyline
 90
        3
 70
   128
 43
0.0
 10
4.8474527443
 20
7.2604290971
 10
4.8501766061
 20
7.2609287847
 10
4.8531940913
 20
7.2603545638
  0
LWPOLYLINE
  5
BD
330
1F
100
AcDbEntity
  8
0
  6
Continuous
 62
     7
370
    15
100
AcDbPolyline
 90
        9
 70
   128
 43
0.0
 10
3.3034191344
 20
7.3852944938
 10
3.298834534
 20
7.3854578511
 10
3.2944260783
 20
7.3859416301
 10
3.2903632386
 20
7.3867272548
 10
3.2868021397
 20
7.3877845213
 10
3.2838796201
 20
7.3890728081
 10
3.2817080252
 20
7.3905426019
 10
3.280370734
 20
7.3921374231
 10
3.2799191525
 20
7.3937959794
  0
ARC
  5
BE
330
1F
100
AcDbEntity
  8
0
  6
Continuous
 62
     7
370
    15
100
AcDbCircle
 10
3.3026502991
 20
7.3929711996
 30
0.0
 40
0.0227461048046148
100
AcDbArc
 50
88.0629908854
 51
177.9219844369
  0
LINE
  5
BF
330
1F
100
AcDbEntity
  8
0
  6
Continuous
 62
     7
370
    15
100
AcDbLine
 10
3.3034191344
 20
7.4157043071
 30
0.0
 11
3.3034191344
 21
7.3852944938
 31
0.0
  0
LINE
  5
C0
330
1F
100
AcDbEntity
  8
0
  6
Continuous
 62
     7
370
    15
100
AcDbLine
 10
3.3924191796
 20
7.3852944938
 30
0.0
 11
3.3034191344
 21
7.3852944938
 31
0.0
  0
LINE
  5
C1
330
1F
100
AcDbEntity
  8
0
  6
Continuous
 62
     7
370
    15
100
AcDbLine
 10
3.3924191796
 20
7.4157043071
 30
0.0
 11
3.3034191344
 21
7.4157043071
 31
0.0
  0
LINE
  5
C2
330
1F
100
AcDbEntity
  8
0
  6
Continuous
 62
     7
370
    15
100
AcDbLine
 10
3.2799191525
 20
7.347881722
 30
0.0
 11
3.2799191525
 21
7.3937959794
 31
0.0
  0
LINE
  5
C3
330
1F
100
AcDbEntity
  8
0
  6
Continuous
 62
     7
370
    15
100
AcDbLine
 10
3.3034191344
 20
7.3852944938
 30
0.0
 11
3.3034191344
 21
7.339380237
 31
0.0
  0
LWPOLYLINE
  5
C4
330
1F
100
AcDbEntity
  8
0
  6
Continuous
 62
     7
370
    15
100
AcDbPolyline
 90
        9
 70
   128
 43
0.0
 10
3.3034191344
 20
7.339380237
 10
3.298834534
 20
7.3395435909
 10
3.2944260783
 20
7.3400273742
 10
3.2903632386
 20
7.3408129957
 10
3.2868021397
 20
7.3418702644
 10
3.2838796201
 20
7.3431585501
 10
3.2817080252
 20
7.3446283446
 10
3.280370734
 20
7.3462231646
 10
3.2799191525
 20
7.347881722
  0
LINE
  5
C5
330
1F
100
AcDbEntity
  8
0
  6
Continuous
 62
     7
370
    15
100
AcDbLine
 10
3.3924191796
 20
7.339380237
 30
0.0
 11
3.3034191344
 21
7.339380237
 31
0.0
  0
LINE
  5
C6
330
1F
100
AcDbEntity
  8
0
  6
Continuous
 62
     7
370
    15
100
AcDbLine
 10
3.3034191344
 20
7.4343352181
 30
0.0
 11
3.3034191344
 21
7.4157043071
 31
0.0
  0
LINE
  5
C7
330
1F
100
AcDbEntity
  8
0
  6
Continuous
 62
     7
370
    15
100
AcDbLine
 10
3.3924191796
 20
7.4343352181
 30
0.0
 11
3.3034191344
 21
7.4343352181
 31
0.0
  0
LINE
  5
C8
330
1F
100
AcDbEntity
  8
0
  6
Continuous
 62
     7
370
    15
100
AcDbLine
 10
3.2799191525
 20
7.3937959794
 30
0.0
 11
3.2799191525
 21
7.412426895
 31
0.0
  0
ARC
  5
C9
330
1F
100
AcDbEntity
  8
0
  6
Continuous
 62
     7
370
    15
100
AcDbCircle
 10
3.3026502948
 20
7.4116021151
 30
0.0
 40
0.0227461005011332
100
AcDbArc
 50
88.0629796532
 51
177.921983712
  0
ARC
  5
CA
330
1F
100
AcDbEntity
  8
0
  6
Continuous
 62
     7
370
    15
100
AcDbCircle
 10
3.3286691594
 20
7.3852259909
 30
0.0
 40
0.0501605826332951
100
AcDbArc
 50
78.2485185689
 51
101.7514814311
  0
LWPOLYLINE
  5
CB
330
1F
100
AcDbEntity
  8
0
  6
Continuous
 62
     7
370
    15
100
AcDbPolyline
 90
        3
 70
   128
 43
0.0
 10
3.328669196
 20
7.4363398533
 10
3.3378140504
 20
7.4355001688
 10
3.3427035673
 20
7.4343352181
  0
LWPOLYLINE
  5
CC
330
1F
100
AcDbEntity
  8
0
  6
Continuous
 62
     7
370
    15
100
AcDbPolyline
 90
        3
 70
   128
 43
0.0
 10
3.3146347515
 20
7.4343352181
 10
3.3195243417
 20
7.4355001688
 10
3.328669196
 20
7.4363398533
  0
ARC
  5
CD
330
1F
100
AcDbEntity
  8
0
  6
Continuous
 62
     7
370
    15
100
AcDbCircle
 10
3.3287513718
 20
7.3895817694
 30
0.0
 40
0.049552788964752
100
AcDbArc
 50
64.5342696161
 51
90.0950163291
  0
ARC
  5
CE
330
1F
100
AcDbEntity
  8
0
  6
Continuous
 62
     7
370
    15
100
AcDbCircle
 10
3.3285870093
 20
7.3895814938
 30
0.0
 40
0.0495530644928886
100
AcDbArc
 50
89.9049714389
 51
115.4656584449
  0
LINE
  5
CF
330
1F
100
AcDbEntity
  8
0
  6
Continuous
 62
     7
370
    15
100
AcDbLine
 10
4.7324191531
 20
7.2911717528
 30
0.0
 11
4.8214191983
 21
7.2911717528
 31
0.0
  0
LINE
  5
D0
330
1F
100
AcDbEntity
  8
0
  6
Continuous
 62
     7
370
    15
100
AcDbLine
 10
4.8214191983
 20
7.2636036604
 30
0.0
 11
4.8214191983
 21
7.2911717528
 31
0.0
  0
LINE
  5
D1
330
1F
100
AcDbEntity
  8
0
  6
Continuous
 62
     7
370
    15
100
AcDbLine
 10
4.7324191531
 20
7.2636036604
 30
0.0
 11
4.8214191983
 21
7.2636036604
 31
0.0
  0
LWPOLYLINE
  5
D2
330
1F
100
AcDbEntity
  8
0
  6
Continuous
 62
     7
370
    15
100
AcDbPolyline
 90
        9
 70
   128
 43
0.0
 10
4.8214191983
 20
7.2911717528
 10
4.8260037987
 20
7.2910852159
 10
4.8304122544
 20
7.290828928
 10
4.8344750942
 20
7.2904127432
 10
4.838036193
 20
7.2898526526
 10
4.8409587126
 20
7.2891701793
 10
4.8431303075
 20
7.2883915487
 10
4.8444675987
 20
7.2875466897
 10
4.8449191802
 20
7.2866680611
  0
ARC
  5
D3
330
1F
100
AcDbEntity
  8
0
  6
Continuous
 62
     7
370
    15
100
AcDbCircle
 10
4.8216349285
 20
7.286887951
 30
0.0
 40
0.0232852899731371
100
AcDbArc
 50
269.4691668376
 51
359.4589307262
  0
LINE
  5
D4
330
1F
100
AcDbEntity
  8
0
  6
Continuous
 62
     7
370
    15
100
AcDbLine
 10
4.7324191531
 20
7.3395088565
 30
0.0
 11
4.8214191983
 21
7.3395088565
 31
0.0
  0
LINE
  5
D5
330
1F
100
AcDbEntity
  8
0
  6
Continuous
 62
     7
370
    15
100
AcDbLine
 10
4.8214191983
 20
7.2911717528
 30
0.0
 11
4.8214191983
 21
7.3395088565
 31
0.0
  0
LINE
  5
D6
330
1F
100
AcDbEntity
  8
0
  6
Continuous
 62
     7
370
    15
100
AcDbLine
 10
4.8449191802
 20
7.3350051665
 30
0.0
 11
4.8449191802
 21
7.2866680611
 31
0.0
  0
LWPOLYLINE
  5
D7
330
1F
100
AcDbEntity
  8
0
  6
Continuous
 62
     7
370
    15
100
AcDbPolyline
 90
        9
 70
   128
 43
0.0
 10
4.8214191983
 20
7.3395088565
 10
4.8260037987
 20
7.3394223193
 10
4.8304122544
 20
7.3391660334
 10
4.8344750942
 20
7.3387498478
 10
4.838036193
 20
7.3381897563
 10
4.8409587126
 20
7.3375072827
 10
4.8431303075
 20
7.3367286541
 10
4.8444675987
 20
7.3358837928
 10
4.8449191802
 20
7.3350051665
  0
LINE
  5
D8
330
1F
100
AcDbEntity
  8
0
  6
Continuous
 62
     7
370
    15
100
AcDbLine
 10
4.8214191983
 20
7.2537338686
 30
0.0
 11
4.8214191983
 21
7.2636036604
 31
0.0
  0
LINE
  5
D9
330
1F
100
AcDbEntity
  8
0
  6
Continuous
 62
     7
370
    15
100
AcDbLine
 10
4.7324191531
 20
7.2537338686
 30
0.0
 11
4.8214191983
 21
7.2537338686
 31
0.0
  0
LINE
  5
DA
330
1F
100
AcDbEntity
  8
0
  6
Continuous
 62
     7
370
    15
100
AcDbLine
 10
4.8449191802
 20
7.2866680611
 30
0.0
 11
4.8449191802
 21
7.2767982738
 31
0.0
  0
ARC
  5
DB
330
1F
100
AcDbEntity
  8
0
  6
Continuous
 62
     7
370
    15
100
AcDbCircle
 10
4.8216349285
 20
7.2770181592
 30
0.0
 40
0.0232852899003696
100
AcDbArc
 50
269.4691667651
 51
359.4589421823
  0
LWPOLYLINE
  5
DC
330
1F
100
AcDbEntity
  8
0
  6
Continuous
 62
     7
370
    15
100
AcDbPolyline
 90
        3
 70
   128
 43
0.0
 10
4.8027271876
 20
7.2537338686
 10
4.7961691367
 20
7.253281398
 10
4.7896111591
 20
7.2537338686
  0
LINE
  5
DD
330
1F
100
AcDbEntity
  8
0
  6
Continuous
 62
     7
370
    15
100
AcDbLine
 10
3.3924191796
 20
7.1876061709
 30
0.0
 11
3.2659191743
 21
7.1876061709
 31
0.0
  0
LINE
  5
DE
330
1F
100
AcDbEntity
  8
0
  6
Continuous
 62
     7
370
    15
100
AcDbLine
 10
3.2659191743
 20
7.216077527
 30
0.0
 11
3.2659191743
 21
7.1876061709
 31
0.0
  0
LINE
  5
DF
330
1F
100
AcDbEntity
  8
0
  6
Continuous
 62
     7
370
    15
100
AcDbLine
 10
3.3924191796
 20
7.216077527
 30
0.0
 11
3.2659191743
 21
7.216077527
 31
0.0
  0
LWPOLYLINE
  5
E0
330
1F
100
AcDbEntity
  8
0
  6
Continuous
 62
     7
370
    15
100
AcDbPolyline
 90
        9
 70
   128
 43
0.0
 10
3.2659191743
 20
7.1876061709
 10
3.2613345739
 20
7.1877150146
 10
3.2569261182
 20
7.1880373292
 10
3.2528632784
 20
7.1885607673
 10
3.2493021796
 20
7.1892651809
 10
3.24637966
 20
7.1901235101
 10
3.2442079917
 20
7.1911027738
 10
3.2428707005
 20
7.192165334
 10
3.2424191924
 20
7.1932703538
  0
ARC
  5
E1
330
1F
100
AcDbEntity
  8
0
  6
Continuous
 62
     7
370
    15
100
AcDbCircle
 10
3.265577844
 20
7.1929187212
 30
0.0
 40
0.0231613209772017
100
AcDbArc
 50
89.155596901
 51
179.1301085785
  0
LINE
  5
E2
330
1F
100
AcDbEntity
  8
0
  6
Continuous
 62
     7
370
    15
100
AcDbLine
 10
3.2424191924
 20
7.1175699616
 30
0.0
 11
3.2424191924
 21
7.1932703538
 31
0.0
  0
LINE
  5
E3
330
1F
100
AcDbEntity
  8
0
  6
Continuous
 62
     7
370
    15
100
AcDbLine
 10
3.2659191743
 20
7.1876061709
 30
0.0
 11
3.2659191743
 21
7.1119057787
 31
0.0
  0
LWPOLYLINE
  5
E4
330
1F
100
AcDbEntity
  8
0
  6
Continuous
 62
     7
370
    15
100
AcDbPolyline
 90
        9
 70
   128
 43
0.0
 10
3.2659191743
 20
7.1119057787
 10
3.2613345739
 20
7.1120146224
 10
3.2569261182
 20
7.112336937
 10
3.2528632784
 20
7.112860366
 10
3.2493021796
 20
7.1135647795
 10
3.24637966
 20
7.1144231179
 10
3.2442079917
 20
7.1154023633
 10
3.2428707005
 20
7.1164649327
 10
3.2424191924
 20
7.1175699616
  0
LINE
  5
E5
330
1F
100
AcDbEntity
  8
0
  6
Continuous
 62
     7
370
    15
100
AcDbLine
 10
3.3924191796
 20
7.1119057787
 30
0.0
 11
3.2659191743
 21
7.1119057787
 31
0.0
  0
LINE
  5
E6
330
1F
100
AcDbEntity
  8
0
  6
Continuous
 62
     7
370
    15
100
AcDbLine
 10
3.2659191743
 20
7.2330098055
 30
0.0
 11
3.2659191743
 21
7.216077527
 31
0.0
  0
LINE
  5
E7
330
1F
100
AcDbEntity
  8
0
  6
Continuous
 62
     7
370
    15
100
AcDbLine
 10
3.3924191796
 20
7.2330098055
 30
0.0
 11
3.2659191743
 21
7.2330098055
 31
0.0
  0
LINE
  5
E8
330
1F
100
AcDbEntity
  8
0
  6
Continuous
 62
     7
370
    15
100
AcDbLine
 10
3.2424191924
 20
7.1932703538
 30
0.0
 11
3.2424191924
 21
7.2102026415
 31
0.0
  0
ARC
  5
E9
330
1F
100
AcDbEntity
  8
0
  6
Continuous
 62
     7
370
    15
100
AcDbCircle
 10
3.2655778389
 20
7.2098510049
 30
0.0
 40
0.0231613159589606
100
AcDbArc
 50
89.1555841482
 51
179.1300983135
  0
ARC
  5
EA
330
1F
100
AcDbEntity
  8
0
  6
Continuous
 62
     7
370
    15
100
AcDbCircle
 10
4.8647759677
 20
7.3802125345
 30
0.0
 40
0.1067354793339272
100
AcDbArc
 50
80.4854475032
 51
93.1455246251
  0
ARC
  5
EB
330
1F
100
AcDbEntity
  8
0
  6
Continuous
 62
     7
370
    15
100
AcDbCircle
 10
4.8589373643
 20
7.4854978994
 30
0.0
 40
0.0234817830606849
100
AcDbArc
 50
269.9555775842
 51
359.9556498338
  0
LINE
  5
EC
330
1F
100
AcDbEntity
  8
0
  6
Continuous
 62
     7
370
    15
100
AcDbLine
 10
4.8589191585
 20
7.4620161234
 30
0.0
 11
4.8589191585
 21
7.4867872047
 31
0.0
  0
LINE
  5
ED
330
1F
100
AcDbEntity
  8
0
  6
Continuous
 62
     7
370
    15
100
AcDbLine
 10
4.7324191531
 20
7.4867872047
 30
0.0
 11
4.8589191585
 21
7.4867872047
 31
0.0
  0
LINE
  5
EE
330
1F
100
AcDbEntity
  8
0
  6
Continuous
 62
     7
370
    15
100
AcDbLine
 10
4.7324191531
 20
7.4620161234
 30
0.0
 11
4.8589191585
 21
7.4620161234
 31
0.0
  0
LINE
  5
EF
330
1F
100
AcDbEntity
  8
0
  6
Continuous
 62
     7
370
    15
100
AcDbLine
 10
4.8824191403
 20
7.5633589151
 30
0.0
 11
4.8824191403
 21
7.4854797231
 31
0.0
  0
LINE
  5
F0
330
1F
100
AcDbEntity
  8
0
  6
Continuous
 62
     7
370
    15
100
AcDbLine
 10
4.8589191585
 20
7.4867872047
 30
0.0
 11
4.8589191585
 21
7.5646663784
 31
0.0
  0
ARC
  5
F1
330
1F
100
AcDbEntity
  8
0
  6
Continuous
 62
     7
370
    15
100
AcDbCircle
 10
4.8647761053
 20
7.4580927044
 30
0.0
 40
0.1067344921348894
100
AcDbArc
 50
80.485433552
 51
93.1456276971
  0
LINE
  5
F2
330
1F
100
AcDbEntity
  8
0
  6
Continuous
 62
     7
370
    15
100
AcDbLine
 10
4.7324191531
 20
7.5646663784
 30
0.0
 11
4.8589191585
 21
7.5646663784
 31
0.0
  0
LINE
  5
F3
330
1F
100
AcDbEntity
  8
0
  6
Continuous
 62
     7
370
    15
100
AcDbLine
 10
4.8824191403
 20
7.4854797231
 30
0.0
 11
4.8824191403
 21
7.4815712025
 31
0.0
  0
ARC
  5
F4
330
1F
100
AcDbEntity
  8
0
  6
Continuous
 62
     7
370
    15
100
AcDbCircle
 10
4.8589373695
 20
7.4815893735
 30
0.0
 40
0.0234817778429037
100
AcDbArc
 50
269.9555648528
 51
359.9556625653
  0
LINE
  5
F5
330
1F
100
AcDbEntity
  8
0
  6
Continuous
 62
     7
370
    15
100
AcDbLine
 10
4.8589191585
 20
7.4581076027
 30
0.0
 11
4.8589191585
 21
7.4620161234
 31
0.0
  0
LINE
  5
F6
330
1F
100
AcDbEntity
  8
0
  6
Continuous
 62
     7
370
    15
100
AcDbLine
 10
4.7324191531
 20
7.4581076027
 30
0.0
 11
4.8589191585
 21
7.4581076027
 31
0.0
  0
CIRCLE
  5
F7
330
1F
100
AcDbEntity
  8
0
  6
Continuous
 62
     7
370
    15
100
AcDbCircle
 10
4.0624191664
 20
7.6809035653
 30
0.0
 40
0.0608726291492552
  0
CIRCLE
  5
F8
330
1F
100
AcDbEntity
  8
0
  6
Continuous
 62
     7
370
    15
100
AcDbCircle
 10
4.0624191664
 20
7.6809035653
 30
0.0
 40
0.0685578333233927
  0
CIRCLE
  5
F9
330
1F
100
AcDbEntity
  8
0
  6
Continuous
 62
     7
370
    15
100
AcDbCircle
 10
4.0624191664
 20
7.6809035653
 30
0.0
 40
0.0543749999999994
  0
CIRCLE
  5
FA
330
1F
100
AcDbEntity
  8
0
  6
Continuous
 62
     7
370
    15
100
AcDbCircle
 10
4.0624191664
 20
7.6809035653
 30
0.0
 40
0.0703125000000004
  0
CIRCLE
  5
FB
330
1F
100
AcDbEntity
  8
0
  6
Continuous
 62
     7
370
    15
100
AcDbCircle
 10
4.0624191664
 20
7.6809035653
 30
0.0
 40
0.0740624999999993
  0
CIRCLE
  5
FC
330
1F
100
AcDbEntity
  8
0
  6
Continuous
 62
     7
370
    15
100
AcDbCircle
 10
4.0624191664
 20
7.6809035653
 30
0.0
 40
0.0794312499999998
  0
CIRCLE
  5
FD
330
1F
100
AcDbEntity
  8
0
  6
Continuous
 62
     7
370
    15
100
AcDbCircle
 10
4.0624191664
 20
7.6809035653
 30
0.0
 40
0.08984375
  0
LINE
  5
FE
330
1F
100
AcDbEntity
  8
0
  6
Continuous
 62
     7
370
    15
100
AcDbLine
 10
4.0624191664
 20
7.7898784184
 30
0.0
 11
4.156794162
 21
7.7353909878
 31
0.0
  0
LINE
  5
FF
330
1F
100
AcDbEntity
  8
0
  6
Continuous
 62
     7
370
    15
100
AcDbLine
 10
4.156794162
 20
7.7353909878
 30
0.0
 11
4.156794162
 21
7.6264161267
 31
0.0
  0
LINE
  5
100
330
1F
100
AcDbEntity
  8
0
  6
Continuous
 62
     7
370
    15
100
AcDbLine
 10
4.0624191664
 20
7.5719286961
 30
0.0
 11
3.9680441708
 21
7.6264161267
 31
0.0
  0
LINE
  5
101
330
1F
100
AcDbEntity
  8
0
  6
Continuous
 62
     7
370
    15
100
AcDbLine
 10
3.9680441708
 20
7.6264161267
 30
0.0
 11
3.9680441708
 21
7.7353909878
 31
0.0
  0
LINE
  5
102
330
1F
100
AcDbEntity
  8
0
  6
Continuous
 62
     7
370
    15
100
AcDbLine
 10
4.156794162
 20
7.6264161267
 30
0.0
 11
4.0624191664
 21
7.5719286961
 31
0.0
  0
LINE
  5
103
330
1F
100
AcDbEntity
  8
0
  6
Continuous
 62
     7
370
    15
100
AcDbLine
 10
3.9680441708
 20
7.7353909878
 30
0.0
 11
4.0624191664
 21
7.7898784184
 31
0.0
  0
LWPOLYLINE
  5
104
330
1F
100
AcDbEntity
  8
0
  6
Continuous
 62
     7
370
    15
100
AcDbPolyline
 90
        3
 70
   128
 43
0.0
 10
4.1578566672
 20
7.6809035572
 10
4.1569677583
 20
7.6938989538
 10
4.156794162
 20
7.6951048332
  0
ARC
  5
105
330
1F
100
AcDbEntity
  8
0
  6
Continuous
 62
     7
370
    15
100
AcDbCircle
 10
4.0624191664
 20
7.6809035653
 30
0.0
 40
0.0954374999999997
100
AcDbArc
 50
51.442511743
 51
68.557488257
  0
ARC
  5
106
330
1F
100
AcDbEntity
  8
0
  6
Continuous
 62
     7
370
    15
100
AcDbCircle
 10
4.0624191664
 20
7.6809035653
 30
0.0
 40
0.0954374999999998
100
AcDbArc
 50
111.4425117431
 51
128.557488257
  0
ARC
  5
107
330
1F
100
AcDbEntity
  8
0
  6
Continuous
 62
     7
370
    15
100
AcDbCircle
 10
4.0624191664
 20
7.6809035653
 30
0.0
 40
0.0954375000000005
100
AcDbArc
 50
171.4425117431
 51
188.557488257
  0
ARC
  5
108
330
1F
100
AcDbEntity
  8
0
  6
Continuous
 62
     7
370
    15
100
AcDbCircle
 10
4.0624191664
 20
7.6809035653
 30
0.0
 40
0.0954375000000004
100
AcDbArc
 50
231.4425117431
 51
248.5574882569
  0
ARC
  5
109
330
1F
100
AcDbEntity
  8
0
  6
Continuous
 62
     7
370
    15
100
AcDbCircle
 10
4.0624191664
 20
7.6809035653
 30
0.0
 40
0.0954374999999995
100
AcDbArc
 50
291.4425117431
 51
308.5574882569
  0
LWPOLYLINE
  5
10A
330
1F
100
AcDbEntity
  8
0
  6
Continuous
 62
     7
370
    15
100
AcDbPolyline
 90
        3
 70
   128
 43
0.0
 10
4.156794162
 20
7.666702318
 10
4.1569677583
 20
7.6679081607
 10
4.1578566672
 20
7.6809035572
  0
CIRCLE
  5
10B
330
1F
100
AcDbEntity
  8
0
  6
Continuous
 62
     7
370
    15
100
AcDbCircle
 10
4.0624191664
 20
7.0031535653
 30
0.0
 40
0.0608726291492552
  0
CIRCLE
  5
10C
330
1F
100
AcDbEntity
  8
0
  6
Continuous
 62
     7
370
    15
100
AcDbCircle
 10
4.0624191664
 20
7.0031535653
 30
0.0
 40
0.0685578333233927
  0
CIRCLE
  5
10D
330
1F
100
AcDbEntity
  8
0
  6
Continuous
 62
     7
370
    15
100
AcDbCircle
 10
4.0624191664
 20
7.0031535653
 30
0.0
 40
0.0543749999999994
  0
CIRCLE
  5
10E
330
1F
100
AcDbEntity
  8
0
  6
Continuous
 62
     7
370
    15
100
AcDbCircle
 10
4.0624191664
 20
7.0031535653
 30
0.0
 40
0.0703125000000004
  0
CIRCLE
  5
10F
330
1F
100
AcDbEntity
  8
0
  6
Continuous
 62
     7
370
    15
100
AcDbCircle
 10
4.0624191664
 20
7.0031535653
 30
0.0
 40
0.0740624999999993
  0
CIRCLE
  5
110
330
1F
100
AcDbEntity
  8
0
  6
Continuous
 62
     7
370
    15
100
AcDbCircle
 10
4.0624191664
 20
7.0031535653
 30
0.0
 40
0.0794312499999998
  0
CIRCLE
  5
111
330
1F
100
AcDbEntity
  8
0
  6
Continuous
 62
     7
370
    15
100
AcDbCircle
 10
4.0624191664
 20
7.0031535653
 30
0.0
 40
0.08984375
  0
LINE
  5
112
330
1F
100
AcDbEntity
  8
0
  6
Continuous
 62
     7
370
    15
100
AcDbLine
 10
3.9680441708
 20
6.9486661428
 30
0.0
 11
3.9680441708
 21
7.0576410039
 31
0.0
  0
LINE
  5
113
330
1F
100
AcDbEntity
  8
0
  6
Continuous
 62
     7
370
    15
100
AcDbLine
 10
3.9680441708
 20
7.0576410039
 30
0.0
 11
4.0624191664
 21
7.1121284345
 31
0.0
  0
LINE
  5
114
330
1F
100
AcDbEntity
  8
0
  6
Continuous
 62
     7
370
    15
100
AcDbLine
 10
4.0624191664
 20
7.1121284345
 30
0.0
 11
4.156794162
 21
7.0576410039
 31
0.0
  0
LINE
  5
115
330
1F
100
AcDbEntity
  8
0
  6
Continuous
 62
     7
370
    15
100
AcDbLine
 10
4.156794162
 20
6.9486661428
 30
0.0
 11
4.0624191664
 21
6.8941787122
 31
0.0
  0
LINE
  5
116
330
1F
100
AcDbEntity
  8
0
  6
Continuous
 62
     7
370
    15
100
AcDbLine
 10
4.0624191664
 20
6.8941787122
 30
0.0
 11
3.9680441708
 21
6.9486661428
 31
0.0
  0
LINE
  5
117
330
1F
100
AcDbEntity
  8
0
  6
Continuous
 62
     7
370
    15
100
AcDbLine
 10
4.156794162
 20
7.0576410039
 30
0.0
 11
4.156794162
 21
6.9486661428
 31
0.0
  0
LWPOLYLINE
  5
118
330
1F
100
AcDbEntity
  8
0
  6
Continuous
 62
     7
370
    15
100
AcDbPolyline
 90
        3
 70
   128
 43
0.0
 10
4.1578566672
 20
7.0031535733
 10
4.1569677583
 20
7.0161489699
 10
4.156794162
 20
7.0173548126
  0
ARC
  5
119
330
1F
100
AcDbEntity
  8
0
  6
Continuous
 62
     7
370
    15
100
AcDbCircle
 10
4.0624191664
 20
7.0031535653
 30
0.0
 40
0.0954375000000002
100
AcDbArc
 50
51.442511743
 51
68.557488257
  0
ARC
  5
11A
330
1F
100
AcDbEntity
  8
0
  6
Continuous
 62
     7
370
    15
100
AcDbCircle
 10
4.0624191664
 20
7.0031535653
 30
0.0
 40
0.0954375000000007
100
AcDbArc
 50
111.4425117431
 51
128.557488257
  0
ARC
  5
11B
330
1F
100
AcDbEntity
  8
0
  6
Continuous
 62
     7
370
    15
100
AcDbCircle
 10
4.0624191664
 20
7.0031535653
 30
0.0
 40
0.0954375000000005
100
AcDbArc
 50
171.4425117431
 51
188.557488257
  0
ARC
  5
11C
330
1F
100
AcDbEntity
  8
0
  6
Continuous
 62
     7
370
    15
100
AcDbCircle
 10
4.0624191664
 20
7.0031535653
 30
0.0
 40
0.0954375
100
AcDbArc
 50
231.4425117431
 51
248.5574882569
  0
ARC
  5
11D
330
1F
100
AcDbEntity
  8
0
  6
Continuous
 62
     7
370
    15
100
AcDbCircle
 10
4.0624191664
 20
7.0031535653
 30
0.0
 40
0.0954374999999995
100
AcDbArc
 50
291.4425117431
 51
308.5574882569
  0
LWPOLYLINE
  5
11E
330
1F
100
AcDbEntity
  8
0
  6
Continuous
 62
     7
370
    15
100
AcDbPolyline
 90
        3
 70
   128
 43
0.0
 10
4.156794162
 20
6.9889522974
 10
4.1569677583
 20
6.9901581768
 10
4.1578566672
 20
7.0031535733
  0
LINE
  5
11F
330
1F
100
AcDbEntity
  8
0
  6
Continuous
 62
     7
370
    15
100
AcDbLine
 10
3.9132316665
 20
6.6970285764
 30
0.0
 11
3.9132316665
 21
6.79077855
 31
0.0
  0
LINE
  5
120
330
1F
100
AcDbEntity
  8
0
  6
Continuous
 62
     7
370
    15
100
AcDbLine
 10
4.2107316631
 20
6.6970285764
 30
0.0
 11
4.2107316631
 21
6.79077855
 31
0.0
  0
LINE
  5
121
330
1F
100
AcDbEntity
  8
0
  6
Continuous
 62
     7
370
    15
100
AcDbLine
 10
3.9132316665
 20
6.6970285764
 30
0.0
 11
4.2107316631
 21
6.6970285764
 31
0.0
  0
LINE
  5
122
330
1F
100
AcDbEntity
  8
0
  6
Continuous
 62
     7
370
    15
100
AcDbLine
 10
4.7324191531
 20
7.3420285653
 30
0.0
 11
4.7324191531
 21
6.79077855
 31
0.0
  0
LINE
  5
123
330
1F
100
AcDbEntity
  8
0
  6
Continuous
 62
     7
370
    15
100
AcDbLine
 10
4.7324191531
 20
7.8932785805
 30
0.0
 11
4.7324191531
 21
7.3420285653
 31
0.0
  0
LINE
  5
124
330
1F
100
AcDbEntity
  8
0
  6
Continuous
 62
     7
370
    15
100
AcDbLine
 10
4.4511691588
 20
6.7751535605
 30
0.0
 11
4.4511691588
 21
7.90890357
 31
0.0
  0
LINE
  5
125
330
1F
100
AcDbEntity
  8
0
  6
Continuous
 62
     7
370
    15
100
AcDbLine
 10
3.3924191796
 20
7.3420285653
 30
0.0
 11
3.3924191796
 21
7.8932785805
 31
0.0
  0
LINE
  5
126
330
1F
100
AcDbEntity
  8
0
  6
Continuous
 62
     7
370
    15
100
AcDbLine
 10
3.3924191796
 20
6.79077855
 30
0.0
 11
3.3924191796
 21
7.3420285653
 31
0.0
  0
LINE
  5
127
330
1F
100
AcDbEntity
  8
0
  6
Continuous
 62
     7
370
    15
100
AcDbLine
 10
3.6736691739
 20
7.90890357
 30
0.0
 11
3.6736691739
 21
6.7751535605
 31
0.0
  0
LINE
  5
128
330
1F
100
AcDbEntity
  8
0
  6
Continuous
 62
     7
370
    15
100
AcDbLine
 10
3.677294182
 20
7.3420285653
 30
0.0
 11
3.677294182
 21
7.8932785805
 31
0.0
  0
LINE
  5
129
330
1F
100
AcDbEntity
  8
0
  6
Continuous
 62
     7
370
    15
100
AcDbLine
 10
3.677294182
 20
6.79077855
 30
0.0
 11
3.677294182
 21
7.3420285653
 31
0.0
  0
LINE
  5
12A
330
1F
100
AcDbEntity
  8
0
  6
Continuous
 62
     7
370
    15
100
AcDbLine
 10
4.4475441507
 20
7.3420285653
 30
0.0
 11
4.4475441507
 21
7.8932785805
 31
0.0
  0
LINE
  5
12B
330
1F
100
AcDbEntity
  8
0
  6
Continuous
 62
     7
370
    15
100
AcDbLine
 10
4.4475441507
 20
6.79077855
 30
0.0
 11
4.4475441507
 21
7.3420285653
 31
0.0
  0
LINE
  5
12C
330
1F
100
AcDbEntity
  8
0
  6
Continuous
 62
     7
370
    15
100
AcDbLine
 10
3.6804191726
 20
6.79077855
 30
0.0
 11
4.4444191601
 21
6.79077855
 31
0.0
  0
LINE
  5
12D
330
1F
100
AcDbEntity
  8
0
  6
Continuous
 62
     7
370
    15
100
AcDbLine
 10
3.6804191726
 20
7.8464035754
 30
0.0
 11
3.6804191726
 21
6.79077855
 31
0.0
  0
LINE
  5
12E
330
1F
100
AcDbEntity
  8
0
  6
Continuous
 62
     7
370
    15
100
AcDbLine
 10
4.4444191601
 20
7.8464035754
 30
0.0
 11
3.6804191726
 21
7.8464035754
 31
0.0
  0
LINE
  5
12F
330
1F
100
AcDbEntity
  8
0
  6
Continuous
 62
     7
370
    15
100
AcDbLine
 10
4.4444191601
 20
7.8464035754
 30
0.0
 11
4.4444191601
 21
6.79077855
 31
0.0
  0
LINE
  5
130
330
1F
100
AcDbEntity
  8
0
  6
Continuous
 62
     7
370
    15
100
AcDbLine
 10
3.6804191726
 20
7.8932785805
 30
0.0
 11
4.4444191601
 21
7.8932785805
 31
0.0
  0
LINE
  5
131
330
1F
100
AcDbEntity
  8
0
  6
Continuous
 62
     7
370
    15
100
AcDbLine
 10
4.4444191601
 20
7.8932785805
 30
0.0
 11
4.4444191601
 21
7.8464035754
 31
0.0
  0
LINE
  5
132
330
1F
100
AcDbEntity
  8
0
  6
Continuous
 62
     7
370
    15
100
AcDbLine
 10
3.6804191726
 20
7.8464035754
 30
0.0
 11
3.6804191726
 21
7.8932785805
 31
0.0
  0
LINE
  5
133
330
1F
100
AcDbEntity
  8
0
  6
Continuous
 62
     8
370
    15
100
AcDbLine
 10
3.3034191344
 20
7.339380237
 30
0.0
 11
3.3034191344
 21
7.3243817224
 31
0.0
  0
LINE
  5
134
330
1F
100
AcDbEntity
  8
0
  6
Continuous
 62
     8
370
    15
100
AcDbLine
 10
4.8214191983
 20
7.3395088565
 30
0.0
 11
4.8214191983
 21
7.3585051661
 31
0.0
  0
LINE
  5
135
330
1F
100
AcDbEntity
  8
0
  6
Continuous
 62
     8
370
    15
100
AcDbLine
 10
3.2659191743
 20
7.1119057787
 30
0.0
 11
3.2659191743
 21
7.0940699614
 31
0.0
  0
LINE
  5
136
330
1F
100
AcDbEntity
  8
0
  6
Continuous
 62
     8
370
    15
100
AcDbLine
 10
4.8589191585
 20
7.5646663784
 30
0.0
 11
4.8589191585
 21
7.5868589153
 31
0.0
  0
ARC
  5
137
330
1F
100
AcDbEntity
  8
0
  6
Continuous
 62
     8
370
    15
100
AcDbCircle
 10
3.2974639701
 20
7.330647649
 30
0.0
 40
0.0300450495463017
100
AcDbArc
 50
125.7288725119
 51
179.7572315437
  0
ARC
  5
138
330
1F
100
AcDbEntity
  8
0
  6
Continuous
 62
     8
370
    15
100
AcDbCircle
 10
4.7959377173
 20
7.1810451747
 30
0.0
 40
0.0228943865254669
100
AcDbArc
 50
180.4926889272
 51
270.5791630642
  0
ARC
  5
139
330
1F
100
AcDbEntity
  8
0
  6
Continuous
 62
     8
370
    15
100
AcDbCircle
 10
4.7964006283
 20
7.1810451751
 30
0.0
 40
0.0228943876571902
100
AcDbArc
 50
269.4206562562
 51
359.5073100916
  0
ARC
  5
13A
330
1F
100
AcDbEntity
  8
0
  6
Continuous
 62
     8
370
    15
100
AcDbCircle
 10
3.329493975
 20
7.6311393179
 30
0.0
 40
0.0223124025016733
100
AcDbArc
 50
1.8965031661
 51
92.1184235839
  0
ARC
  5
13B
330
1F
100
AcDbEntity
  8
0
  6
Continuous
 62
     8
370
    15
100
AcDbCircle
 10
3.3278443478
 20
7.6311393164
 30
0.0
 40
0.0223124065697903
100
AcDbArc
 50
87.8813986952
 51
178.1034933081
  0
LINE
  5
13C
330
1F
100
AcDbEntity
  8
0
  6
Continuous
 62
     8
370
    15
100
AcDbLine
 10
4.685544148
 20
7.3420285653
 30
0.0
 11
4.685544148
 21
7.940153549
 31
0.0
  0
LINE
  5
13D
330
1F
100
AcDbEntity
  8
0
  6
Continuous
 62
     8
370
    15
100
AcDbLine
 10
4.685544148
 20
6.7439035815
 30
0.0
 11
4.685544148
 21
7.3420285653
 31
0.0
  0
LINE
  5
13E
330
1F
100
AcDbEntity
  8
0
  6
Continuous
 62
     8
370
    15
100
AcDbLine
 10
4.4824191745
 20
7.940153549
 30
0.0
 11
4.4824191745
 21
6.7439035815
 31
0.0
  0
LINE
  5
13F
330
1F
100
AcDbEntity
  8
0
  6
Continuous
 62
     8
370
    15
100
AcDbLine
 10
3.4392941848
 20
7.3420285653
 30
0.0
 11
3.4392941848
 21
6.7439035815
 31
0.0
  0
LINE
  5
140
330
1F
100
AcDbEntity
  8
0
  6
Continuous
 62
     8
370
    15
100
AcDbLine
 10
3.4392941848
 20
7.940153549
 30
0.0
 11
3.4392941848
 21
7.3420285653
 31
0.0
  0
LINE
  5
141
330
1F
100
AcDbEntity
  8
0
  6
Continuous
 62
     8
370
    15
100
AcDbLine
 10
3.6424191582
 20
6.7439035815
 30
0.0
 11
3.6424191582
 21
7.940153549
 31
0.0
  0
ENDSEC
  0
SECTION
  2
OBJECTS
  0
DICTIONARY
  5
C
330
0
100
AcDbDictionary
281
     1
  3
ACAD_GROUP
350
D
  3
ACAD_LAYOUT
350
1A
  3
ACAD_MLINESTYLE
350
17
  3
ACAD_PLOTSETTINGS
350
19
  3
ACAD_PLOTSTYLENAME
350
E
  0
DICTIONARY
  5
D
102
{ACAD_REACTORS
330
C
102
}
330
C
100
AcDbDictionary
281
     1
  0
DICTIONARY
  5
1A
102
{ACAD_REACTORS
330
C
102
}
330
C
100
AcDbDictionary
281
     1
  3
Layout1
350
1E
  3
Layout2
350
26
  3
Model
350
22
  0
DICTIONARY
  5
17
102
{ACAD_REACTORS
330
C
102
}
330
C
100
AcDbDictionary
281
     1
  3
Standard
350
18
  0
DICTIONARY
  5
19
102
{ACAD_REACTORS
330
C
102
}
330
C
100
AcDbDictionary
281
     1
  0
ACDBDICTIONARYWDFLT
  5
E
102
{ACAD_REACTORS
330
C
102
}
330
C
100
AcDbDictionary
281
     1
  3
Normal
350
F
100
AcDbDictionaryWithDefault
340
F
  0
LAYOUT
  5
1E
102
{ACAD_REACTORS
330
1A
102
}
330
1A
100
AcDbPlotSettings
  1

  2
none_device
  4

  6

 40
0.0
 41
0.0
 42
0.0
 43
0.0
 44
0.0
 45
0.0
 46
0.0
 47
0.0
 48
0.0
 49
0.0
140
0.0
141
0.0
142
1.0
143
1.0
 70
   688
 72
     0
 73
     0
 74
     5
  7

 75
    16
147
1.0
148
0.0
149
0.0
100
AcDbLayout
  1
Layout1
 70
     1
 71
     1
 10
0.0
 20
0.0
 11
12.0
 21
9.0
 12
0.0
 22
0.0
 32
0.0
 14
1.0000000000E+20
 24
1.0000000000E+20
 34
1.0000000000E+20
 15
-1.0000000000E+20
 25
-1.0000000000E+20
 35
-1.0000000000E+20
146
0.0
 13
0.0
 23
0.0
 33
0.0
 16
1.0
 26
0.0
 36
0.0
 17
0.0
 27
1.0
 37
0.0
 76
     0
330
1B
  0
LAYOUT
  5
26
102
{ACAD_REACTORS
330
1A
102
}
330
1A
100
AcDbPlotSettings
  1

  2
none_device
  4

  6

 40
0.0
 41
0.0
 42
0.0
 43
0.0
 44
0.0
 45
0.0
 46
0.0
 47
0.0
 48
0.0
 49
0.0
140
0.0
141
0.0
142
1.0
143
1.0
 70
   688
 72
     0
 73
     0
 74
     5
  7

 75
    16
147
1.0
148
0.0
149
0.0
100
AcDbLayout
  1
Layout2
 70
     1
 71
     2
 10
0.0
 20
0.0
 11
0.0
 21
0.0
 12
0.0
 22
0.0
 32
0.0
 14
0.0
 24
0.0
 34
0.0
 15
0.0
 25
0.0
 35
0.0
146
0.0
 13
0.0
 23
0.0
 33
0.0
 16
1.0
 26
0.0
 36
0.0
 17
0.0
 27
1.0
 37
0.0
 76
     0
330
23
  0
LAYOUT
  5
22
102
{ACAD_REACTORS
330
1A
102
}
330
1A
100
AcDbPlotSettings
  1

  2
none_device
  4

  6

 40
0.0
 41
0.0
 42
0.0
 43
0.0
 44
0.0
 45
0.0
 46
0.0
 47
0.0
 48
0.0
 49
0.0
140
0.0
141
0.0
142
1.0
143
1.0
 70
  1712
 72
     0
 73
     0
 74
     0
  7

 75
     0
147
1.0
148
0.0
149
0.0
100
AcDbLayout
  1
Model
 70
     1
 71
     0
 10
0.0
 20
0.0
 11
8.5
 21
11.0
 12
0.0
 22
0.0
 32
0.0
 14
0.0
 24
0.0
 34
0.0
 15
8.5
 25
11.0
 35
0.0
146
0.0
 13
0.0
 23
0.0
 33
0.0
 16
1.0
 26
0.0
 36
0.0
 17
0.0
 27
1.0
 37
0.0
 76
     0
330
1F
331
29
  0
MLINESTYLE
  5
18
102
{ACAD_REACTORS
330
17
102
}
330
17
100
AcDbMlineStyle
  2
Standard
 70
     0
  3

 62
   256
 51
90.0
 52
90.0
 71
     2
 49
0.5
 62
   256
  6
BYLAYER
 49
-0.5
 62
   256
  6
BYLAYER
  0
ACDBPLACEHOLDER
  5
F
102
{ACAD_REACTORS
330
E
102
}
330
E
  0
ENDSEC
  0
EOF
