  0
SECTION
  2
HEADER
  9
$ACADVER
  1
AC1015
  9
$ACADMAINTVER
 70
     6
  9
$DWGCODEPAGE
  3
ANSI_1252
  9
$INSBASE
 10
0.0
 20
0.0
 30
0.0
  9
$EXTMIN
 10
0.0
 20
0.0
 30
0.0
  9
$EXTMAX
 10
8.5
 20
11.0
 30
0.0
  9
$LIMMIN
 10
0.0
 20
0.0
  9
$LIMMAX
 10
8.5
 20
11.0
  9
$ORTHOMODE
 70
     0
  9
$REGENMODE
 70
     1
  9
$FILLMODE
 70
     1
  9
$QTEXTMODE
 70
     0
  9
$MIRRTEXT
 70
     1
  9
$LTSCALE
 40
1.0
  9
$ATTMODE
 70
     1
  9
$TEXTSIZE
 40
0.125
  9
$TRACEWID
 40
0.05
  9
$TEXTSTYLE
  7
Standard
  9
$CLAYER
  8
0
  9
$CELTYPE
  6
ByLayer
  9
$CECOLOR
 62
   256
  9
$CELTSCALE
 40
1.0
  9
$DISPSILH
 70
     0
  9
$DIMSCALE
 40
1.0
  9
$DIMASZ
 40
0.13
  9
$DIMEXO
 40
0.05
  9
$DIMDLI
 40
0.38
  9
$DIMRND
 40
0.0
  9
$DIMDLE
 40
0.0
  9
$DIMEXE
 40
0.125
  9
$DIMTP
 40
0.0
  9
$DIMTM
 40
0.0
  9
$DIMTXT
 40
0.1527777778
  9
$DIMCEN
 40
0.09
  9
$DIMTSZ
 40
0.0
  9
$DIMTOL
 70
     0
  9
$DIMLIM
 70
     0
  9
$DIMTIH
 70
     1
  9
$DIMTOH
 70
     1
  9
$DIMSE1
 70
     0
  9
$DIMSE2
 70
     0
  9
$DIMTAD
 70
     1
  9
$DIMZIN
 70
     0
  9
$DIMBLK
  1

  9
$DIMASO
 70
     1
  9
$DIMSHO
 70
     1
  9
$DIMPOST
  1

  9
$DIMAPOST
  1

  9
$DIMALT
 70
     0
  9
$DIMALTD
 70
     2
  9
$DIMALTF
 40
25.4
  9
$DIMLFAC
 40
8.0
  9
$DIMTOFL
 70
     0
  9
$DIMTVP
 40
0.0
  9
$DIMTIX
 70
     0
  9
$DIMSOXD
 70
     0
  9
$DIMSAH
 70
     0
  9
$DIMBLK1
  1

  9
$DIMBLK2
  1

  9
$DIMSTYLE
  2
Standard
  9
$DIMCLRD
 70
     0
  9
$DIMCLRE
 70
     0
  9
$DIMCLRT
 70
     0
  9
$DIMTFAC
 40
1.0
  9
$DIMGAP
 40
0.06
  9
$DIMJUST
 70
     0
  9
$DIMSD1
 70
     0
  9
$DIMSD2
 70
     0
  9
$DIMTOLJ
 70
     1
  9
$DIMTZIN
 70
     0
  9
$DIMALTZ
 70
     0
  9
$DIMALTTZ
 70
     0
  9
$DIMUPT
 70
     0
  9
$DIMDEC
 70
     2
  9
$DIMTDEC
 70
     2
  9
$DIMALTU
 70
     2
  9
$DIMALTTD
 70
     2
  9
$DIMTXSTY
  7
Standard
  9
$DIMAUNIT
 70
     0
  9
$DIMADEC
 70
     2
  9
$DIMALTRND
 40
0.0
  9
$DIMAZIN
 70
     0
  9
$DIMDSEP
 70
    46
  9
$DIMATFIT
 70
     3
  9
$DIMFRAC
 70
     0
  9
$DIMLDRBLK
  1

  9
$DIMLUNIT
 70
     2
  9
$DIMLWD
 70
    -2
  9
$DIMLWE
 70
    -2
  9
$DIMTMOVE
 70
     0
  9
$LUNITS
 70
     2
  9
$LUPREC
 70
     3
  9
$SKETCHINC
 40
0.1
  9
$FILLETRAD
 40
0.5
  9
$AUNITS
 70
     0
  9
$AUPREC
 70
     2
  9
$MENU
  1
.
  9
$ELEVATION
 40
0.0
  9
$PELEVATION
 40
0.0
  9
$THICKNESS
 40
0.0
  9
$LIMCHECK
 70
     0
  9
$CHAMFERA
 40
0.5
  9
$CHAMFERB
 40
0.5
  9
$CHAMFERC
 40
1.0
  9
$CHAMFERD
 40
0.0
  9
$SKPOLY
 70
     0
  9
$TDCREATE
 40
2456051.54877537
  9
$TDUCREATE
 40
2456051.79877537
  9
$TDUPDATE
 40
2456051.548775579
  9
$TDUUPDATE
 40
2456051.798775579
  9
$TDINDWG
 40
0.0000000116
  9
$TDUSRTIMER
 40
0.0000000116
  9
$USRTIMER
 70
     1
  9
$ANGBASE
 50
0.0
  9
$ANGDIR
 70
     0
  9
$PDMODE
 70
     0
  9
$PDSIZE
 40
-1.0
  9
$PLINEWID
 40
0.0
  9
$SPLFRAME
 70
     0
  9
$SPLINETYPE
 70
     6
  9
$SPLINESEGS
 70
     8
  9
$HANDSEED
  5
188
  9
$SURFTAB1
 70
     6
  9
$SURFTAB2
 70
     6
  9
$SURFTYPE
 70
     6
  9
$SURFU
 70
     6
  9
$SURFV
 70
     6
  9
$UCSBASE
  2

  9
$UCSNAME
  2

  9
$UCSORG
 10
0.0
 20
0.0
 30
0.0
  9
$UCSXDIR
 10
1.0
 20
0.0
 30
0.0
  9
$UCSYDIR
 10
0.0
 20
1.0
 30
0.0
  9
$UCSORTHOREF
  2

  9
$UCSORTHOVIEW
 70
     0
  9
$UCSORGTOP
 10
0.0
 20
0.0
 30
0.0
  9
$UCSORGBOTTOM
 10
0.0
 20
0.0
 30
0.0
  9
$UCSORGLEFT
 10
0.0
 20
0.0
 30
0.0
  9
$UCSORGRIGHT
 10
0.0
 20
0.0
 30
0.0
  9
$UCSORGFRONT
 10
0.0
 20
0.0
 30
0.0
  9
$UCSORGBACK
 10
0.0
 20
0.0
 30
0.0
  9
$PUCSBASE
  2

  9
$PUCSNAME
  2

  9
$PUCSORG
 10
0.0
 20
0.0
 30
0.0
  9
$PUCSXDIR
 10
1.0
 20
0.0
 30
0.0
  9
$PUCSYDIR
 10
0.0
 20
1.0
 30
0.0
  9
$PUCSORTHOREF
  2

  9
$PUCSORTHOVIEW
 70
     0
  9
$PUCSORGTOP
 10
0.0
 20
0.0
 30
0.0
  9
$PUCSORGBOTTOM
 10
0.0
 20
0.0
 30
0.0
  9
$PUCSORGLEFT
 10
0.0
 20
0.0
 30
0.0
  9
$PUCSORGRIGHT
 10
0.0
 20
0.0
 30
0.0
  9
$PUCSORGFRONT
 10
0.0
 20
0.0
 30
0.0
  9
$PUCSORGBACK
 10
0.0
 20
0.0
 30
0.0
  9
$USERI1
 70
     0
  9
$USERI2
 70
     0
  9
$USERI3
 70
     0
  9
$USERI4
 70
     0
  9
$USERI5
 70
     0
  9
$USERR1
 40
0.0
  9
$USERR2
 40
0.0
  9
$USERR3
 40
0.0
  9
$USERR4
 40
0.0
  9
$USERR5
 40
0.0
  9
$WORLDVIEW
 70
     1
  9
$SHADEDGE
 70
     3
  9
$SHADEDIF
 70
    70
  9
$TILEMODE
 70
     1
  9
$MAXACTVP
 70
    64
  9
$PINSBASE
 10
0.0
 20
0.0
 30
0.0
  9
$PLIMCHECK
 70
     0
  9
$PEXTMIN
 10
1.0000000000E+20
 20
1.0000000000E+20
 30
1.0000000000E+20
  9
$PEXTMAX
 10
-1.0000000000E+20
 20
-1.0000000000E+20
 30
-1.0000000000E+20
  9
$PLIMMIN
 10
0.0
 20
0.0
  9
$PLIMMAX
 10
12.0
 20
9.0
  9
$UNITMODE
 70
     0
  9
$VISRETAIN
 70
     1
  9
$PLINEGEN
 70
     0
  9
$PSLTSCALE
 70
     1
  9
$TREEDEPTH
 70
  3020
  9
$CMLSTYLE
  2
Standard
  9
$CMLJUST
 70
     0
  9
$CMLSCALE
 40
1.0
  9
$PROXYGRAPHICS
 70
     1
  9
$MEASUREMENT
 70
     0
  9
$CELWEIGHT
370
    -1
  9
$ENDCAPS
280
     0
  9
$JOINSTYLE
280
     0
  9
$LWDISPLAY
290
     1
  9
$INSUNITS
 70
     1
  9
$HYPERLINKBASE
  1

  9
$STYLESHEET
  1

  9
$XEDIT
290
     1
  9
$CEPSNTYPE
380
     0
  9
$PSTYLEMODE
290
     1
  9
$FINGERPRINTGUID
  2
{C7319842-6A94-47FF-88B3-87EBE0F930DE}
  9
$VERSIONGUID
  2
{FAEB1C32-E019-11D5-929B-00C0DF256EC4}
  9
$EXTNAMES
290
     1
  9
$PSVPSCALE
 40
0.0
  9
$OLESTARTUP
290
     0
  0
ENDSEC
  0
SECTION
  2
CLASSES
  0
CLASS
  1
ACDBDICTIONARYWDFLT
  2
AcDbDictionaryWithDefault
  3
ObjectDBX Classes
 90
        0
280
     0
281
     0
  0
CLASS
  1
VISUALSTYLE
  2
AcDbVisualStyle
  3
ObjectDBX Classes
 90
     4095
280
     0
281
     0
  0
CLASS
  1
MATERIAL
  2
AcDbMaterial
  3
ObjectDBX Classes
 90
     1153
280
     0
281
     0
  0
CLASS
  1
ACDBPLACEHOLDER
  2
AcDbPlaceHolder
  3
ObjectDBX Classes
 90
        0
280
     0
281
     0
  0
CLASS
  1
LAYOUT
  2
AcDbLayout
  3
ObjectDBX Classes
 90
        0
280
     0
281
     0
  0
ENDSEC
  0
SECTION
  2
TABLES
  0
TABLE
  2
VPORT
  5
8
330
0
100
AcDbSymbolTable
 70
     1
  0
VPORT
  5
29
330
8
100
AcDbSymbolTableRecord
100
AcDbViewportTableRecord
  2
*Active
 70
     0
 10
0.0
 20
0.0
 11
1.0
 21
1.0
 12
4.25
 22
5.5
 13
0.0
 23
0.0
 14
0.5
 24
0.5
 15
0.5
 25
0.5
 16
0.0
 26
0.0
 36
1.0
 17
0.0
 27
0.0
 37
0.0
 40
11.0
 41
0.7727272727
 42
50.0
 43
0.0
 44
0.0
 50
0.0
 51
0.0
 71
     0
 72
  2000
 73
     1
 74
     3
 75
     0
 76
     0
 77
     0
 78
     0
281
     0
 65
     1
110
0.0
120
0.0
130
0.0
111
1.0
121
0.0
131
0.0
112
0.0
122
1.0
132
0.0
 79
     0
146
0.0
  0
ENDTAB
  0
TABLE
  2
LTYPE
  5
5
330
0
100
AcDbSymbolTable
 70
     6
  0
LTYPE
  5
14
330
5
100
AcDbSymbolTableRecord
100
AcDbLinetypeTableRecord
  2
ByBlock
 70
     0
  3

 72
    65
 73
     0
 40
0.0
  0
LTYPE
  5
15
330
5
100
AcDbSymbolTableRecord
100
AcDbLinetypeTableRecord
  2
ByLayer
 70
     0
  3

 72
    65
 73
     0
 40
0.0
  0
LTYPE
  5
16
330
5
100
AcDbSymbolTableRecord
100
AcDbLinetypeTableRecord
  2
Continuous
 70
     0
  3
Solid line
 72
    65
 73
     0
 40
0.0
  0
LTYPE
  5
3F
330
5
100
AcDbSymbolTableRecord
100
AcDbLinetypeTableRecord
  2
HIDDEN
 70
     0
  3
Hidden __ __ __ __ __ __ __ __ __ __ __ __ __ __
 72
    65
 73
     2
 40
0.075
 49
0.05
 74
     0
 49
-0.025
 74
     0
  0
LTYPE
  5
40
330
5
100
AcDbSymbolTableRecord
100
AcDbLinetypeTableRecord
  2
PHANTOM
 70
     0
  3
Phantom ______  __  __  ______  __  __  ______
 72
    65
 73
     6
 40
0.5
 49
0.25
 74
     0
 49
-0.05
 74
     0
 49
0.05
 74
     0
 49
-0.05
 74
     0
 49
0.05
 74
     0
 49
-0.05
 74
     0
  0
LTYPE
  5
41
330
5
100
AcDbSymbolTableRecord
100
AcDbLinetypeTableRecord
  2
CENTER
 70
     0
  3
Center ____ _ ____ _ ____ _ ____ _ ____ _ ____
 72
    65
 73
     4
 40
0.4
 49
0.25
 74
     0
 49
-0.05
 74
     0
 49
0.05
 74
     0
 49
-0.05
 74
     0
  0
LTYPE
  5
42
330
5
100
AcDbSymbolTableRecord
100
AcDbLinetypeTableRecord
  2
CENTERX2
 70
     0
  3
Center (2x) ________  __  ________  __  _____
 72
    65
 73
     4
 40
0.8
 49
0.5
 74
     0
 49
-0.1
 74
     0
 49
0.1
 74
     0
 49
-0.1
 74
     0
  0
LTYPE
  5
43
330
5
100
AcDbSymbolTableRecord
100
AcDbLinetypeTableRecord
  2
DOT2
 70
     0
  3
Dot (.5x) ........................................
 72
    65
 73
     2
 40
0.025
 49
0.0
 74
     0
 49
-0.025
 74
     0
  0
ENDTAB
  0
TABLE
  2
LAYER
  5
2
330
0
100
AcDbSymbolTable
 70
     1
  0
LAYER
  5
10
330
2
100
AcDbSymbolTableRecord
100
AcDbLayerTableRecord
  2
0
 70
     0
 62
     7
  6
Continuous
370
    -3
390
F
  0
ENDTAB
  0
TABLE
  2
STYLE
  5
3
330
0
100
AcDbSymbolTable
 70
     1
  0
STYLE
  5
11
330
3
100
AcDbSymbolTableRecord
100
AcDbTextStyleTableRecord
  2
Standard
 70
     0
 40
0.0
 41
1.0
 50
0.0
 71
     0
 42
0.125
  3
txt
  4

  0
ENDTAB
  0
TABLE
  2
VIEW
  5
6
330
0
100
AcDbSymbolTable
 70
     0
  0
ENDTAB
  0
TABLE
  2
UCS
  5
7
330
0
100
AcDbSymbolTable
 70
     0
  0
ENDTAB
  0
TABLE
  2
APPID
  5
9
330
0
100
AcDbSymbolTable
 70
     1
  0
APPID
  5
12
330
9
100
AcDbSymbolTableRecord
100
AcDbRegAppTableRecord
  2
ACAD
 70
     0
  0
ENDTAB
  0
TABLE
  2
DIMSTYLE
  5
A
330
0
100
AcDbSymbolTable
 70
     1
100
AcDbDimStyleTable
  0
DIMSTYLE
105
27
330
A
100
AcDbSymbolTableRecord
100
AcDbDimStyleTableRecord
  2
Standard
 70
     0
178
     0
340
11
  0
ENDTAB
  0
TABLE
  2
BLOCK_RECORD
  5
1
330
0
100
AcDbSymbolTable
 70
     1
  0
BLOCK_RECORD
  5
1F
330
1
100
AcDbSymbolTableRecord
100
AcDbBlockTableRecord
  2
*Model_Space
340
22
  0
BLOCK_RECORD
  5
1B
330
1
100
AcDbSymbolTableRecord
100
AcDbBlockTableRecord
  2
*Paper_Space
340
1E
  0
BLOCK_RECORD
  5
23
330
1
100
AcDbSymbolTableRecord
100
AcDbBlockTableRecord
  2
*Paper_Space0
340
26
  0
ENDTAB
  0
ENDSEC
  0
SECTION
  2
BLOCKS
  0
BLOCK
  5
20
330
1F
100
AcDbEntity
  8
0
100
AcDbBlockBegin
  2
*Model_Space
 70
     0
 10
0.0
 20
0.0
 30
0.0
  3
*Model_Space
  1

  0
ENDBLK
  5
21
330
1F
100
AcDbEntity
  8
0
100
AcDbBlockEnd
  0
BLOCK
  5
1C
330
1B
100
AcDbEntity
 67
     1
  8
0
100
AcDbBlockBegin
  2
*Paper_Space
 70
     0
 10
0.0
 20
0.0
 30
0.0
  3
*Paper_Space
  1

  0
ENDBLK
  5
1D
330
1B
100
AcDbEntity
 67
     1
  8
0
100
AcDbBlockEnd
  0
BLOCK
  5
24
330
23
100
AcDbEntity
  8
0
100
AcDbBlockBegin
  2
*Paper_Space0
 70
     0
 10
0.0
 20
0.0
 30
0.0
  3
*Paper_Space0
  1

  0
ENDBLK
  5
25
330
23
100
AcDbEntity
  8
0
100
AcDbBlockEnd
  0
ENDSEC
  0
SECTION
  2
ENTITIES
  0
LINE
  5
44
330
1F
100
AcDbEntity
  8
0
  6
Continuous
 62
     7
370
    15
100
AcDbLine
 10
5.1366013287
 20
7.1352404211
 30
0.0
 11
5.1363544182
 21
7.1353059803
 31
0.0
  0
LINE
  5
45
330
1F
100
AcDbEntity
  8
0
  6
Continuous
 62
     7
370
    15
100
AcDbLine
 10
5.1163066365
 20
7.0597970272
 30
0.0
 11
5.116553547
 21
7.0597314679
 31
0.0
  0
LINE
  5
46
330
1F
100
AcDbEntity
  8
0
  6
Continuous
 62
     7
370
    15
100
AcDbLine
 10
5.1159595538
 20
7.0533242253
 30
0.0
 11
5.2061897515
 21
7.0293679412
 31
0.0
  0
LINE
  5
47
330
1F
100
AcDbEntity
  8
0
  6
Continuous
 62
     7
370
    15
100
AcDbLine
 10
5.2062689506
 20
7.0293844227
 30
0.0
 11
5.2093145954
 21
7.0311584089
 31
0.0
  0
LINE
  5
48
330
1F
100
AcDbEntity
  8
0
  6
Continuous
 62
     7
370
    15
100
AcDbLine
 10
5.3002171053
 20
7.079388965
 30
0.0
 11
5.2388342944
 21
7.0956862301
 31
0.0
  0
LINE
  5
49
330
1F
100
AcDbEntity
  8
0
  6
Continuous
 62
     7
370
    15
100
AcDbLine
 10
5.2249429215
 20
7.0433650595
 30
0.0
 11
5.2863257324
 21
7.0270677944
 31
0.0
  0
SPLINE
  5
4A
330
1F
100
AcDbEntity
  8
0
  6
Continuous
 62
     7
370
    15
100
AcDbSpline
210
0.0
220
0.0
230
1.0
 70
     8
 71
     3
 72
    22
 73
    18
 74
     0
 42
0.00000001
 43
0.00000001
 12
1.0
 22
0.0
 32
0.0
 13
1.0
 23
0.0
 33
0.0
 40
0.0
 40
0.0
 40
0.0
 40
0.0
 40
0.0574727161774825
 40
0.1272001504048981
 40
0.1969271013379737
 40
0.2666536576864477
 40
0.336379929645886
 40
0.4061060263047879
 40
0.4758321063634463
 40
0.5455582483050638
 40
0.6152845452417627
 40
0.6850111180770168
 40
0.754738089092113
 40
0.8244655661976902
 40
0.894193668905863
 40
0.9639225260439809
 40
1.0
 40
1.0
 40
1.0
 40
1.0
 10
5.008499448555922
 20
7.147761993511828
 30
0.0
 10
4.992182797775309
 20
7.152984618347735
 30
0.0
 10
4.956070350488346
 20
7.164543471118574
 30
0.0
 10
4.899660660470904
 20
7.181339730878995
 30
0.0
 10
4.839414752865911
 20
7.198350868759932
 30
0.0
 10
4.778820742498922
 20
7.214397927656095
 30
0.0
 10
4.717931594895646
 20
7.229504155803967
 30
0.0
 10
4.656780297872691
 20
7.243651483055109
 30
0.0
 10
4.595405393193815
 20
7.256833614807769
 30
0.0
 10
4.533844127388526
 20
7.269041891797104
 30
0.0
 10
4.472134255556635
 20
7.280268910893462
 30
0.0
 10
4.410313456149046
 20
7.290508044630911
 30
0.0
 10
4.348419707025738
 20
7.299751834737702
 30
0.0
 10
4.286490310222646
 20
7.307999144577928
 30
0.0
 10
4.224565083016412
 20
7.315227666368745
 30
0.0
 10
4.172631146378711
 20
7.320488782705652
 30
0.0
 10
4.14136549256711
 20
7.323198118732485
 30
0.0
 10
4.130704638916468
 20
7.324121938686693
 30
0.0
  0
SPLINE
  5
4B
330
1F
100
AcDbEntity
  8
0
  6
Continuous
 62
     7
370
    15
100
AcDbSpline
210
0.0
220
0.0
230
1.0
 70
     8
 71
     3
 72
    22
 73
    18
 74
     0
 42
0.00000001
 43
0.00000001
 12
1.0
 22
0.0
 32
0.0
 13
1.0
 23
0.0
 33
0.0
 40
0.0
 40
0.0
 40
0.0
 40
0.0
 40
0.0366202931980611
 40
0.1062594835244621
 40
0.1759006810118643
 40
0.2455425745681132
 40
0.3151850495044605
 40
0.3848279899863212
 40
0.4544712819233064
 40
0.5241148128702172
 40
0.5937584454671325
 40
0.6634020738774887
 40
0.733045515989674
 40
0.8026887300413628
 40
0.8723314870165285
 40
0.9419737349340482
 40
1.0
 40
1.0
 40
1.0
 40
1.0
 10
4.128085495839699
 20
7.292981894252477
 30
0.0
 10
4.138849571384958
 20
7.292048666892098
 30
0.0
 10
4.17008321284903
 20
7.289340762376199
 30
0.0
 10
4.221853055472757
 20
7.284087397996866
 30
0.0
 10
4.283378759961811
 20
7.276894011653964
 30
0.0
 10
4.344911773187671
 20
7.268686221169242
 30
0.0
 10
4.406411404271052
 20
7.259486502249751
 30
0.0
 10
4.467839899494587
 20
7.249295884475356
 30
0.0
 10
4.529158834547724
 20
7.238121940932333
 30
0.0
 10
4.59033008301371
 20
7.225971300475572
 30
0.0
 10
4.651315448021575
 20
7.212851448129972
 30
0.0
 10
4.712077233090932
 20
7.198771160736555
 30
0.0
 10
4.772576474050982
 20
7.183736880029976
 30
0.0
 10
4.83277967107346
 20
7.167766681814242
 30
0.0
 10
4.892633685761321
 20
7.15083823261621
 30
0.0
 10
4.948850275815786
 20
7.13406961667754
 30
0.0
 10
4.984898430740308
 20
7.122510871786774
 30
0.0
 10
5.001282578592486
 20
7.117257338404207
 30
0.0
  0
LINE
  5
4C
330
1F
100
AcDbEntity
  8
0
  6
Continuous
 62
     7
370
    15
100
AcDbLine
 10
3.9277132039
 20
7.3428514407
 30
0.0
 11
4.0917492489
 21
7.2992995796
 31
0.0
  0
LINE
  5
4D
330
1F
100
AcDbEntity
  8
0
  6
Continuous
 62
     7
370
    15
100
AcDbLine
 10
4.0997683763
 20
7.329503159
 30
0.0
 11
3.9337738772
 21
7.3735749932
 31
0.0
  0
SPLINE
  5
4E
330
1F
100
AcDbEntity
  8
0
  6
Continuous
 62
     7
370
    15
100
AcDbSpline
210
0.0
220
0.0
230
1.0
 70
     8
 71
     3
 72
    10
 73
     6
 74
     0
 42
0.00000001
 43
0.00000001
 12
1.0
 22
0.0
 32
0.0
 13
1.0
 23
0.0
 33
0.0
 40
0.0
 40
0.0
 40
0.0
 40
0.0
 40
0.2135429073833608
 40
0.6264645988823989
 40
1.0
 40
1.0
 40
1.0
 40
1.0
 10
4.130704638916468
 20
7.324121938686693
 30
0.0
 10
4.128496143633584
 20
7.324334487335801
 30
0.0
 10
4.122017145438427
 20
7.324958035108185
 30
0.0
 10
4.111616126590715
 20
7.326603034504439
 30
0.0
 10
4.103583533878182
 20
7.328569274380062
 30
0.0
 10
4.099768376294814
 20
7.329503159022376
 30
0.0
  0
SPLINE
  5
4F
330
1F
100
AcDbEntity
  8
0
  6
Continuous
 62
     7
370
    15
100
AcDbSpline
210
0.0
220
0.0
230
1.0
 70
     8
 71
     3
 72
    10
 73
     6
 74
     0
 42
0.00000001
 43
0.00000001
 12
1.0
 22
0.0
 32
0.0
 13
1.0
 23
0.0
 33
0.0
 40
0.0
 40
0.0
 40
0.0
 40
0.0
 40
0.2135881982772753
 40
0.6134981855274103
 40
1.0
 40
1.0
 40
1.0
 40
1.0
 10
4.091749248932457
 20
7.299299579603369
 30
0.0
 10
4.094302208706615
 20
7.298653899324954
 30
0.0
 10
4.101635180293072
 20
7.296799285247799
 30
0.0
 10
4.113790588693901
 20
7.294478673928087
 30
0.0
 10
4.123374997578548
 20
7.293475117327477
 30
0.0
 10
4.128085495839699
 20
7.292981894252477
 30
0.0
  0
LINE
  5
50
330
1F
100
AcDbEntity
  8
0
  6
Continuous
 62
     7
370
    15
100
AcDbLine
 10
3.9420238552
 20
7.4088470208
 30
0.0
 11
3.8200736907
 21
7.4356701742
 31
0.0
  0
LINE
  5
51
330
1F
100
AcDbEntity
  8
0
  6
Continuous
 62
     7
370
    15
100
AcDbLine
 10
3.7991290526
 20
7.3404463643
 30
0.0
 11
3.9210792172
 21
7.3136232108
 31
0.0
  0
LINE
  5
52
330
1F
100
AcDbEntity
  8
0
  6
Continuous
 62
     7
370
    15
100
AcDbLine
 10
4.9916296034
 20
7.0828758789
 30
0.0
 11
5.1122581699
 21
7.0508487589
 31
0.0
  0
LINE
  5
53
330
1F
100
AcDbEntity
  8
0
  6
Continuous
 62
     7
370
    15
100
AcDbLine
 10
5.1372778209
 20
7.1450839415
 30
0.0
 11
5.0166492177
 21
7.1771110547
 31
0.0
  0
ARC
  5
54
330
1F
100
AcDbEntity
  8
0
  6
Continuous
 62
     7
370
    15
100
AcDbCircle
 10
3.7697839464
 20
7.3842265199
 30
0.0
 40
0.0235000000000003
100
AcDbArc
 50
167.033883193
 51
180.0
  0
LINE
  5
55
330
1F
100
AcDbEntity
  8
0
  6
Continuous
 62
     7
370
    15
100
AcDbLine
 10
3.7545673208
 20
7.4228733621
 30
0.0
 11
3.7468831029
 21
7.3894993259
 31
0.0
  0
LINE
  5
56
330
1F
100
AcDbEntity
  8
0
  6
Continuous
 62
     7
370
    15
100
AcDbLine
 10
3.7993808397
 20
7.3503100512
 30
0.0
 11
3.7998877139
 21
7.3501985583
 31
0.0
  0
LINE
  5
57
330
1F
100
AcDbEntity
  8
0
  6
Continuous
 62
     7
370
    15
100
AcDbLine
 10
3.8166702933
 20
7.4264996718
 30
0.0
 11
3.8161633825
 21
7.4266111739
 31
0.0
  0
LINE
  5
58
330
1F
100
AcDbEntity
  8
0
  6
Continuous
 62
     7
370
    15
100
AcDbLine
 10
3.8166624101
 20
7.4330414429
 30
0.0
 11
3.7825163846
 21
7.4405519362
 31
0.0
  0
ARC
  5
59
330
1F
100
AcDbEntity
  8
0
  6
Continuous
 62
     7
370
    15
100
AcDbCircle
 10
3.7774681633
 20
7.4176005522
 30
0.0
 40
0.0235000000000002
100
AcDbArc
 50
77.5952212388
 51
167.033883193
  0
LINE
  5
5A
330
1F
100
AcDbEntity
  8
0
  6
Continuous
 62
     7
370
    15
100
AcDbLine
 10
3.7462839764
 20
7.3842265185
 30
0.0
 11
3.7462839764
 21
7.3681834055
 31
0.0
  0
ARC
  5
5B
330
1F
100
AcDbEntity
  8
0
  6
Continuous
 62
     7
370
    15
100
AcDbCircle
 10
3.8626869662
 20
7.7994404303
 30
0.0
 40
0.0235000000000003
100
AcDbArc
 50
90.0
 51
180.0
  0
LINE
  5
5C
330
1F
100
AcDbEntity
  8
0
  6
Continuous
 62
     7
370
    15
100
AcDbLine
 10
3.9119369661
 20
7.8229404638
 30
0.0
 11
3.8626869784
 21
7.8229404638
 31
0.0
  0
ARC
  5
5D
330
1F
100
AcDbEntity
  8
0
  6
Continuous
 62
     7
370
    15
100
AcDbCircle
 10
3.9119369662
 20
7.7994404303
 30
0.0
 40
0.0235000000000003
100
AcDbArc
 50
0.0
 51
90.0
  0
ARC
  5
5E
330
1F
100
AcDbEntity
  8
0
  6
Continuous
 62
     7
370
    15
100
AcDbCircle
 10
5.0713744662
 20
6.6853716612
 30
0.0
 40
0.0235000000000003
100
AcDbArc
 50
270.0
 51
0.0
  0
LINE
  5
5F
330
1F
100
AcDbEntity
  8
0
  6
Continuous
 62
     7
370
    15
100
AcDbLine
 10
5.0221244778
 20
6.6618716466
 30
0.0
 11
5.0713745022
 21
6.6618716466
 31
0.0
  0
ARC
  5
60
330
1F
100
AcDbEntity
  8
0
  6
Continuous
 62
     7
370
    15
100
AcDbCircle
 10
5.0221244662
 20
6.6853716612
 30
0.0
 40
0.0235000000000003
100
AcDbArc
 50
180.0
 51
270.0
  0
ARC
  5
61
330
1F
100
AcDbEntity
  8
0
  6
Continuous
 62
     7
370
    15
100
AcDbCircle
 10
4.4670307162
 20
7.4750310457
 30
0.0
 40
0.0703125
100
AcDbArc
 50
90.0509295885
 51
117.3077038716
  0
ARC
  5
62
330
1F
100
AcDbEntity
  8
0
  6
Continuous
 62
     7
370
    15
100
AcDbCircle
 10
4.4670307162
 20
7.4750310457
 30
0.0
 40
0.0703124999999996
100
AcDbArc
 50
62.6922961284
 51
90.0509295885
  0
LINE
  5
63
330
1F
100
AcDbEntity
  8
0
  6
Continuous
 62
     7
370
    15
100
AcDbLine
 10
5.2337494931
 20
7.1873683434
 30
0.0
 11
5.234249474
 21
7.1882343691
 31
0.0
  0
LINE
  5
64
330
1F
100
AcDbEntity
  8
0
  6
Continuous
 62
     7
370
    15
100
AcDbLine
 10
5.234249474
 20
7.2965777252
 30
0.0
 11
5.2337494931
 21
7.2974437452
 31
0.0
  0
LINE
  5
65
330
1F
100
AcDbEntity
  8
0
  6
Continuous
 62
     7
370
    15
100
AcDbLine
 10
3.7003119875
 20
7.2974437452
 30
0.0
 11
3.6998119333
 21
7.2965777252
 31
0.0
  0
LINE
  5
66
330
1F
100
AcDbEntity
  8
0
  6
Continuous
 62
     7
370
    15
100
AcDbLine
 10
3.6998119333
 20
7.1882343691
 30
0.0
 11
3.7003119875
 21
7.1873683434
 31
0.0
  0
LINE
  5
67
330
1F
100
AcDbEntity
  8
0
  6
Continuous
 62
     7
370
    15
100
AcDbLine
 10
3.9339369687
 20
7.7879685311
 30
0.0
 11
3.7253119854
 21
7.7879685311
 31
0.0
  0
LINE
  5
68
330
1F
100
AcDbEntity
  8
0
  6
Continuous
 62
     7
370
    15
100
AcDbLine
 10
3.7253119854
 20
6.6968435426
 30
0.0
 11
3.9339369687
 21
6.6968435426
 31
0.0
  0
LINE
  5
69
330
1F
100
AcDbEntity
  8
0
  6
Continuous
 62
     7
370
    15
100
AcDbLine
 10
3.9339369687
 20
6.6968435426
 30
0.0
 11
4.1080007545
 21
6.712620587
 31
0.0
  0
LINE
  5
6A
330
1F
100
AcDbEntity
  8
0
  6
Continuous
 62
     7
370
    15
100
AcDbLine
 10
4.1080007545
 20
7.7721914867
 30
0.0
 11
3.9339369687
 21
7.7879685311
 31
0.0
  0
LINE
  5
6B
330
1F
100
AcDbEntity
  8
0
  6
Continuous
 62
     7
370
    15
100
AcDbLine
 10
3.7253119854
 20
7.7879685311
 30
0.0
 11
3.7003119875
 21
7.7629685333
 31
0.0
  0
LINE
  5
6C
330
1F
100
AcDbEntity
  8
0
  6
Continuous
 62
     7
370
    15
100
AcDbLine
 10
3.7003119875
 20
6.7218435404
 30
0.0
 11
3.7253119854
 21
6.6968435426
 31
0.0
  0
LINE
  5
6D
330
1F
100
AcDbEntity
  8
0
  6
Continuous
 62
     7
370
    15
100
AcDbLine
 10
4.1080007545
 20
6.712620587
 30
0.0
 11
4.1235619631
 21
6.731283888
 31
0.0
  0
LINE
  5
6E
330
1F
100
AcDbEntity
  8
0
  6
Continuous
 62
     7
370
    15
100
AcDbLine
 10
4.1235619631
 20
7.7535282223
 30
0.0
 11
4.1080007545
 21
7.7721914867
 31
0.0
  0
ARC
  5
6F
330
1F
100
AcDbEntity
  8
0
  6
Continuous
 62
     7
370
    15
100
AcDbCircle
 10
4.1391869662
 20
7.7477185457
 30
0.0
 40
0.015625
100
AcDbArc
 50
180.0
 51
270.0
  0
ARC
  5
70
330
1F
100
AcDbEntity
  8
0
  6
Continuous
 62
     7
370
    15
100
AcDbCircle
 10
4.1391869662
 20
6.7370935457
 30
0.0
 40
0.015625
100
AcDbArc
 50
90.0
 51
180.0
  0
LINE
  5
71
330
1F
100
AcDbEntity
  8
0
  6
Continuous
 62
     7
370
    15
100
AcDbLine
 10
5.0001244753
 20
6.6968435426
 30
0.0
 11
5.2087494953
 21
6.6968435426
 31
0.0
  0
LINE
  5
72
330
1F
100
AcDbEntity
  8
0
  6
Continuous
 62
     7
370
    15
100
AcDbLine
 10
5.2087494953
 20
7.7879685311
 30
0.0
 11
5.0001244753
 21
7.7879685311
 31
0.0
  0
LINE
  5
73
330
1F
100
AcDbEntity
  8
0
  6
Continuous
 62
     7
370
    15
100
AcDbLine
 10
5.0001244753
 20
7.7879685311
 30
0.0
 11
4.8260606894
 21
7.7721914867
 31
0.0
  0
LINE
  5
74
330
1F
100
AcDbEntity
  8
0
  6
Continuous
 62
     7
370
    15
100
AcDbLine
 10
4.8260606894
 20
6.712620587
 30
0.0
 11
5.0001244753
 21
6.6968435426
 31
0.0
  0
LINE
  5
75
330
1F
100
AcDbEntity
  8
0
  6
Continuous
 62
     7
370
    15
100
AcDbLine
 10
5.2087494953
 20
6.6968435426
 30
0.0
 11
5.2337494931
 21
6.7218435404
 31
0.0
  0
LINE
  5
76
330
1F
100
AcDbEntity
  8
0
  6
Continuous
 62
     7
370
    15
100
AcDbLine
 10
5.2337494931
 20
7.7629685333
 30
0.0
 11
5.2087494953
 21
7.7879685311
 31
0.0
  0
LINE
  5
77
330
1F
100
AcDbEntity
  8
0
  6
Continuous
 62
     7
370
    15
100
AcDbLine
 10
4.8260606894
 20
7.7721914867
 30
0.0
 11
4.8104994625
 21
7.7535282223
 31
0.0
  0
LINE
  5
78
330
1F
100
AcDbEntity
  8
0
  6
Continuous
 62
     7
370
    15
100
AcDbLine
 10
4.8104994625
 20
6.731283888
 30
0.0
 11
4.8260606894
 21
6.712620587
 31
0.0
  0
ARC
  5
79
330
1F
100
AcDbEntity
  8
0
  6
Continuous
 62
     7
370
    15
100
AcDbCircle
 10
4.7948744662
 20
6.7370935457
 30
0.0
 40
0.015625
100
AcDbArc
 50
0.0
 51
90.0
  0
ARC
  5
7A
330
1F
100
AcDbEntity
  8
0
  6
Continuous
 62
     7
370
    15
100
AcDbCircle
 10
4.7948744662
 20
7.7477185457
 30
0.0
 40
0.015625
100
AcDbArc
 50
270.0
 51
0.0
  0
LINE
  5
7B
330
1F
100
AcDbEntity
  8
0
  6
Continuous
 62
     7
370
    15
100
AcDbLine
 10
4.5060932141
 20
7.5465935528
 30
0.0
 11
4.5060932141
 21
7.6191064385
 31
0.0
  0
LINE
  5
7C
330
1F
100
AcDbEntity
  8
0
  6
Continuous
 62
     7
370
    15
100
AcDbLine
 10
4.4279682162
 20
7.6191064385
 30
0.0
 11
4.4279682162
 21
7.5465935528
 31
0.0
  0
LINE
  5
7D
330
1F
100
AcDbEntity
  8
0
  6
Continuous
 62
     7
370
    15
100
AcDbLine
 10
4.4279682162
 20
7.5465935528
 30
0.0
 11
4.4292182165
 21
7.5453435639
 31
0.0
  0
LINE
  5
7E
330
1F
100
AcDbEntity
  8
0
  6
Continuous
 62
     7
370
    15
100
AcDbLine
 10
4.504843216
 20
7.5453435639
 30
0.0
 11
4.5060932141
 21
7.5465935528
 31
0.0
  0
ARC
  5
7F
330
1F
100
AcDbEntity
  8
0
  6
Continuous
 62
     7
370
    15
100
AcDbCircle
 10
4.9459334862
 20
7.1604008274
 30
0.0
 40
0.1936043580038255
100
AcDbArc
 50
343.0879971473
 51
351.3296516448
  0
LINE
  5
80
330
1F
100
AcDbEntity
  8
0
  6
Continuous
 62
     7
370
    15
100
AcDbLine
 10
5.1373253403
 20
7.1312151184
 30
0.0
 11
5.227555538
 21
7.1072588389
 31
0.0
  0
ARC
  5
81
330
1F
100
AcDbEntity
  8
0
  6
Continuous
 62
     7
370
    15
100
AcDbCircle
 10
5.0361633275
 20
7.1364446193
 30
0.0
 40
0.1936047210764233
100
AcDbArc
 50
343.088006315
 51
351.3296466561
  0
LINE
  5
82
330
1F
100
AcDbEntity
  8
0
  6
Continuous
 62
     7
370
    15
100
AcDbLine
 10
5.2213951692
 20
7.0801245265
 30
0.0
 11
5.1311649715
 21
7.1040808106
 31
0.0
  0
LWPOLYLINE
  5
83
330
1F
100
AcDbEntity
  8
0
  6
Continuous
 62
     7
370
    15
100
AcDbPolyline
 90
       17
 70
   128
 43
0.0
 10
5.116553547
 20
7.0597314679
 10
5.1165768667
 20
7.0597276547
 10
5.1172838652
 20
7.060579054
 10
5.118425432
 20
7.0631561776
 10
5.1199481811
 20
7.0673385217
 10
5.1217809066
 20
7.0729305271
 10
5.1238379562
 20
7.0796707176
 10
5.1260230442
 20
7.0872439285
 10
5.128234092
 20
7.0952960371
 10
5.1303676274
 20
7.1034505546
 10
5.1323239915
 20
7.1113261611
 10
5.134011592
 20
7.1185546268
 10
5.1353516698
 20
7.1247979346
 10
5.1362813791
 20
7.1297641664
 10
5.1367573802
 20
7.1332211057
 10
5.1367573802
 20
7.1350071092
 10
5.1366013287
 20
7.1352404211
  0
LINE
  5
84
330
1F
100
AcDbEntity
  8
0
  6
Continuous
 62
     7
370
    15
100
AcDbLine
 10
5.1373253403
 20
7.1476546852
 30
0.0
 11
5.1373253403
 21
7.1450621572
 31
0.0
  0
LINE
  5
85
330
1F
100
AcDbEntity
  8
0
  6
Continuous
 62
     7
370
    15
100
AcDbLine
 10
5.1373253403
 20
7.1412346643
 30
0.0
 11
5.1373253403
 21
7.1312151184
 31
0.0
  0
LINE
  5
86
330
1F
100
AcDbEntity
  8
0
  6
Continuous
 62
     7
370
    15
100
AcDbLine
 10
5.1219899042
 20
7.0710684503
 30
0.0
 11
5.1311649715
 21
7.1040808106
 31
0.0
  0
LWPOLYLINE
  5
87
330
1F
100
AcDbEntity
  8
0
  6
Continuous
 62
     7
370
    15
100
AcDbPolyline
 90
        9
 70
   128
 43
0.0
 10
5.1158295353
 20
7.0538718815
 10
5.115947894
 20
7.0533284053
 10
5.1162984966
 20
7.0536576223
 10
5.1168677767
 20
7.0548468735
 10
5.1176338812
 20
7.0568504637
 10
5.1185674037
 20
7.0595914029
 10
5.1196324114
 20
7.0629643398
 10
5.1207880581
 20
7.0668396683
 10
5.1219899042
 20
7.0710684503
  0
LINE
  5
88
330
1F
100
AcDbEntity
  8
0
  6
Continuous
 62
     7
370
    15
100
AcDbLine
 10
5.1158295353
 20
7.0584382771
 30
0.0
 11
5.1158295353
 21
7.0538718815
 31
0.0
  0
LINE
  5
89
330
1F
100
AcDbEntity
  8
0
  6
Continuous
 62
     7
370
    15
100
AcDbLine
 10
5.2122201018
 20
7.0471121662
 30
0.0
 11
5.2213951692
 21
7.0801245265
 31
0.0
  0
LINE
  5
8A
330
1F
100
AcDbEntity
  8
0
  6
Continuous
 62
     7
370
    15
100
AcDbLine
 10
5.1219899042
 20
7.0710684503
 30
0.0
 11
5.2122201018
 21
7.0471121662
 31
0.0
  0
LINE
  5
8B
330
1F
100
AcDbEntity
  8
0
  6
Continuous
 62
     7
370
    15
100
AcDbLine
 10
5.227555538
 20
7.1072588389
 30
0.0
 11
5.229312731
 21
7.1042602735
 31
0.0
  0
ARC
  5
8C
330
1F
100
AcDbEntity
  8
0
  6
Continuous
 62
     7
370
    15
100
AcDbCircle
 10
5.0583077305
 20
7.1303350969
 30
0.0
 40
0.1729815210473044
100
AcDbArc
 50
343.0873971607
 51
351.3303246911
  0
LINE
  5
8D
330
1F
100
AcDbEntity
  8
0
  6
Continuous
 62
     7
370
    15
100
AcDbLine
 10
5.2213951692
 20
7.0801245265
 30
0.0
 11
5.2238077346
 21
7.0800125845
 31
0.0
  0
LINE
  5
8E
330
1F
100
AcDbEntity
  8
0
  6
Continuous
 62
     7
370
    15
100
AcDbLine
 10
5.2146326673
 20
7.0470002242
 30
0.0
 11
5.2122201018
 21
7.0471121662
 31
0.0
  0
LINE
  5
8F
330
1F
100
AcDbEntity
  8
0
  6
Continuous
 62
     7
370
    15
100
AcDbLine
 10
5.2238077346
 20
7.0800125845
 30
0.0
 11
5.2146326673
 21
7.0470002242
 31
0.0
  0
ARC
  5
90
330
1F
100
AcDbEntity
  8
0
  6
Continuous
 62
     7
370
    15
100
AcDbCircle
 10
5.1238982232
 20
7.0672314189
 30
0.0
 40
0.0905844279221277
100
AcDbArc
 50
335.2921827709
 51
347.1673011443
  0
ARC
  5
91
330
1F
100
AcDbEntity
  8
0
  6
Continuous
 62
     7
370
    15
100
AcDbCircle
 10
5.1493979943
 20
7.0600858571
 30
0.0
 40
0.0665341743382547
100
AcDbArc
 50
334.2289720268
 51
348.6573896659
  0
LINE
  5
92
330
1F
100
AcDbEntity
  8
0
  6
Continuous
 62
     7
370
    15
100
AcDbLine
 10
5.227555538
 20
7.1072588389
 30
0.0
 11
5.227555538
 21
7.1247556126
 31
0.0
  0
LINE
  5
93
330
1F
100
AcDbEntity
  8
0
  6
Continuous
 62
     7
370
    15
100
AcDbLine
 10
5.2181642132
 20
7.1272490226
 30
0.0
 11
5.227555538
 21
7.1247556126
 31
0.0
  0
LINE
  5
94
330
1F
100
AcDbEntity
  8
0
  6
Continuous
 62
     7
370
    15
100
AcDbLine
 10
5.229312731
 20
7.1217570473
 30
0.0
 11
5.227555538
 21
7.1247556126
 31
0.0
  0
LINE
  5
95
330
1F
100
AcDbEntity
  8
0
  6
Continuous
 62
     7
370
    15
100
AcDbLine
 10
5.229312731
 20
7.1217570473
 30
0.0
 11
5.229312731
 21
7.1042602735
 31
0.0
  0
ARC
  5
96
330
1F
100
AcDbEntity
  8
0
  6
Continuous
 62
     7
370
    15
100
AcDbCircle
 10
5.1940973021
 20
7.0619236214
 30
0.0
 40
0.0359299255379426
100
AcDbArc
 50
328.9757016223
 51
349.1596815058
  0
ARC
  5
97
330
1F
100
AcDbEntity
  8
0
  6
Continuous
 62
     7
370
    15
100
AcDbCircle
 10
4.7994894165
 20
7.1843924638
 30
0.0
 40
0.4488992724677929
100
AcDbArc
 50
343.2693025629
 51
346.7214097824
  0
ARC
  5
98
330
1F
100
AcDbEntity
  8
0
  6
Continuous
 62
     7
370
    15
100
AcDbCircle
 10
5.1786749932
 20
7.098742359
 30
0.0
 40
0.0602943711947438
100
AcDbArc
 50
343.1713946877
 51
357.0563428385
  0
LINE
  5
99
330
1F
100
AcDbEntity
  8
0
  6
Continuous
 62
     7
370
    15
100
AcDbLine
 10
5.2388898071
 20
7.0956460072
 30
0.0
 11
5.2387660952
 21
7.0956788418
 31
0.0
  0
LWPOLYLINE
  5
9A
330
1F
100
AcDbEntity
  8
0
  6
Continuous
 62
     7
370
    15
100
AcDbPolyline
 90
       14
 70
   128
 43
0.0
 10
5.2863257324
 20
7.0270677944
 10
5.2868070869
 20
7.0276097399
 10
5.2877844622
 20
7.0298573439
 10
5.28913576
 20
7.0336976379
 10
5.2907689478
 20
7.0388689348
 10
5.2925726336
 20
7.0450187804
 10
5.2944239122
 20
7.0517281162
 10
5.2961967251
 20
7.0585396867
 10
5.2977701469
 20
7.0649892972
 10
5.2990369656
 20
7.0706374203
 10
5.2999109421
 20
7.0750991521
 10
5.3003323839
 20
7.0780704194
 10
5.300272618
 20
7.0793487513
 10
5.3002171053
 20
7.079388965
  0
LINE
  5
9B
330
1F
100
AcDbEntity
  8
0
  6
Continuous
 62
     7
370
    15
100
AcDbLine
 10
5.2293860635
 20
7.0551661907
 30
0.0
 11
5.2363872626
 21
7.0812865531
 31
0.0
  0
ARC
  5
9C
330
1F
100
AcDbEntity
  8
0
  6
Continuous
 62
     7
370
    15
100
AcDbCircle
 10
4.924189175
 20
7.1513494205
 30
0.0
 40
0.3080374447304445
100
AcDbArc
 50
342.1213257184
 51
346.8231410772
  0
LINE
  5
9D
330
1F
100
AcDbEntity
  8
0
  6
Continuous
 62
     7
370
    15
100
AcDbLine
 10
5.225768792
 20
7.0873600779
 30
0.0
 11
5.2252267916
 21
7.0842496989
 31
0.0
  0
LINE
  5
9E
330
1F
100
AcDbEntity
  8
0
  6
Continuous
 62
     7
370
    15
100
AcDbLine
 10
5.2252267916
 20
7.0842496989
 30
0.0
 11
5.2182255924
 21
7.0581293273
 31
0.0
  0
LINE
  5
9F
330
1F
100
AcDbEntity
  8
0
  6
Continuous
 62
     7
370
    15
100
AcDbLine
 10
5.2182255924
 20
7.0581293273
 30
0.0
 11
5.2163976336
 21
7.053350515
 31
0.0
  0
LINE
  5
A0
330
1F
100
AcDbEntity
  8
0
  6
Continuous
 62
     7
370
    15
100
AcDbLine
 10
5.2363872626
 20
7.0812865531
 30
0.0
 11
5.2388898071
 21
7.0956460072
 31
0.0
  0
LINE
  5
A1
330
1F
100
AcDbEntity
  8
0
  6
Continuous
 62
     7
370
    15
100
AcDbLine
 10
5.2363872626
 20
7.0812865531
 30
0.0
 11
5.2252267916
 21
7.0842496989
 31
0.0
  0
LINE
  5
A2
330
1F
100
AcDbEntity
  8
0
  6
Continuous
 62
     7
370
    15
100
AcDbLine
 10
5.2388898071
 20
7.0956460072
 30
0.0
 11
5.2283809685
 21
7.0984361158
 31
0.0
  0
LINE
  5
A3
330
1F
100
AcDbEntity
  8
0
  6
Continuous
 62
     7
370
    15
100
AcDbLine
 10
5.2293860635
 20
7.0551661907
 30
0.0
 11
5.2182255924
 21
7.0581293273
 31
0.0
  0
LINE
  5
A4
330
1F
100
AcDbEntity
  8
0
  6
Continuous
 62
     7
370
    15
100
AcDbLine
 10
5.2248874088
 20
7.0434052824
 30
0.0
 11
5.2293860635
 21
7.0551661907
 31
0.0
  0
LINE
  5
A5
330
1F
100
AcDbEntity
  8
0
  6
Continuous
 62
     7
370
    15
100
AcDbLine
 10
5.2248874088
 20
7.0434052824
 30
0.0
 11
5.2144059232
 21
7.0461881219
 31
0.0
  0
LWPOLYLINE
  5
A6
330
1F
100
AcDbEntity
  8
0
  6
Continuous
 62
     7
370
    15
100
AcDbPolyline
 90
       18
 70
   128
 43
0.0
 10
3.8200736907
 20
7.4356701742
 10
3.8195377035
 20
7.4350447031
 10
3.8186053176
 20
7.4327369481
 10
3.8173474822
 20
7.4288144118
 10
3.8158096999
 20
7.4234188274
 10
3.814047557
 20
7.4167452229
 10
3.8121247058
 20
7.4090347886
 10
3.8101106291
 20
7.4005662064
 10
3.8080781459
 20
7.3916455661
 10
3.8061007354
 20
7.382595274
 10
3.8042498601
 20
7.3737424296
 10
3.8025923626
 20
7.3654069826
 10
3.8011882289
 20
7.3578902194
 10
3.8000881316
 20
7.3514638095
 10
3.7993318903
 20
7.3463600151
 10
3.7989468214
 20
7.3427633133
 10
3.7989468214
 20
7.3408036768
 10
3.7991290526
 20
7.3404463643
  0
LWPOLYLINE
  5
A7
330
1F
100
AcDbEntity
  8
0
  6
Continuous
 62
     7
370
    15
100
AcDbPolyline
 90
        9
 70
   128
 43
0.0
 10
3.9215621849
 20
7.3215502509
 10
3.9212519519
 20
7.3193052318
 10
3.9210284344
 20
7.317413382
 10
3.9208936127
 20
7.3158906513
 10
3.9208485132
 20
7.3147498545
 10
3.9208936127
 20
7.3140006073
 10
3.9210284344
 20
7.3136492163
 10
3.9212519519
 20
7.3136986516
 10
3.9215621849
 20
7.3141484822
  0
LINE
  5
A8
330
1F
100
AcDbEntity
  8
0
  6
Continuous
 62
     7
370
    15
100
AcDbLine
 10
3.9226264227
 20
7.318739655
 30
0.0
 11
3.9232288857
 21
7.3186071432
 31
0.0
  0
ARC
  5
A9
330
1F
100
AcDbEntity
  8
0
  6
Continuous
 62
     7
370
    15
100
AcDbCircle
 10
3.5425676926
 20
7.4324071117
 30
0.0
 40
0.3973076600907424
100
AcDbArc
 50
343.3557846099
 51
346.9014959575
  0
ARC
  5
AA
330
1F
100
AcDbEntity
  8
0
  6
Continuous
 62
     7
370
    15
100
AcDbCircle
 10
3.213305431
 20
7.5234470576
 30
0.0
 40
0.7385598567812491
100
AcDbArc
 50
348.1732344035
 51
349.6613540941
  0
LINE
  5
AB
330
1F
100
AcDbEntity
  8
0
  6
Continuous
 62
     7
370
    15
100
AcDbLine
 10
3.9398741867
 20
7.3909008198
 30
0.0
 11
3.939473718
 21
7.3909889104
 31
0.0
  0
LWPOLYLINE
  5
AC
330
1F
100
AcDbEntity
  8
0
  6
Continuous
 62
     7
370
    15
100
AcDbPolyline
 90
        9
 70
   128
 43
0.0
 10
3.9415409242
 20
7.4009199807
 10
3.9418511572
 20
7.4031649997
 10
3.942074638
 20
7.4050568496
 10
3.9422094964
 20
7.4065795803
 10
3.9422545592
 20
7.4077203771
 10
3.9422094964
 20
7.4084696151
 10
3.942074638
 20
7.4088210061
 10
3.9418511572
 20
7.40877158
 10
3.9415409242
 20
7.4083217585
  0
LINE
  5
AD
330
1F
100
AcDbEntity
  8
0
  6
Continuous
 62
     7
370
    15
100
AcDbLine
 10
3.9415409242
 20
7.4083217585
 30
0.0
 11
3.8500782641
 21
7.4284391144
 31
0.0
  0
ARC
  5
AE
330
1F
100
AcDbEntity
  8
0
  6
Continuous
 62
     7
370
    15
100
AcDbCircle
 10
3.8779243333
 20
7.4154890917
 30
0.0
 40
0.0307100416502737
100
AcDbArc
 50
155.0588646612
 51
163.9485251373
  0
LINE
  5
AF
330
1F
100
AcDbEntity
  8
0
  6
Continuous
 62
     7
370
    15
100
AcDbLine
 10
3.8484115633
 20
7.4239804443
 30
0.0
 11
3.9398741867
 21
7.4038630883
 31
0.0
  0
ARC
  5
B0
330
1F
100
AcDbEntity
  8
0
  6
Continuous
 62
     7
370
    15
100
AcDbCircle
 10
4.3302398283
 20
7.2873049084
 30
0.0
 40
0.4073955613551865
100
AcDbArc
 50
163.3750488805
 51
167.0422779671
  0
LINE
  5
B1
330
1F
100
AcDbEntity
  8
0
  6
Continuous
 62
     7
370
    15
100
AcDbLine
 10
3.9332182736
 20
7.3786560362
 30
0.0
 11
3.8417556135
 21
7.3987734105
 31
0.0
  0
ARC
  5
B2
330
1F
100
AcDbEntity
  8
0
  6
Continuous
 62
     7
370
    15
100
AcDbCircle
 10
4.7925504625
 20
7.172235643
 30
0.0
 40
0.9774099471652657
100
AcDbArc
 50
166.5984897835
 51
167.4693938432
  0
LINE
  5
B3
330
1F
100
AcDbEntity
  8
0
  6
Continuous
 62
     7
370
    15
100
AcDbLine
 10
3.8384221754
 20
7.3842955794
 30
0.0
 11
3.9298847988
 21
7.3641782235
 31
0.0
  0
ARC
  5
B4
330
1F
100
AcDbEntity
  8
0
  6
Continuous
 62
     7
370
    15
100
AcDbCircle
 10
4.7737728583
 20
7.1749452603
 30
0.0
 40
0.8648445937090293
100
AcDbArc
 50
167.361101826
 51
169.5661087782
  0
LINE
  5
B5
330
1F
100
AcDbEntity
  8
0
  6
Continuous
 62
     7
370
    15
100
AcDbLine
 10
3.9232288857
 20
7.3315694027
 30
0.0
 11
3.8317662623
 21
7.3516867678
 31
0.0
  0
ARC
  5
B6
330
1F
100
AcDbEntity
  8
0
  6
Continuous
 62
     7
370
    15
100
AcDbCircle
 10
4.1369996408
 20
7.2957614147
 30
0.0
 40
0.3103144542347934
100
AcDbArc
 50
169.6173350611
 51
171.4927555718
  0
LINE
  5
B7
330
1F
100
AcDbEntity
  8
0
  6
Continuous
 62
     7
370
    15
100
AcDbLine
 10
3.8300995249
 20
7.341667616
 30
0.0
 11
3.9215621849
 21
7.3215502509
 31
0.0
  0
LWPOLYLINE
  5
B8
330
1F
100
AcDbEntity
  8
0
  6
Continuous
 62
     7
370
    15
100
AcDbPolyline
 90
       11
 70
   128
 43
0.0
 10
3.9351191983
 20
7.3767301968
 10
3.9349258939
 20
7.3770062753
 10
3.9343669537
 20
7.3755733035
 10
3.933502877
 20
7.372586563
 10
3.9324273461
 20
7.368369725
 10
3.931256923
 20
7.3633797243
 10
3.9301184361
 20
7.358157333
 10
3.9291352308
 20
7.353268467
 10
3.9284138591
 20
7.3492429077
 10
3.9280325302
 20
7.3465168916
 10
3.928020687
 20
7.3463923822
  0
LWPOLYLINE
  5
B9
330
1F
100
AcDbEntity
  8
0
  6
Continuous
 62
     7
370
    15
100
AcDbPolyline
 90
        3
 70
   128
 43
0.0
 10
3.9347055298
 20
7.3733276428
 10
3.9349258939
 20
7.3747749877
 10
3.9351191983
 20
7.3767301968
  0
ARC
  5
BA
330
1F
100
AcDbEntity
  8
0
  6
Continuous
 62
     7
370
    15
100
AcDbCircle
 10
3.8497676661
 20
7.3902476311
 30
0.0
 40
0.0842518187838237
100
AcDbArc
 50
341.9755693896
 51
352.0920069073
  0
LWPOLYLINE
  5
BB
330
1F
100
AcDbEntity
  8
0
  6
Continuous
 62
     7
370
    15
100
AcDbPolyline
 90
        9
 70
   128
 43
0.0
 10
3.9398741867
 20
7.4038630883
 10
3.9395335207
 20
7.4019449305
 10
3.9393604927
 20
7.4006716585
 10
3.9393740958
 20
7.4001832275
 10
3.9395728636
 20
7.4005333535
 10
3.9399349427
 20
7.4016835369
 10
3.9404205138
 20
7.4035073341
 10
3.9409761907
 20
7.4058042543
 10
3.9415409242
 20
7.4083217585
  0
LWPOLYLINE
  5
BC
330
1F
100
AcDbEntity
  8
0
  6
Continuous
 62
     7
370
    15
100
AcDbPolyline
 90
        9
 70
   128
 43
0.0
 10
3.9415409242
 20
7.4009199807
 10
3.9409761907
 20
7.3985321649
 10
3.9404205138
 20
7.3960021575
 10
3.9399349427
 20
7.3936080901
 10
3.9395728636
 20
7.3916131715
 10
3.9393740958
 20
7.3902367024
 10
3.9393604927
 20
7.3896300228
 10
3.9395335207
 20
7.3898598101
 10
3.9398741867
 20
7.3909008198
  0
LWPOLYLINE
  5
BD
330
1F
100
AcDbEntity
  8
0
  6
Continuous
 62
     7
370
    15
100
AcDbPolyline
 90
        9
 70
   128
 43
0.0
 10
3.9232288857
 20
7.3186071432
 10
3.9235695518
 20
7.3205253011
 10
3.9237426164
 20
7.3217985822
 10
3.9237289766
 20
7.3222870041
 10
3.9235302089
 20
7.3219368781
 10
3.9231681297
 20
7.3207866855
 10
3.9226825587
 20
7.3189628883
 10
3.9221268818
 20
7.3166659865
 10
3.9215621849
 20
7.3141484822
  0
LWPOLYLINE
  5
BE
330
1F
100
AcDbEntity
  8
0
  6
Continuous
 62
     7
370
    15
100
AcDbPolyline
 90
        9
 70
   128
 43
0.0
 10
3.9215621849
 20
7.3215502509
 10
3.9221268818
 20
7.3239380666
 10
3.9226825587
 20
7.3264680741
 10
3.9231681297
 20
7.3288621414
 10
3.9235302089
 20
7.33085706
 10
3.9237289766
 20
7.33223352
 10
3.9237426164
 20
7.3328402088
 10
3.9235695518
 20
7.3326104123
 10
3.9232288857
 20
7.3315694027
  0
ARC
  5
BF
330
1F
100
AcDbEntity
  8
0
  6
Continuous
 62
     7
370
    15
100
AcDbCircle
 10
3.7583113438
 20
7.4103633103
 30
0.0
 40
0.0842453080822131
100
AcDbArc
 50
341.9753278326
 51
352.0925557942
  0
ARC
  5
C0
330
1F
100
AcDbEntity
  8
0
  6
Continuous
 62
     7
370
    15
100
AcDbCircle
 10
3.7127221786
 20
7.3712810322
 30
0.0
 40
0.1210553420415519
100
AcDbArc
 50
345.8402029384
 51
350.6427590292
  0
LWPOLYLINE
  5
C1
330
1F
100
AcDbEntity
  8
0
  6
Continuous
 62
     7
370
    15
100
AcDbPolyline
 90
        3
 70
   128
 43
0.0
 10
3.8490139897
 20
7.4238479325
 10
3.8495135673
 20
7.4259216102
 10
3.8500782641
 20
7.4284391144
  0
LWPOLYLINE
  5
C2
330
1F
100
AcDbEntity
  8
0
  6
Continuous
 62
     7
370
    15
100
AcDbPolyline
 90
        3
 70
   128
 43
0.0
 10
5.1375475378
 20
7.1439478472
 10
5.1373165404
 20
7.1450676571
 10
5.1372778209
 20
7.1450839415
  0
LWPOLYLINE
  5
C3
330
1F
100
AcDbEntity
  8
0
  6
Continuous
 62
     7
370
    15
100
AcDbPolyline
 90
       17
 70
   128
 43
0.0
 10
5.1122581699
 20
7.0508487589
 10
5.1125061804
 20
7.0509433945
 10
5.1134091233
 20
7.0523730755
 10
5.1147226548
 20
7.0554506107
 10
5.1163991821
 20
7.0600647824
 10
5.1183782792
 20
7.0660488141
 10
5.120588227
 20
7.07318643
 10
5.1229493131
 20
7.0812196555
 10
5.1253761051
 20
7.0898581491
 10
5.1277808973
 20
7.0987896884
 10
5.1300767908
 20
7.1076914822
 10
5.1321808464
 20
7.1162417751
 10
5.1340169452
 20
7.1241315532
 10
5.1355187946
 20
7.1310756492
 10
5.136632055
 20
7.1368230874
 10
5.1373165404
 20
7.1411661443
 10
5.1375475378
 20
7.1439478472
  0
LWPOLYLINE
  5
C4
330
1F
100
AcDbEntity
  8
0
  6
Continuous
 62
     7
370
    15
100
AcDbPolyline
 90
        9
 70
   128
 43
0.0
 10
4.99221201
 20
7.0907787743
 10
4.991841571
 20
7.0885483576
 10
4.9915747141
 20
7.086667031
 10
4.9914137126
 20
7.0851506435
 10
4.9913598866
 20
7.0840119641
 10
4.9914137126
 20
7.0832605995
 10
4.9915747141
 20
7.0829028653
 10
4.991841571
 20
7.0829417773
 10
4.99221201
 20
7.0833770056
  0
LINE
  5
C5
330
1F
100
AcDbEntity
  8
0
  6
Continuous
 62
     7
370
    15
100
AcDbLine
 10
4.99221201
 20
7.0833770056
 30
0.0
 11
5.0826834716
 21
7.0593566656
 31
0.0
  0
ARC
  5
C6
330
1F
100
AcDbEntity
  8
0
  6
Continuous
 62
     7
370
    15
100
AcDbCircle
 10
5.0595476336
 20
7.0725099279
 30
0.0
 40
0.0266134422142016
100
AcDbArc
 50
330.3807620478
 51
340.752632045
  0
LINE
  5
C7
330
1F
100
AcDbEntity
  8
0
  6
Continuous
 62
     7
370
    15
100
AcDbLine
 10
5.0846734953
 20
7.0637368792
 30
0.0
 11
4.9942020704
 21
7.0877572192
 31
0.0
  0
ARC
  5
C8
330
1F
100
AcDbEntity
  8
0
  6
Continuous
 62
     7
370
    15
100
AcDbCircle
 10
4.6709694757
 20
7.2046632366
 30
0.0
 40
0.343724202222032
100
AcDbArc
 50
340.1160731989
 51
344.4730210698
  0
LINE
  5
C9
330
1F
100
AcDbEntity
  8
0
  6
Continuous
 62
     7
370
    15
100
AcDbLine
 10
5.0021492952
 20
7.1126509858
 30
0.0
 11
5.0926207568
 21
7.0886306549
 31
0.0
  0
ARC
  5
CA
330
1F
100
AcDbEntity
  8
0
  6
Continuous
 62
     7
370
    15
100
AcDbCircle
 10
4.3047047096
 20
7.3153286976
 30
0.0
 40
0.8198802960637253
100
AcDbArc
 50
343.9484927133
 51
344.9872309056
  0
LINE
  5
CB
330
1F
100
AcDbEntity
  8
0
  6
Continuous
 62
     7
370
    15
100
AcDbLine
 10
5.0966009508
 20
7.1029515728
 30
0.0
 11
5.0061294893
 21
7.1269719083
 31
0.0
  0
ARC
  5
CC
330
1F
100
AcDbEntity
  8
0
  6
Continuous
 62
     7
370
    15
100
AcDbCircle
 10
4.3084251957
 20
7.3157872393
 30
0.0
 40
0.7228018473658768
100
AcDbArc
 50
344.8571217913
 51
347.4937611374
  0
LINE
  5
CD
330
1F
100
AcDbEntity
  8
0
  6
Continuous
 62
     7
370
    15
100
AcDbLine
 10
5.0140767141
 20
7.1592674481
 30
0.0
 11
5.104548139
 21
7.1352471127
 31
0.0
  0
ARC
  5
CE
330
1F
100
AcDbEntity
  8
0
  6
Continuous
 62
     7
370
    15
100
AcDbCircle
 10
4.8524762301
 20
7.1908806551
 30
0.0
 40
0.2581382155012639
100
AcDbArc
 50
347.5540558815
 51
349.80439781
  0
LINE
  5
CF
330
1F
100
AcDbEntity
  8
0
  6
Continuous
 62
     7
370
    15
100
AcDbLine
 10
5.106538236
 20
7.145187817
 30
0.0
 11
5.0160668111
 21
7.1692081524
 31
0.0
  0
LWPOLYLINE
  5
D0
330
1F
100
AcDbEntity
  8
0
  6
Continuous
 62
     7
370
    15
100
AcDbPolyline
 90
        9
 70
   128
 43
0.0
 10
5.0160668111
 20
7.1692081524
 10
5.0164372502
 20
7.1714385737
 10
5.0167040704
 20
7.1733199003
 10
5.0168650719
 20
7.1748362878
 10
5.016918898
 20
7.1759749603
 10
5.0168650719
 20
7.1767263295
 10
5.0167040704
 20
7.177084066
 10
5.0164372502
 20
7.177045154
 10
5.0160668111
 20
7.1766099257
  0
LINE
  5
D1
330
1F
100
AcDbEntity
  8
0
  6
Continuous
 62
     7
370
    15
100
AcDbLine
 10
5.0147876359
 20
7.1720409635
 30
0.0
 11
5.0140767141
 21
7.1722297098
 31
0.0
  0
ARC
  5
D2
330
1F
100
AcDbEntity
  8
0
  6
Continuous
 62
     7
370
    15
100
AcDbCircle
 10
5.3373096297
 20
7.0553235984
 30
0.0
 40
0.3437245359047415
100
AcDbArc
 50
160.1160766607
 51
164.4730206641
  0
ARC
  5
D3
330
1F
100
AcDbEntity
  8
0
  6
Continuous
 62
     7
370
    15
100
AcDbCircle
 10
5.5895245769
 20
6.9699691606
 30
0.0
 40
0.6095117164082793
100
AcDbArc
 50
165.9325036165
 51
167.6128372232
  0
LINE
  5
D4
330
1F
100
AcDbEntity
  8
0
  6
Continuous
 62
     7
370
    15
100
AcDbLine
 10
4.9942020704
 20
7.1007194786
 30
0.0
 11
4.9946767882
 21
7.1005934384
 31
0.0
  0
LWPOLYLINE
  5
D5
330
1F
100
AcDbEntity
  8
0
  6
Continuous
 62
     7
370
    15
100
AcDbPolyline
 90
        7
 70
   128
 43
0.0
 10
5.0002520005
 20
7.1174113825
 10
4.9999376608
 20
7.1154408744
 10
4.9999376608
 20
7.1143098033
 10
5.0003929822
 20
7.1148783042
 10
5.0012542723
 20
7.1170847687
 10
5.002428252
 20
7.1206900871
 10
5.0024977712
 20
7.1209162811
  0
LWPOLYLINE
  5
D6
330
1F
100
AcDbEntity
  8
0
  6
Continuous
 62
     7
370
    15
100
AcDbPolyline
 90
        9
 70
   128
 43
0.0
 10
5.0140767141
 20
7.1722297098
 10
5.0136699755
 20
7.1703275889
 10
5.0134633612
 20
7.1690624545
 10
5.0134796044
 20
7.1685733887
 10
5.0137169449
 20
7.1689141602
 10
5.0141492766
 20
7.1700473052
 10
5.0147290433
 20
7.1718482503
 10
5.0153925189
 20
7.1741190022
 10
5.0160668111
 20
7.1766099257
  0
LWPOLYLINE
  5
D7
330
1F
100
AcDbEntity
  8
0
  6
Continuous
 62
     7
370
    15
100
AcDbPolyline
 90
        9
 70
   128
 43
0.0
 10
5.0160668111
 20
7.1692081524
 10
5.0153925189
 20
7.1668469197
 10
5.0147290433
 20
7.1643430645
 10
5.0141492766
 20
7.1619718585
 10
5.0137169449
 20
7.159993976
 10
5.0134796044
 20
7.1586268705
 10
5.0134633612
 20
7.1580208279
 10
5.0136699755
 20
7.1582424754
 10
5.0140767141
 20
7.1592674481
  0
ARC
  5
D8
330
1F
100
AcDbEntity
  8
0
  6
Continuous
 62
     7
370
    15
100
AcDbCircle
 10
5.0719584738
 20
7.1009625842
 30
0.0
 40
0.0707809305887325
100
AcDbArc
 50
158.4408039579
 51
170.4949291229
  0
LWPOLYLINE
  5
D9
330
1F
100
AcDbEntity
  8
0
  6
Continuous
 62
     7
370
    15
100
AcDbPolyline
 90
        9
 70
   128
 43
0.0
 10
4.9942020704
 20
7.0877572192
 10
4.9946088457
 20
7.0896593356
 10
4.99481546
 20
7.0909244768
 10
4.9947991802
 20
7.0914135403
 10
4.9945618762
 20
7.0910727642
 10
4.9941295446
 20
7.0899396215
 10
4.9935497779
 20
7.0881386765
 10
4.9928862656
 20
7.0858679269
 10
4.99221201
 20
7.0833770056
  0
LWPOLYLINE
  5
DA
330
1F
100
AcDbEntity
  8
0
  6
Continuous
 62
     7
370
    15
100
AcDbPolyline
 90
        9
 70
   128
 43
0.0
 10
4.99221201
 20
7.0907787743
 10
4.9928862656
 20
7.093140007
 10
4.9935497779
 20
7.0956438623
 10
4.9941295446
 20
7.0980150682
 10
4.9945618762
 20
7.0999929462
 10
4.9947991802
 20
7.1013600562
 10
4.99481546
 20
7.1019661034
 10
4.9946088457
 20
7.1017444559
 10
4.9942020704
 20
7.1007194786
  0
ARC
  5
DB
330
1F
100
AcDbEntity
  8
0
  6
Continuous
 62
     7
370
    15
100
AcDbCircle
 10
5.1624284234
 20
7.0769426653
 30
0.0
 40
0.0707793713944333
100
AcDbArc
 50
158.4406677625
 51
170.4950558564
  0
ARC
  5
DC
330
1F
100
AcDbEntity
  8
0
  6
Continuous
 62
     7
370
    15
100
AcDbCircle
 10
5.2036072948
 20
7.1155938261
 30
0.0
 40
0.1014800791857062
100
AcDbArc
 50
163.0448134857
 51
168.760623374
  0
LWPOLYLINE
  5
DD
330
1F
100
AcDbEntity
  8
0
  6
Continuous
 62
     7
370
    15
100
AcDbPolyline
 90
        3
 70
   128
 43
0.0
 10
5.0839626101
 20
7.0639256278
 10
5.0833576905
 20
7.0618475868
 10
5.0826834716
 20
7.0593566656
  0
LWPOLYLINE
  5
DE
330
1F
100
AcDbEntity
  8
0
  6
Continuous
 62
     7
370
    15
100
AcDbPolyline
 90
       17
 70
   128
 43
0.0
 10
3.8161633825
 20
7.4266111739
 10
3.816147726
 20
7.4266131172
 10
3.8155556029
 20
7.4257338424
 10
3.8145994939
 20
7.4231117293
 10
3.8133241687
 20
7.4188693533
 10
3.8117892464
 20
7.4132050971
 10
3.810066483
 20
7.4063838192
 10
3.8082363974
 20
7.3987244794
 10
3.8063846422
 20
7.3905852151
 10
3.8045977495
 20
7.3823466036
 10
3.8029592817
 20
7.3743938604
 10
3.8015458714
 20
7.367098873
 10
3.800423591
 20
7.3608027474
 10
3.79964491
 20
7.3557998586
 10
3.799246238
 20
7.3523241554
 10
3.799246238
 20
7.3505381519
 10
3.7993808397
 20
7.3503100512
  0
LINE
  5
DF
330
1F
100
AcDbEntity
  8
0
  6
Continuous
 62
     7
370
    15
100
AcDbLine
 10
3.7992660011
 20
7.340416243
 30
0.0
 11
3.7987706034
 21
7.3382646495
 31
0.0
  0
LINE
  5
E0
330
1F
100
AcDbEntity
  8
0
  6
Continuous
 62
     7
370
    15
100
AcDbLine
 10
3.7987706034
 20
7.3382646495
 30
0.0
 11
3.7987706034
 21
7.3543077625
 31
0.0
  0
ARC
  5
E1
330
1F
100
AcDbEntity
  8
0
  6
Continuous
 62
     7
370
    15
100
AcDbCircle
 10
4.0289224321
 20
7.3251090543
 30
0.0
 40
0.2319966137067165
100
AcDbArc
 50
165.8852318998
 51
172.7696736047
  0
LINE
  5
E2
330
1F
100
AcDbEntity
  8
0
  6
Continuous
 62
     7
370
    15
100
AcDbLine
 10
3.8116142017
 20
7.4150589423
 30
0.0
 11
3.8039299838
 21
7.3816849062
 31
0.0
  0
LWPOLYLINE
  5
E3
330
1F
100
AcDbEntity
  8
0
  6
Continuous
 62
     7
370
    15
100
AcDbPolyline
 90
        9
 70
   128
 43
0.0
 10
3.8167736188
 20
7.4324983425
 10
3.8166744733
 20
7.433037153
 10
3.8163808867
 20
7.432694122
 10
3.8159041155
 20
7.4314824309
 10
3.8152624563
 20
7.4294486461
 10
3.814480622
 20
7.4266709032
 10
3.8135886423
 20
7.4232559926
 10
3.8126207634
 20
7.4193351063
 10
3.8116142017
 20
7.4150589423
  0
LINE
  5
E4
330
1F
100
AcDbEntity
  8
0
  6
Continuous
 62
     7
370
    15
100
AcDbLine
 10
3.8167736188
 20
7.426859771
 30
0.0
 11
3.8167736188
 21
7.4324983425
 31
0.0
  0
LINE
  5
E5
330
1F
100
AcDbEntity
  8
0
  6
Continuous
 62
     7
370
    15
100
AcDbLine
 10
3.7697839583
 20
7.3891953995
 30
0.0
 11
3.8039299838
 21
7.3816849062
 31
0.0
  0
LINE
  5
E6
330
1F
100
AcDbEntity
  8
0
  6
Continuous
 62
     7
370
    15
100
AcDbLine
 10
3.7987706034
 20
7.3543077625
 30
0.0
 11
3.7646245779
 21
7.3618182374
 31
0.0
  0
ARC
  5
E7
330
1F
100
AcDbEntity
  8
0
  6
Continuous
 62
     7
370
    15
100
AcDbCircle
 10
3.9947542679
 20
7.3326237392
 30
0.0
 40
0.231974121294586
100
AcDbArc
 50
165.8849024907
 51
172.7700169792
  0
LINE
  5
E8
330
1F
100
AcDbEntity
  8
0
  6
Continuous
 62
     7
370
    15
100
AcDbLine
 10
3.7774681762
 20
7.4225694172
 30
0.0
 11
3.7697839583
 21
7.3891953995
 31
0.0
  0
LINE
  5
E9
330
1F
100
AcDbEntity
  8
0
  6
Continuous
 62
     7
370
    15
100
AcDbLine
 10
3.8116142017
 20
7.4150589423
 30
0.0
 11
3.7774681762
 21
7.4225694172
 31
0.0
  0
LINE
  5
EA
330
1F
100
AcDbEntity
  8
0
  6
Continuous
 62
     7
370
    15
100
AcDbLine
 10
3.7987706034
 20
7.3382646495
 30
0.0
 11
3.7646245779
 21
7.3457751244
 31
0.0
  0
LINE
  5
EB
330
1F
100
AcDbEntity
  8
0
  6
Continuous
 62
     7
370
    15
100
AcDbLine
 10
3.7646245779
 20
7.3457751244
 30
0.0
 11
3.7646245779
 21
7.3618182374
 31
0.0
  0
ARC
  5
EC
330
1F
100
AcDbEntity
  8
0
  6
Continuous
 62
     7
370
    15
100
AcDbCircle
 10
3.7693365367
 20
7.3683415371
 30
0.0
 40
0.0230531025900155
100
AcDbArc
 50
180.3930205883
 51
258.2058643247
  0
LINE
  5
ED
330
1F
100
AcDbEntity
  8
0
  6
Continuous
 62
     7
370
    15
100
AcDbLine
 10
3.9119369661
 20
7.8111904362
 30
0.0
 11
3.8626869784
 21
7.8111904362
 31
0.0
  0
LINE
  5
EE
330
1F
100
AcDbEntity
  8
0
  6
Continuous
 62
     7
370
    15
100
AcDbLine
 10
3.8391869599
 20
7.7879685311
 30
0.0
 11
3.8391869599
 21
7.7994404453
 31
0.0
  0
LWPOLYLINE
  5
EF
330
1F
100
AcDbEntity
  8
0
  6
Continuous
 62
     7
370
    15
100
AcDbPolyline
 90
        9
 70
   128
 43
0.0
 10
3.8626869784
 20
7.8111904362
 10
3.8581023414
 20
7.8109646455
 10
3.8536939223
 20
7.8102959999
 10
3.8496310826
 20
7.8092102024
 10
3.846069947
 20
7.8077489426
 10
3.8431474275
 20
7.8059683932
 10
3.8409757959
 20
7.8039369733
 10
3.8396385047
 20
7.8017327455
 10
3.8391869599
 20
7.7994404453
  0
LWPOLYLINE
  5
F0
330
1F
100
AcDbEntity
  8
0
  6
Continuous
 62
     7
370
    15
100
AcDbPolyline
 90
        9
 70
   128
 43
0.0
 10
3.935436948
 20
7.7994404453
 10
3.9349854032
 20
7.8017327455
 10
3.9336481487
 20
7.8039369733
 10
3.9314765171
 20
7.8059683932
 10
3.9285539608
 20
7.8077489426
 10
3.924992862
 20
7.8092102024
 10
3.9209300223
 20
7.8102959999
 10
3.9165216032
 20
7.8109646455
 10
3.9119369661
 20
7.8111904362
  0
LINE
  5
F1
330
1F
100
AcDbEntity
  8
0
  6
Continuous
 62
     7
370
    15
100
AcDbLine
 10
3.935436948
 20
7.7878325727
 30
0.0
 11
3.935436948
 21
7.7994404453
 31
0.0
  0
LWPOLYLINE
  5
F2
330
1F
100
AcDbEntity
  8
0
  6
Continuous
 62
     7
370
    15
100
AcDbPolyline
 90
        9
 70
   128
 43
0.0
 10
4.9986244593
 20
6.6853716651
 10
4.9990760041
 20
6.6830793649
 10
5.0004132953
 20
6.680875137
 10
5.0025849269
 20
6.6788437172
 10
5.0055074465
 20
6.6770631677
 10
5.009068582
 20
6.6756019079
 10
5.0131314217
 20
6.6745160738
 10
5.0175398408
 20
6.6738474282
 10
5.0221244778
 20
6.6736216742
  0
LINE
  5
F3
330
1F
100
AcDbEntity
  8
0
  6
Continuous
 62
     7
370
    15
100
AcDbLine
 10
4.9986244593
 20
6.696979501
 30
0.0
 11
4.9986244593
 21
6.6853716651
 31
0.0
  0
LINE
  5
F4
330
1F
100
AcDbEntity
  8
0
  6
Continuous
 62
     7
370
    15
100
AcDbLine
 10
5.0221244778
 20
6.6736216742
 30
0.0
 11
5.0713745022
 21
6.6736216742
 31
0.0
  0
LINE
  5
F5
330
1F
100
AcDbEntity
  8
0
  6
Continuous
 62
     7
370
    15
100
AcDbLine
 10
5.0948744841
 20
6.6968435426
 30
0.0
 11
5.0948744841
 21
6.6853716651
 31
0.0
  0
LWPOLYLINE
  5
F6
330
1F
100
AcDbEntity
  8
0
  6
Continuous
 62
     7
370
    15
100
AcDbPolyline
 90
        9
 70
   128
 43
0.0
 10
5.0713745022
 20
6.6736216742
 10
5.0759591026
 20
6.6738474282
 10
5.0803675583
 20
6.6745160738
 10
5.0844303981
 20
6.6756019079
 10
5.0879914969
 20
6.6770631677
 10
5.0909140165
 20
6.6788437172
 10
5.0930856114
 20
6.680875137
 10
5.0944229026
 20
6.6830793649
 10
5.0948744841
 20
6.6853716651
  0
ARC
  5
F7
330
1F
100
AcDbEntity
  8
0
  6
Continuous
 62
     7
370
    15
100
AcDbCircle
 10
5.1528744662
 20
7.2424060457
 30
0.0
 40
0.0379140857983063
100
AcDbArc
 50
95.6762820236
 51
264.3237179764
  0
CIRCLE
  5
F8
330
1F
100
AcDbEntity
  8
0
  6
Continuous
 62
     7
370
    15
100
AcDbCircle
 10
5.1338119662
 20
7.2424060457
 30
0.0
 40
0.0079999999999991
  0
LINE
  5
F9
330
1F
100
AcDbEntity
  8
0
  6
Continuous
 62
     7
370
    15
100
AcDbLine
 10
5.149124464
 20
7.280134226
 30
0.0
 11
5.149124464
 21
7.2046778679
 31
0.0
  0
CIRCLE
  5
FA
330
1F
100
AcDbEntity
  8
0
  6
Continuous
 62
     7
370
    15
100
AcDbCircle
 10
5.1719369662
 20
7.2424060457
 30
0.0
 40
0.008
  0
LINE
  5
FB
330
1F
100
AcDbEntity
  8
0
  6
Continuous
 62
     7
370
    15
100
AcDbLine
 10
5.1566244707
 20
7.280134226
 30
0.0
 11
5.1566244707
 21
7.2046778679
 31
0.0
  0
ARC
  5
FC
330
1F
100
AcDbEntity
  8
0
  6
Continuous
 62
     7
370
    15
100
AcDbCircle
 10
5.1528744662
 20
7.2424060457
 30
0.0
 40
0.0379140857983065
100
AcDbArc
 50
275.6762820236
 51
84.3237179764
  0
LINE
  5
FD
330
1F
100
AcDbEntity
  8
0
  6
Continuous
 62
     7
370
    15
100
AcDbLine
 10
5.149124464
 20
7.2046778679
 30
0.0
 11
5.149124464
 21
7.2026437111
 31
0.0
  0
LINE
  5
FE
330
1F
100
AcDbEntity
  8
0
  6
Continuous
 62
     7
370
    15
100
AcDbLine
 10
5.149124464
 20
7.2830459015
 30
0.0
 11
5.149124464
 21
7.280134226
 31
0.0
  0
LINE
  5
FF
330
1F
100
AcDbEntity
  8
0
  6
Continuous
 62
     7
370
    15
100
AcDbLine
 10
5.1566244707
 20
7.2830459015
 30
0.0
 11
5.1566244707
 21
7.280134226
 31
0.0
  0
LINE
  5
100
330
1F
100
AcDbEntity
  8
0
  6
Continuous
 62
     7
370
    15
100
AcDbLine
 10
5.1566244707
 20
7.2046778679
 30
0.0
 11
5.1566244707
 21
7.2017661927
 31
0.0
  0
CIRCLE
  5
101
330
1F
100
AcDbEntity
  8
0
  6
Continuous
 62
     7
370
    15
100
AcDbCircle
 10
3.8002494662
 20
7.2424060457
 30
0.0
 40
0.008
  0
LINE
  5
102
330
1F
100
AcDbEntity
  8
0
  6
Continuous
 62
     7
370
    15
100
AcDbLine
 10
3.7849369433
 20
7.280134226
 30
0.0
 11
3.7849369433
 21
7.2046778679
 31
0.0
  0
ARC
  5
103
330
1F
100
AcDbEntity
  8
0
  6
Continuous
 62
     7
370
    15
100
AcDbCircle
 10
3.7811869662
 20
7.2424060457
 30
0.0
 40
0.0379140857983065
100
AcDbArc
 50
275.6762820236
 51
84.3237179764
  0
LINE
  5
104
330
1F
100
AcDbEntity
  8
0
  6
Continuous
 62
     7
370
    15
100
AcDbLine
 10
3.7849369433
 20
7.2046778679
 30
0.0
 11
3.7849369433
 21
7.2017661927
 31
0.0
  0
LINE
  5
105
330
1F
100
AcDbEntity
  8
0
  6
Continuous
 62
     7
370
    15
100
AcDbLine
 10
3.7849369433
 20
7.2830459015
 30
0.0
 11
3.7849369433
 21
7.280134226
 31
0.0
  0
ARC
  5
106
330
1F
100
AcDbEntity
  8
0
  6
Continuous
 62
     7
370
    15
100
AcDbCircle
 10
3.7811869662
 20
7.2424060457
 30
0.0
 40
0.0379140857983064
100
AcDbArc
 50
95.6762820236
 51
264.3237179764
  0
LINE
  5
107
330
1F
100
AcDbEntity
  8
0
  6
Continuous
 62
     7
370
    15
100
AcDbLine
 10
3.7774369366
 20
7.2046778679
 30
0.0
 11
3.7774369366
 21
7.2026437111
 31
0.0
  0
LINE
  5
108
330
1F
100
AcDbEntity
  8
0
  6
Continuous
 62
     7
370
    15
100
AcDbLine
 10
3.7774369366
 20
7.2830459015
 30
0.0
 11
3.7774369366
 21
7.280134226
 31
0.0
  0
CIRCLE
  5
109
330
1F
100
AcDbEntity
  8
0
  6
Continuous
 62
     7
370
    15
100
AcDbCircle
 10
3.7621244662
 20
7.2424060457
 30
0.0
 40
0.008
  0
LINE
  5
10A
330
1F
100
AcDbEntity
  8
0
  6
Continuous
 62
     7
370
    15
100
AcDbLine
 10
3.7774369366
 20
7.280134226
 30
0.0
 11
3.7774369366
 21
7.2046778679
 31
0.0
  0
CIRCLE
  5
10B
330
1F
100
AcDbEntity
  8
0
  6
Continuous
 62
     7
370
    15
100
AcDbCircle
 10
4.4670307162
 20
6.9035310457
 30
0.0
 40
0.0608726291492552
  0
CIRCLE
  5
10C
330
1F
100
AcDbEntity
  8
0
  6
Continuous
 62
     7
370
    15
100
AcDbCircle
 10
4.4670307162
 20
6.9035310457
 30
0.0
 40
0.0685578333233918
  0
CIRCLE
  5
10D
330
1F
100
AcDbEntity
  8
0
  6
Continuous
 62
     7
370
    15
100
AcDbCircle
 10
4.4670307162
 20
6.9035310457
 30
0.0
 40
0.0543750000000003
  0
CIRCLE
  5
10E
330
1F
100
AcDbEntity
  8
0
  6
Continuous
 62
     7
370
    15
100
AcDbCircle
 10
4.4670307162
 20
6.9035310457
 30
0.0
 40
0.0703125
  0
CIRCLE
  5
10F
330
1F
100
AcDbEntity
  8
0
  6
Continuous
 62
     7
370
    15
100
AcDbCircle
 10
4.4670307162
 20
6.9035310457
 30
0.0
 40
0.0740625000000001
  0
CIRCLE
  5
110
330
1F
100
AcDbEntity
  8
0
  6
Continuous
 62
     7
370
    15
100
AcDbCircle
 10
4.4670307162
 20
6.9035310457
 30
0.0
 40
0.0794312499999998
  0
CIRCLE
  5
111
330
1F
100
AcDbEntity
  8
0
  6
Continuous
 62
     7
370
    15
100
AcDbCircle
 10
4.4670307162
 20
6.9035310457
 30
0.0
 40
0.08984375
  0
LINE
  5
112
330
1F
100
AcDbEntity
  8
0
  6
Continuous
 62
     7
370
    15
100
AcDbLine
 10
4.3726557172
 20
6.9580184754
 30
0.0
 11
4.4670307174
 21
7.012505906
 31
0.0
  0
LINE
  5
113
330
1F
100
AcDbEntity
  8
0
  6
Continuous
 62
     7
370
    15
100
AcDbLine
 10
4.4670307174
 20
6.7945561838
 30
0.0
 11
4.3726557172
 21
6.8490436143
 31
0.0
  0
LINE
  5
114
330
1F
100
AcDbEntity
  8
0
  6
Continuous
 62
     7
370
    15
100
AcDbLine
 10
4.4670307174
 20
7.012505906
 30
0.0
 11
4.5614057176
 21
6.9580184754
 31
0.0
  0
LINE
  5
115
330
1F
100
AcDbEntity
  8
0
  6
Continuous
 62
     7
370
    15
100
AcDbLine
 10
4.5614057176
 20
6.9580184754
 30
0.0
 11
4.5614057176
 21
6.8490436143
 31
0.0
  0
LINE
  5
116
330
1F
100
AcDbEntity
  8
0
  6
Continuous
 62
     7
370
    15
100
AcDbLine
 10
4.5614057176
 20
6.8490436143
 30
0.0
 11
4.4670307174
 21
6.7945561838
 31
0.0
  0
LINE
  5
117
330
1F
100
AcDbEntity
  8
0
  6
Continuous
 62
     7
370
    15
100
AcDbLine
 10
4.3726557172
 20
6.8490436143
 30
0.0
 11
4.3726557172
 21
6.9580184754
 31
0.0
  0
CIRCLE
  5
118
330
1F
100
AcDbEntity
  8
0
  6
Continuous
 62
     7
370
    15
100
AcDbCircle
 10
4.4670307162
 20
7.5812810457
 30
0.0
 40
0.0608726291492552
  0
CIRCLE
  5
119
330
1F
100
AcDbEntity
  8
0
  6
Continuous
 62
     7
370
    15
100
AcDbCircle
 10
4.4670307162
 20
7.5812810457
 30
0.0
 40
0.0685578333233918
  0
CIRCLE
  5
11A
330
1F
100
AcDbEntity
  8
0
  6
Continuous
 62
     7
370
    15
100
AcDbCircle
 10
4.4670307162
 20
7.5812810457
 30
0.0
 40
0.0543750000000003
  0
CIRCLE
  5
11B
330
1F
100
AcDbEntity
  8
0
  6
Continuous
 62
     7
370
    15
100
AcDbCircle
 10
4.4670307162
 20
7.5812810457
 30
0.0
 40
0.0703125
  0
CIRCLE
  5
11C
330
1F
100
AcDbEntity
  8
0
  6
Continuous
 62
     7
370
    15
100
AcDbCircle
 10
4.4670307162
 20
7.5812810457
 30
0.0
 40
0.0740625000000001
  0
CIRCLE
  5
11D
330
1F
100
AcDbEntity
  8
0
  6
Continuous
 62
     7
370
    15
100
AcDbCircle
 10
4.4670307162
 20
7.5812810457
 30
0.0
 40
0.0794312499999998
  0
CIRCLE
  5
11E
330
1F
100
AcDbEntity
  8
0
  6
Continuous
 62
     7
370
    15
100
AcDbCircle
 10
4.4670307162
 20
7.5812810457
 30
0.0
 40
0.08984375
  0
LINE
  5
11F
330
1F
100
AcDbEntity
  8
0
  6
Continuous
 62
     7
370
    15
100
AcDbLine
 10
4.4670307174
 20
7.6902559266
 30
0.0
 11
4.5614057176
 21
7.6357684594
 31
0.0
  0
LINE
  5
120
330
1F
100
AcDbEntity
  8
0
  6
Continuous
 62
     7
370
    15
100
AcDbLine
 10
4.5614057176
 20
7.6357684594
 30
0.0
 11
4.5614057176
 21
7.5267935982
 31
0.0
  0
LINE
  5
121
330
1F
100
AcDbEntity
  8
0
  6
Continuous
 62
     7
370
    15
100
AcDbLine
 10
4.5614057176
 20
7.5267935982
 30
0.0
 11
4.4670307174
 21
7.472306186
 31
0.0
  0
LINE
  5
122
330
1F
100
AcDbEntity
  8
0
  6
Continuous
 62
     7
370
    15
100
AcDbLine
 10
4.4670307174
 20
7.472306186
 30
0.0
 11
4.3726557172
 21
7.5267935982
 31
0.0
  0
LINE
  5
123
330
1F
100
AcDbEntity
  8
0
  6
Continuous
 62
     7
370
    15
100
AcDbLine
 10
4.3726557172
 20
7.5267935982
 30
0.0
 11
4.3726557172
 21
7.6357684594
 31
0.0
  0
LINE
  5
124
330
1F
100
AcDbEntity
  8
0
  6
Continuous
 62
     7
370
    15
100
AcDbLine
 10
4.3726557172
 20
7.6357684594
 30
0.0
 11
4.4670307174
 21
7.6902559266
 31
0.0
  0
LINE
  5
125
330
1F
100
AcDbEntity
  8
0
  6
Continuous
 62
     7
370
    15
100
AcDbLine
 10
4.2367807218
 20
6.7345935298
 30
0.0
 11
4.2367807218
 21
6.6408435561
 31
0.0
  0
LINE
  5
126
330
1F
100
AcDbEntity
  8
0
  6
Continuous
 62
     7
370
    15
100
AcDbLine
 10
4.2367807218
 20
6.7345935298
 30
0.0
 11
4.6972807221
 21
6.7345935298
 31
0.0
  0
LINE
  5
127
330
1F
100
AcDbEntity
  8
0
  6
Continuous
 62
     7
370
    15
100
AcDbLine
 10
4.2367807218
 20
6.6408435561
 30
0.0
 11
4.6972807221
 21
6.6408435561
 31
0.0
  0
CIRCLE
  5
128
330
1F
100
AcDbEntity
  8
0
  6
Continuous
 62
     7
370
    15
100
AcDbCircle
 10
4.6737807162
 20
6.6955935457
 30
0.0
 40
0.0120624999999999
  0
LINE
  5
129
330
1F
100
AcDbEntity
  8
0
  6
Continuous
 62
     7
370
    15
100
AcDbLine
 10
4.6972807221
 20
6.7345935298
 30
0.0
 11
4.6972807221
 21
6.6408435561
 31
0.0
  0
CIRCLE
  5
12A
330
1F
100
AcDbEntity
  8
0
  6
Continuous
 62
     7
370
    15
100
AcDbCircle
 10
4.6737807162
 20
6.6955935457
 30
0.0
 40
0.0117500000000001
  0
ARC
  5
12B
330
1F
100
AcDbEntity
  8
0
  6
Continuous
 62
     7
370
    15
100
AcDbCircle
 10
4.7977551162
 20
6.8159977618
 30
0.0
 40
0.0249999999999994
100
AcDbArc
 50
319.9748186344
 51
139.9748186344
  0
LINE
  5
12C
330
1F
100
AcDbEntity
  8
0
  6
Continuous
 62
     7
370
    15
100
AcDbLine
 10
4.7275545907
 20
6.6935379341
 30
0.0
 11
4.8168991519
 21
6.7999196485
 31
0.0
  0
ARC
  5
12D
330
1F
100
AcDbEntity
  8
0
  6
Continuous
 62
     7
370
    15
100
AcDbCircle
 10
4.6627779989
 20
6.7479404619
 30
0.0
 40
0.0845910310529065
100
AcDbArc
 50
294.071526989
 51
319.9748186344
  0
ARC
  5
12E
330
1F
100
AcDbEntity
  8
0
  6
Continuous
 62
     7
370
    15
100
AcDbCircle
 10
4.6858569766
 20
6.7483594633
 30
0.0
 40
0.0234375000000006
100
AcDbArc
 50
299.1706795883
 51
2.8082467004
  0
LINE
  5
12F
330
1F
100
AcDbEntity
  8
0
  6
Continuous
 62
     7
370
    15
100
AcDbLine
 10
4.7786110876
 20
6.8320758703
 30
0.0
 11
4.7092663303
 21
6.7495077442
 31
0.0
  0
CIRCLE
  5
130
330
1F
100
AcDbEntity
  8
0
  6
Continuous
 62
     7
370
    15
100
AcDbCircle
 10
4.7977551162
 20
6.8159977618
 30
0.0
 40
0.0120624999999998
  0
LINE
  5
131
330
1F
100
AcDbEntity
  8
0
  6
Continuous
 62
     7
370
    15
100
AcDbLine
 10
5.234249474
 20
7.242406046
 30
0.0
 11
5.234249474
 21
7.2965777252
 31
0.0
  0
LINE
  5
132
330
1F
100
AcDbEntity
  8
0
  6
Continuous
 62
     7
370
    15
100
AcDbLine
 10
5.234249474
 20
7.1882343691
 30
0.0
 11
5.234249474
 21
7.242406046
 31
0.0
  0
LINE
  5
133
330
1F
100
AcDbEntity
  8
0
  6
Continuous
 62
     7
370
    15
100
AcDbLine
 10
3.6998119333
 20
7.2965777252
 30
0.0
 11
3.6998119333
 21
7.1882343691
 31
0.0
  0
LINE
  5
134
330
1F
100
AcDbEntity
  8
0
  6
Continuous
 62
     7
370
    15
100
AcDbLine
 10
3.7550188289
 20
7.424548661
 30
0.0
 11
3.7355505204
 21
7.424548661
 31
0.0
  0
LINE
  5
135
330
1F
100
AcDbEntity
  8
0
  6
Continuous
 62
     7
370
    15
100
AcDbLine
 10
3.7355505204
 20
7.424548661
 30
0.0
 11
3.7253119854
 21
7.4105371512
 31
0.0
  0
LINE
  5
136
330
1F
100
AcDbEntity
  8
0
  6
Continuous
 62
     7
370
    15
100
AcDbLine
 10
3.7253119854
 20
7.3563736303
 30
0.0
 11
3.7253119854
 21
6.6968435426
 31
0.0
  0
LINE
  5
137
330
1F
100
AcDbEntity
  8
0
  6
Continuous
 62
     7
370
    15
100
AcDbLine
 10
3.7253119854
 20
7.7879685311
 30
0.0
 11
3.7253119854
 21
7.4105371512
 31
0.0
  0
SPLINE
  5
138
330
1F
100
AcDbEntity
  8
0
  6
Continuous
 62
     7
370
    15
100
AcDbSpline
210
0.0
220
0.0
230
1.0
 70
     8
 71
     3
 72
    18
 73
    14
 74
     0
 42
0.00000001
 43
0.00000001
 12
1.0
 22
0.0
 32
0.0
 13
1.0
 23
0.0
 33
0.0
 40
0.0
 40
0.0
 40
0.0
 40
0.0
 40
0.0949318756945121
 40
0.1898654372192844
 40
0.2847883595117784
 40
0.3797108100856422
 40
0.4747771164010783
 40
0.5698426647669989
 40
0.6647590833514776
 40
0.759675596232381
 40
0.8544965844774061
 40
0.9493182236054055
 40
1.0
 40
1.0
 40
1.0
 40
1.0
 10
3.725311985380328
 20
7.356373630279066
 30
0.0
 10
3.727041277696044
 20
7.353377561473219
 30
0.0
 10
3.730499893036795
 20
7.347385370656388
 30
0.0
 10
3.737526084499357
 20
7.339587116564386
 30
0.0
 10
3.74569702233902
 20
7.33299834026799
 30
0.0
 10
3.754887708365307
 20
7.327825925553918
 30
0.0
 10
3.764837291864136
 20
7.324272804501672
 30
0.0
 10
3.775246197581287
 20
7.322385778596931
 30
0.0
 10
3.785817754745922
 20
7.322299335408254
 30
0.0
 10
3.796265807748604
 20
7.323915823100323
 30
0.0
 10
3.806219433944948
 20
7.327340967628621
 30
0.0
 10
3.814208944508133
 20
7.331346802707656
 30
0.0
 10
3.818361728576343
 20
7.334722218772756
 30
0.0
 10
3.819808227085014
 20
7.335897944315938
 30
0.0
  0
SPLINE
  5
139
330
1F
100
AcDbEntity
  8
0
  6
Continuous
 62
     7
370
    15
100
AcDbSpline
210
0.0
220
0.0
230
1.0
 70
    11
 71
     3
 72
    26
 73
    22
 74
     0
 42
0.00000001
 43
0.00000001
 12
1.0
 22
0.0
 32
0.0
 13
1.0
 23
0.0
 33
0.0
 40
0.0
 40
0.0
 40
0.0
 40
0.0
 40
0.0536126424745217
 40
0.1072226147023152
 40
0.1609027059258458
 40
0.214628580043625
 40
0.2682784572799232
 40
0.3218494646151214
 40
0.3754612577013025
 40
0.4291699986990783
 40
0.4828809086491922
 40
0.5364955131771091
 40
0.5900653241708219
 40
0.6437120489800022
 40
0.6974372945823365
 40
0.751120165236623
 40
0.804706254232372
 40
0.8582918156908811
 40
0.911973832762337
 40
0.9656994126319547
 40
1.0
 40
1.0
 40
1.0
 40
1.0
 10
3.781186939908086
 20
7.207249795574496
 30
0.0
 10
3.777238268639427
 20
7.207637669001851
 30
0.0
 10
3.769341122770769
 20
7.208413396538026
 30
0.0
 10
3.758827731510306
 20
7.214459609483022
 30
0.0
 10
3.750824454907257
 20
7.223370035857482
 30
0.0
 10
3.746239144140238
 20
7.234508588165887
 30
0.0
 10
3.745595192012594
 20
7.246512459081543
 30
0.0
 10
3.74895503964372
 20
7.258048164409574
 30
0.0
 10
3.755936776656169
 20
7.267824329886309
 30
0.0
 10
3.765768031120832
 20
7.274748653392936
 30
0.0
 10
3.777342672704821
 20
7.278028508772447
 30
0.0
 10
3.789341469072974
 20
7.277293027554211
 30
0.0
 10
3.800414163783315
 20
7.272636811490854
 30
0.0
 10
3.809329981388212
 20
7.264580019264253
 30
0.0
 10
3.815083547448551
 20
7.254017199798882
 30
0.0
 10
3.817014590469768
 20
7.24214368666794
 30
0.0
 10
3.814911401376476
 20
7.230315519857127
 30
0.0
 10
3.809018413195965
 20
7.219835236937442
 30
0.0
 10
3.799994601612214
 20
7.211945372016753
 30
0.0
 10
3.790167085367855
 20
7.207824440679397
 30
0.0
 10
3.783704984835489
 20
7.207410926838787
 30
0.0
 10
3.781186939908086
 20
7.207249795574496
 30
0.0
  0
LINE
  5
13A
330
1F
100
AcDbEntity
  8
0
  6
Continuous
 62
     7
370
    15
100
AcDbLine
 10
3.9339369687
 20
7.7879685311
 30
0.0
 11
3.9339369687
 21
7.4106257369
 31
0.0
  0
LINE
  5
13B
330
1F
100
AcDbEntity
  8
0
  6
Continuous
 62
     7
370
    15
100
AcDbLine
 10
3.9339369687
 20
7.3411990306
 30
0.0
 11
3.9339369687
 21
6.6968435426
 31
0.0
  0
LINE
  5
13C
330
1F
100
AcDbEntity
  8
0
  6
Continuous
 62
     7
370
    15
100
AcDbLine
 10
4.1080007545
 20
6.712620587
 30
0.0
 11
4.1080007545
 21
7.2958581594
 31
0.0
  0
LINE
  5
13D
330
1F
100
AcDbEntity
  8
0
  6
Continuous
 62
     7
370
    15
100
AcDbLine
 10
4.1080007545
 20
7.3277003623
 30
0.0
 11
4.1080007545
 21
7.7721914867
 31
0.0
  0
LINE
  5
13E
330
1F
100
AcDbEntity
  8
0
  6
Continuous
 62
     7
370
    15
100
AcDbLine
 10
3.7231873966
 20
7.4055718269
 30
0.0
 11
3.7253119854
 21
7.4105371512
 31
0.0
  0
LINE
  5
13F
330
1F
100
AcDbEntity
  8
0
  6
Continuous
 62
     7
370
    15
100
AcDbLine
 10
3.7209828754
 20
7.366406101
 30
0.0
 11
3.7231873966
 21
7.4055718269
 31
0.0
  0
LINE
  5
140
330
1F
100
AcDbEntity
  8
0
  6
Continuous
 62
     7
370
    15
100
AcDbLine
 10
3.7253119854
 20
7.3563736303
 30
0.0
 11
3.7209828754
 21
7.366406101
 31
0.0
  0
LINE
  5
141
330
1F
100
AcDbEntity
  8
0
  6
Continuous
 62
     7
370
    15
100
AcDbLine
 10
3.7003119875
 20
6.7218435404
 30
0.0
 11
3.7003119875
 21
7.7629685333
 31
0.0
  0
ARC
  5
142
330
1F
100
AcDbEntity
  8
0
  6
Continuous
 62
     7
370
    15
100
AcDbCircle
 10
3.7795323479
 20
7.3823795454
 30
0.0
 40
0.0609313996431733
100
AcDbArc
 50
136.2053891754
 51
157.6273259768
  0
LINE
  5
143
330
1F
100
AcDbEntity
  8
0
  6
Continuous
 62
     7
370
    15
100
AcDbLine
 10
4.1235619631
 20
7.7535282223
 30
0.0
 11
4.1235619631
 21
7.3249408609
 31
0.0
  0
LINE
  5
144
330
1F
100
AcDbEntity
  8
0
  6
Continuous
 62
     7
370
    15
100
AcDbLine
 10
4.1235619631
 20
7.2936060087
 30
0.0
 11
4.1235619631
 21
6.731283888
 31
0.0
  0
SPLINE
  5
145
330
1F
100
AcDbEntity
  8
0
  6
Continuous
 62
     7
370
    15
100
AcDbSpline
210
0.0
220
0.0
230
1.0
 70
     8
 71
     3
 72
    19
 73
    15
 74
     0
 42
0.00000001
 43
0.00000001
 12
1.0
 22
0.0
 32
0.0
 13
1.0
 23
0.0
 33
0.0
 40
0.0
 40
0.0
 40
0.0
 40
0.0
 40
0.0806198791921757
 40
0.1611473701818133
 40
0.2447508801195198
 40
0.3392604025722397
 40
0.4244975329198784
 40
0.4945385063752253
 40
0.5647036335949827
 40
0.6338244539329227
 40
0.7162137460755709
 40
0.8149526172690087
 40
0.9139574246730892
 40
1.0
 40
1.0
 40
1.0
 40
1.0
 10
4.123561963095935
 20
7.234889968043698
 30
0.0
 10
4.12359620110859
 20
7.234740590067214
 30
0.0
 10
4.123664637898065
 20
7.234442005297367
 30
0.0
 10
4.124247438449382
 20
7.234933131727812
 30
0.0
 10
4.125128369852838
 20
7.236072999678987
 30
0.0
 10
4.126151795526825
 20
7.237842412857245
 30
0.0
 10
4.126954909342369
 20
7.239999649771673
 30
0.0
 10
4.127262995683528
 20
7.242236405186675
 30
0.0
 10
4.127051160278248
 20
7.244337026744937
 30
0.0
 10
4.126423666512748
 20
7.246326482966813
 30
0.0
 10
4.125484628480219
 20
7.248189281958258
 30
0.0
 10
4.124447665230632
 20
7.249670910976082
 30
0.0
 10
4.123686392365844
 20
7.250405888332059
 30
0.0
 10
4.123601456314001
 20
7.250075669887805
 30
0.0
 10
4.123561963095935
 20
7.249922126265924
 30
0.0
  0
LINE
  5
146
330
1F
100
AcDbEntity
  8
0
  6
Continuous
 62
     7
370
    15
100
AcDbLine
 10
5.2087494953
 20
7.1284384526
 30
0.0
 11
5.2087494953
 21
7.7879685311
 31
0.0
  0
LINE
  5
147
330
1F
100
AcDbEntity
  8
0
  6
Continuous
 62
     7
370
    15
100
AcDbLine
 10
5.2087494953
 20
6.6968435426
 30
0.0
 11
5.2087494953
 21
7.0308292377
 31
0.0
  0
SPLINE
  5
148
330
1F
100
AcDbEntity
  8
0
  6
Continuous
 62
     7
370
    15
100
AcDbSpline
210
0.0
220
0.0
230
1.0
 70
     8
 71
     3
 72
    18
 73
    14
 74
     0
 42
0.00000001
 43
0.00000001
 12
1.0
 22
0.0
 32
0.0
 13
1.0
 23
0.0
 33
0.0
 40
0.0
 40
0.0
 40
0.0
 40
0.0
 40
0.0973888534070842
 40
0.1947798112553453
 40
0.2921593822231779
 40
0.3895385371203561
 40
0.487065215138486
 40
0.5845904620448786
 40
0.6819633874127626
 40
0.7793370864727909
 40
0.876611776858387
 40
0.9738877684993785
 40
0.9999999999999999
 40
0.9999999999999999
 40
0.9999999999999999
 40
0.9999999999999999
 10
5.208749495250294
 20
7.128438452572356
 30
0.0
 10
5.207020207913071
 20
7.131434528244125
 30
0.0
 10
5.203561595871069
 20
7.137426744328803
 30
0.0
 10
5.196535319514977
 20
7.145224955552858
 30
0.0
 10
5.188364391562524
 20
7.151813738529801
 30
0.0
 10
5.179173676638465
 20
7.156986209695801
 30
0.0
 10
5.169224231029341
 20
7.160539142530673
 30
0.0
 10
5.158814907294979
 20
7.162426810775304
 30
0.0
 10
5.148245015444044
 20
7.162510926984225
 30
0.0
 10
5.137790733169973
 20
7.160903081789465
 30
0.0
 10
5.127860257551638
 20
7.157445752837313
 30
0.0
 10
5.120644088137119
 20
7.15395118074032
 30
0.0
 10
5.117186367210114
 20
7.151195664138849
 30
0.0
 10
5.116454621448552
 20
7.150612523498929
 30
0.0
  0
SPLINE
  5
149
330
1F
100
AcDbEntity
  8
0
  6
Continuous
 62
     7
370
    15
100
AcDbSpline
210
0.0
220
0.0
230
1.0
 70
    11
 71
     3
 72
    26
 73
    22
 74
     0
 42
0.00000001
 43
0.00000001
 12
1.0
 22
0.0
 32
0.0
 13
1.0
 23
0.0
 33
0.0
 40
0.0
 40
0.0
 40
0.0
 40
0.0
 40
0.0536126481100144
 40
0.107222921895744
 40
0.1609027986602337
 40
0.2146286801762655
 40
0.268278575205423
 40
0.3218495899175482
 40
0.3754611967021041
 40
0.4291702101008603
 40
0.4828811281571351
 40
0.5364954069336219
 40
0.5900653789545396
 40
0.6437122417714832
 40
0.6974374104882792
 40
0.7511202617767543
 40
0.8047062895486452
 40
0.8582919492041998
 40
0.9119739736678691
 40
0.9656994093059864
 40
0.9999999999999999
 40
0.9999999999999999
 40
0.9999999999999999
 40
0.9999999999999999
 10
5.152874467390051
 20
7.277562295297666
 30
0.0
 10
5.156823135181006
 20
7.277174417398537
 30
0.0
 10
5.16472029588967
 20
7.27639867877809
 30
0.0
 10
5.175233740598427
 20
7.270352530366799
 30
0.0
 10
5.183236944281845
 20
7.261442025902068
 30
0.0
 10
5.187822266037393
 20
7.250303508128694
 30
0.0
 10
5.18846621930755
 20
7.238299626281085
 30
0.0
 10
5.18510635342023
 20
7.226763954639571
 30
0.0
 10
5.178124707574366
 20
7.216987709498569
 30
0.0
 10
5.168293379637228
 20
7.210063464902297
 30
0.0
 10
5.156718762720616
 20
7.206783579970509
 30
0.0
 10
5.144719976043042
 20
7.207519077353753
 30
0.0
 10
5.133647286246839
 20
7.21217528028167
 30
0.0
 10
5.124731425501503
 20
7.220232050852996
 30
0.0
 10
5.118977886490007
 20
7.230794902560683
 30
0.0
 10
5.117046929106662
 20
7.242668396753524
 30
0.0
 10
5.119149971508107
 20
7.254496590555737
 30
0.0
 10
5.125043043479623
 20
7.264976844702892
 30
0.0
 10
5.134066830595809
 20
7.27286670972511
 30
0.0
 10
5.143894332205083
 20
7.276987658342869
 30
0.0
 10
5.150356422267535
 20
7.277401166121831
 30
0.0
 10
5.152874467390051
 20
7.277562295297666
 30
0.0
  0
LINE
  5
14A
330
1F
100
AcDbEntity
  8
0
  6
Continuous
 62
     7
370
    15
100
AcDbLine
 10
5.0001244753
 20
6.6968435426
 30
0.0
 11
5.0001244753
 21
7.0806204741
 31
0.0
  0
LINE
  5
14B
330
1F
100
AcDbEntity
  8
0
  6
Continuous
 62
     7
370
    15
100
AcDbLine
 10
5.0001244753
 20
7.1502683925
 30
0.0
 11
5.0001244753
 21
7.7879685311
 31
0.0
  0
LINE
  5
14C
330
1F
100
AcDbEntity
  8
0
  6
Continuous
 62
     7
370
    15
100
AcDbLine
 10
4.8260606894
 20
7.7721914867
 30
0.0
 11
4.8260606894
 21
7.20164382
 31
0.0
  0
LINE
  5
14D
330
1F
100
AcDbEntity
  8
0
  6
Continuous
 62
     7
370
    15
100
AcDbLine
 10
4.8260606894
 20
7.1693693968
 30
0.0
 11
4.8260606894
 21
6.712620587
 31
0.0
  0
LINE
  5
14E
330
1F
100
AcDbEntity
  8
0
  6
Continuous
 62
     7
370
    15
100
AcDbLine
 10
5.2087494953
 20
7.1284384526
 30
0.0
 11
5.2090785381
 21
7.1276758955
 31
0.0
  0
LINE
  5
14F
330
1F
100
AcDbEntity
  8
0
  6
Continuous
 62
     7
370
    15
100
AcDbLine
 10
5.2337494931
 20
7.7629685333
 30
0.0
 11
5.2337494931
 21
7.0970107706
 31
0.0
  0
LINE
  5
150
330
1F
100
AcDbEntity
  8
0
  6
Continuous
 62
     7
370
    15
100
AcDbLine
 10
5.2337494931
 20
7.0410268899
 30
0.0
 11
5.2337494931
 21
6.7218435404
 31
0.0
  0
LINE
  5
151
330
1F
100
AcDbEntity
  8
0
  6
Continuous
 62
     7
370
    15
100
AcDbLine
 10
4.8104994625
 20
6.731283888
 30
0.0
 11
4.8104994625
 21
6.7922995965
 31
0.0
  0
LINE
  5
152
330
1F
100
AcDbEntity
  8
0
  6
Continuous
 62
     7
370
    15
100
AcDbLine
 10
4.8104994625
 20
6.837505481
 30
0.0
 11
4.8104994625
 21
7.1734052112
 31
0.0
  0
LINE
  5
153
330
1F
100
AcDbEntity
  8
0
  6
Continuous
 62
     7
370
    15
100
AcDbLine
 10
4.8104994625
 20
7.2058063682
 30
0.0
 11
4.8104994625
 21
7.7535282223
 31
0.0
  0
SPLINE
  5
154
330
1F
100
AcDbEntity
  8
0
  6
Continuous
 62
     7
370
    15
100
AcDbSpline
210
0.0
220
0.0
230
1.0
 70
     8
 71
     3
 72
    19
 73
    15
 74
     0
 42
0.00000001
 43
0.00000001
 12
1.0
 22
0.0
 32
0.0
 13
1.0
 23
0.0
 33
0.0
 40
0.0
 40
0.0
 40
0.0
 40
0.0
 40
0.0806198015649734
 40
0.1611472800409904
 40
0.2447507769870766
 40
0.3392604097421519
 40
0.4244973424698107
 40
0.4945384575181297
 40
0.5647035738345327
 40
0.6338243834313991
 40
0.7162137199025711
 40
0.814952535334538
 40
0.9139574791641728
 40
0.9999999999999999
 40
0.9999999999999999
 40
0.9999999999999999
 40
0.9999999999999999
 10
4.810499462535323
 20
7.249922126265924
 30
0.0
 10
4.810465232382606
 20
7.250071502205926
 30
0.0
 10
4.810396811276394
 20
7.250370083025622
 30
0.0
 10
4.809814002239703
 20
7.249878959026742
 30
0.0
 10
4.808933082010133
 20
7.248739086414504
 30
0.0
 10
4.807909615707919
 20
7.246969688542892
 30
0.0
 10
4.807106547980911
 20
7.244812438557589
 30
0.0
 10
4.806798422085124
 20
7.242575689587269
 30
0.0
 10
4.807010267405641
 20
7.240475064849608
 30
0.0
 10
4.807637758490799
 20
7.238485609075687
 30
0.0
 10
4.808576798379473
 20
7.236622807381559
 30
0.0
 10
4.809613753236054
 20
7.23514118086277
 30
0.0
 10
4.810375062040747
 20
7.234406203015464
 30
0.0
 10
4.810459978479404
 20
7.234736423594446
 30
0.0
 10
4.810499462535323
 20
7.234889968043698
 30
0.0
  0
LINE
  5
155
330
1F
100
AcDbEntity
  8
0
  6
Continuous
 62
     7
370
    15
100
AcDbLine
 10
4.4670307174
 20
7.5465935528
 30
0.0
 11
4.5060932141
 21
7.5465935528
 31
0.0
  0
LINE
  5
156
330
1F
100
AcDbEntity
  8
0
  6
Continuous
 62
     7
370
    15
100
AcDbLine
 10
4.4279682162
 20
7.5465935528
 30
0.0
 11
4.4670307174
 21
7.5465935528
 31
0.0
  0
LINE
  5
157
330
1F
100
AcDbEntity
  8
0
  6
Continuous
 62
     7
370
    15
100
AcDbLine
 10
4.4670307174
 20
7.5453435639
 30
0.0
 11
4.4292182165
 21
7.5453435639
 31
0.0
  0
LINE
  5
158
330
1F
100
AcDbEntity
  8
0
  6
Continuous
 62
     7
370
    15
100
AcDbLine
 10
4.504843216
 20
7.5453435639
 30
0.0
 11
4.4670307174
 21
7.5453435639
 31
0.0
  0
LINE
  5
159
330
1F
100
AcDbEntity
  8
0
  6
Continuous
 62
     7
370
    15
100
AcDbLine
 10
4.1391869709
 20
7.7502185439
 30
0.0
 11
4.794874473
 21
7.7502185439
 31
0.0
  0
LINE
  5
15A
330
1F
100
AcDbEntity
  8
0
  6
Continuous
 62
     7
370
    15
100
AcDbLine
 10
4.794874473
 20
7.7189685282
 30
0.0
 11
4.1391869709
 21
7.7189685282
 31
0.0
  0
LINE
  5
15B
330
1F
100
AcDbEntity
  8
0
  6
Continuous
 62
     7
370
    15
100
AcDbLine
 10
4.1391869709
 20
7.7189685282
 30
0.0
 11
4.1391869709
 21
7.7502185439
 31
0.0
  0
LINE
  5
15C
330
1F
100
AcDbEntity
  8
0
  6
Continuous
 62
     7
370
    15
100
AcDbLine
 10
4.794874473
 20
7.7502185439
 30
0.0
 11
4.794874473
 21
7.7189685282
 31
0.0
  0
LWPOLYLINE
  5
15D
330
1F
100
AcDbEntity
  8
0
  6
Continuous
 62
     7
370
    15
100
AcDbPolyline
 90
        3
 70
   128
 43
0.0
 10
4.3715932166
 20
6.9035310449
 10
4.3724821255
 20
6.8905356483
 10
4.3726557172
 20
6.8893297689
  0
ARC
  5
15E
330
1F
100
AcDbEntity
  8
0
  6
Continuous
 62
     7
370
    15
100
AcDbCircle
 10
4.4670307162
 20
6.9035310457
 30
0.0
 40
0.0954375000000005
100
AcDbArc
 50
231.4425117431
 51
248.5574882569
  0
ARC
  5
15F
330
1F
100
AcDbEntity
  8
0
  6
Continuous
 62
     7
370
    15
100
AcDbCircle
 10
4.4670307162
 20
6.9035310457
 30
0.0
 40
0.0954374999999998
100
AcDbArc
 50
291.4425117431
 51
308.5574882569
  0
ARC
  5
160
330
1F
100
AcDbEntity
  8
0
  6
Continuous
 62
     7
370
    15
100
AcDbCircle
 10
4.4670307162
 20
6.9035310457
 30
0.0
 40
0.0954375000000004
100
AcDbArc
 50
351.4425117431
 51
8.5574882569
  0
ARC
  5
161
330
1F
100
AcDbEntity
  8
0
  6
Continuous
 62
     7
370
    15
100
AcDbCircle
 10
4.4670307162
 20
6.9035310457
 30
0.0
 40
0.0954374999999998
100
AcDbArc
 50
51.442511743
 51
68.5574882569
  0
ARC
  5
162
330
1F
100
AcDbEntity
  8
0
  6
Continuous
 62
     7
370
    15
100
AcDbCircle
 10
4.4670307162
 20
6.9035310457
 30
0.0
 40
0.0954374999999998
100
AcDbArc
 50
111.4425117431
 51
128.557488257
  0
LWPOLYLINE
  5
163
330
1F
100
AcDbEntity
  8
0
  6
Continuous
 62
     7
370
    15
100
AcDbPolyline
 90
        3
 70
   128
 43
0.0
 10
4.3726557172
 20
6.9177323025
 10
4.3724821255
 20
6.9165264414
 10
4.3715932166
 20
6.9035310449
  0
LINE
  5
164
330
1F
100
AcDbEntity
  8
0
  6
Continuous
 62
     7
370
    15
100
AcDbLine
 10
4.1391869709
 20
6.7345935298
 30
0.0
 11
4.1391869709
 21
7.2920005498
 31
0.0
  0
LINE
  5
165
330
1F
100
AcDbEntity
  8
0
  6
Continuous
 62
     7
370
    15
100
AcDbLine
 10
4.1391869709
 20
7.3233727648
 30
0.0
 11
4.1391869709
 21
7.7189685282
 31
0.0
  0
LINE
  5
166
330
1F
100
AcDbEntity
  8
0
  6
Continuous
 62
     7
370
    15
100
AcDbLine
 10
4.794874473
 20
6.8886083606
 30
0.0
 11
4.6701557138
 21
6.7345935298
 31
0.0
  0
LWPOLYLINE
  5
167
330
1F
100
AcDbEntity
  8
0
  6
Continuous
 62
     7
370
    15
100
AcDbPolyline
 90
        3
 70
   128
 43
0.0
 10
4.3715932166
 20
7.5812810288
 10
4.3724821255
 20
7.594276462
 10
4.3726557172
 20
7.5954823047
  0
ARC
  5
168
330
1F
100
AcDbEntity
  8
0
  6
Continuous
 62
     7
370
    15
100
AcDbCircle
 10
4.4670307162
 20
7.5812810457
 30
0.0
 40
0.0954375000000006
100
AcDbArc
 50
111.4425117431
 51
128.5574882569
  0
ARC
  5
169
330
1F
100
AcDbEntity
  8
0
  6
Continuous
 62
     7
370
    15
100
AcDbCircle
 10
4.4670307162
 20
7.5812810457
 30
0.0
 40
0.0954375000000003
100
AcDbArc
 50
51.442511743
 51
68.557488257
  0
ARC
  5
16A
330
1F
100
AcDbEntity
  8
0
  6
Continuous
 62
     7
370
    15
100
AcDbCircle
 10
4.4670307162
 20
7.5812810457
 30
0.0
 40
0.0954375000000002
100
AcDbArc
 50
351.4425117431
 51
8.5574882569
  0
ARC
  5
16B
330
1F
100
AcDbEntity
  8
0
  6
Continuous
 62
     7
370
    15
100
AcDbCircle
 10
4.4670307162
 20
7.5812810457
 30
0.0
 40
0.0954375000000001
100
AcDbArc
 50
291.4425117431
 51
308.5574882569
  0
ARC
  5
16C
330
1F
100
AcDbEntity
  8
0
  6
Continuous
 62
     7
370
    15
100
AcDbCircle
 10
4.4670307162
 20
7.5812810457
 30
0.0
 40
0.0954374999999997
100
AcDbArc
 50
231.4425117431
 51
248.5574882569
  0
LWPOLYLINE
  5
16D
330
1F
100
AcDbEntity
  8
0
  6
Continuous
 62
     7
370
    15
100
AcDbPolyline
 90
        3
 70
   128
 43
0.0
 10
4.3726557172
 20
7.5670797895
 10
4.3724821255
 20
7.5682856323
 10
4.3715932166
 20
7.5812810288
  0
LINE
  5
16E
330
1F
100
AcDbEntity
  8
0
  6
Continuous
 62
     7
370
    15
100
AcDbLine
 10
4.1391869709
 20
6.7345935298
 30
0.0
 11
4.2367807218
 21
6.7345935298
 31
0.0
  0
LINE
  5
16F
330
1F
100
AcDbEntity
  8
0
  6
Continuous
 62
     7
370
    15
100
AcDbLine
 10
4.794874473
 20
6.8886083606
 30
0.0
 11
4.794874473
 21
7.1776505274
 31
0.0
  0
LINE
  5
170
330
1F
100
AcDbEntity
  8
0
  6
Continuous
 62
     7
370
    15
100
AcDbLine
 10
4.794874473
 20
7.2099749516
 30
0.0
 11
4.794874473
 21
7.7189685282
 31
0.0
  0
LINE
  5
171
330
1F
100
AcDbEntity
  8
0
  6
Continuous
 62
     7
370
    15
100
AcDbLine
 10
4.6972807221
 20
6.7345935298
 30
0.0
 11
4.7048257916
 21
6.7345935298
 31
0.0
  0
LINE
  5
172
330
1F
100
AcDbEntity
  8
0
  6
Continuous
 62
     7
370
    15
100
AcDbLine
 10
4.7620350857
 20
6.7345935298
 30
0.0
 11
4.794874473
 21
6.7345935298
 31
0.0
  0
LINE
  5
173
330
1F
100
AcDbEntity
  8
0
  6
Continuous
 62
     7
370
    15
100
AcDbLine
 10
4.794874473
 20
6.7345935298
 30
0.0
 11
4.794874473
 21
6.7736950714
 31
0.0
  0
LINE
  5
174
330
1F
100
AcDbEntity
  8
0
  6
Continuous
 62
     7
370
    15
100
AcDbLine
 10
4.794874473
 20
6.8042842881
 30
0.0
 11
4.794874473
 21
6.8277112308
 31
0.0
  0
LINE
  5
175
330
1F
100
AcDbEntity
  8
0
  6
Continuous
 62
     7
370
    15
100
AcDbLine
 10
4.794874473
 20
6.8408312559
 30
0.0
 11
4.794874473
 21
6.8886083606
 31
0.0
  0
LINE
  5
176
330
1F
100
AcDbEntity
  8
0
  6
Continuous
 62
     7
370
    15
100
AcDbLine
 10
4.4129041285
 20
6.8983393982
 30
0.0
 11
4.4129041285
 21
6.9087226916
 31
0.0
  0
LINE
  5
177
330
1F
100
AcDbEntity
  8
0
  6
Continuous
 62
     7
370
    15
100
AcDbLine
 10
4.5211573017
 20
6.9087226916
 30
0.0
 11
4.5211573017
 21
6.8983393982
 31
0.0
  0
LWPOLYLINE
  5
178
330
1F
100
AcDbEntity
  8
0
  6
Continuous
 62
     8
370
    15
100
AcDbPolyline
 90
        4
 70
   128
 43
0.0
 10
4.1268377619
 20
7.2967698105
 10
4.1273357078
 20
7.2939983192
 10
4.1280820309
 20
7.2929821967
 10
4.1280871458
 20
7.2929817568
  0
LWPOLYLINE
  5
179
330
1F
100
AcDbEntity
  8
0
  6
Continuous
 62
     8
370
    15
100
AcDbPolyline
 90
        8
 70
   128
 43
0.0
 10
4.1307041073
 20
7.3241219845
 10
4.1298034193
 20
7.3232598053
 10
4.1288494737
 20
7.3206239974
 10
4.1279613256
 20
7.316532118
 10
4.1272461139
 20
7.3114777039
 10
4.1267900958
 20
7.3060704047
 10
4.1266482708
 20
7.3009624029
 10
4.1268377619
 20
7.2967698105
  0
LWPOLYLINE
  5
17A
330
1F
100
AcDbEntity
  8
0
  6
Continuous
 62
     8
370
    15
100
AcDbPolyline
 90
        3
 70
   128
 43
0.0
 10
4.0932014888
 20
7.3026192679
 10
4.092261403
 20
7.3000978495
 10
4.0917492489
 20
7.2992995796
  0
ARC
  5
17B
330
1F
100
AcDbEntity
  8
0
  6
Continuous
 62
     8
370
    15
100
AcDbCircle
 10
3.9821045797
 20
7.3440007295
 30
0.0
 40
0.1185535683615061
100
AcDbArc
 50
339.5706055275
 51
352.9758847142
  0
LWPOLYLINE
  5
17C
330
1F
100
AcDbEntity
  8
0
  6
Continuous
 62
     8
370
    15
100
AcDbPolyline
 90
        9
 70
   128
 43
0.0
 10
3.7468831029
 20
7.3894993259
 10
3.7472978714
 20
7.3901417552
 10
3.7486025297
 20
7.3907869161
 10
3.7507211785
 20
7.3911799782
 10
3.7535723456
 20
7.3913057984
 10
3.7570466188
 20
7.3911595918
 10
3.761010313
 20
7.3907469315
 10
3.76531119
 20
7.3900837125
 10
3.7697839583
 20
7.3891953995
  0
ARC
  5
17D
330
1F
100
AcDbEntity
  8
0
  6
Continuous
 62
     8
370
    15
100
AcDbCircle
 10
3.7693365308
 20
7.3843846453
 30
0.0
 40
0.0230530966309281
100
AcDbArc
 50
180.3930086349
 51
258.2058762781
  0
LWPOLYLINE
  5
17E
330
1F
100
AcDbEntity
  8
0
  6
Continuous
 62
     8
370
    15
100
AcDbPolyline
 90
        9
 70
   128
 43
0.0
 10
3.7545673208
 20
7.4228733621
 10
3.7549820893
 20
7.4235157913
 10
3.7562867476
 20
7.4241609522
 10
3.7584053964
 20
7.424553996
 10
3.7612565635
 20
7.4246798345
 10
3.7647308367
 20
7.4245336279
 10
3.7686945309
 20
7.4241209677
 10
3.7729954079
 20
7.4234577487
 10
3.7774681762
 20
7.4225694172
  0
ARC
  5
17F
330
1F
100
AcDbEntity
  8
0
  6
Continuous
 62
     8
370
    15
100
AcDbCircle
 10
3.8828620285
 20
7.4026821907
 30
0.0
 40
0.1072537453266833
100
AcDbArc
 50
159.3238435435
 51
169.3142508175
  0
LINE
  5
180
330
1F
100
AcDbEntity
  8
0
  6
Continuous
 62
     8
370
    15
100
AcDbLine
 10
3.8626869784
 20
7.7879685311
 30
0.0
 11
3.8626869784
 21
7.8111904362
 31
0.0
  0
LINE
  5
181
330
1F
100
AcDbEntity
  8
0
  6
Continuous
 62
     8
370
    15
100
AcDbLine
 10
3.9119369661
 20
7.7879685311
 30
0.0
 11
3.9119369661
 21
7.8111904362
 31
0.0
  0
LINE
  5
182
330
1F
100
AcDbEntity
  8
0
  6
Continuous
 62
     8
370
    15
100
AcDbLine
 10
3.8626869784
 20
7.8111904362
 30
0.0
 11
3.8626869784
 21
7.8229404638
 31
0.0
  0
LINE
  5
183
330
1F
100
AcDbEntity
  8
0
  6
Continuous
 62
     8
370
    15
100
AcDbLine
 10
3.9119369661
 20
7.8111904362
 30
0.0
 11
3.9119369661
 21
7.8229404638
 31
0.0
  0
LINE
  5
184
330
1F
100
AcDbEntity
  8
0
  6
Continuous
 62
     8
370
    15
100
AcDbLine
 10
5.0221244778
 20
6.6968435426
 30
0.0
 11
5.0221244778
 21
6.6736216742
 31
0.0
  0
LINE
  5
185
330
1F
100
AcDbEntity
  8
0
  6
Continuous
 62
     8
370
    15
100
AcDbLine
 10
5.0713745022
 20
6.6968435426
 30
0.0
 11
5.0713745022
 21
6.6736216742
 31
0.0
  0
LINE
  5
186
330
1F
100
AcDbEntity
  8
0
  6
Continuous
 62
     8
370
    15
100
AcDbLine
 10
5.0713745022
 20
6.6736216742
 30
0.0
 11
5.0713745022
 21
6.6618716466
 31
0.0
  0
LINE
  5
187
330
1F
100
AcDbEntity
  8
0
  6
Continuous
 62
     8
370
    15
100
AcDbLine
 10
5.0221244778
 20
6.6736216742
 30
0.0
 11
5.0221244778
 21
6.6618716466
 31
0.0
  0
ENDSEC
  0
SECTION
  2
OBJECTS
  0
DICTIONARY
  5
C
330
0
100
AcDbDictionary
281
     1
  3
ACAD_GROUP
350
D
  3
ACAD_LAYOUT
350
1A
  3
ACAD_MLINESTYLE
350
17
  3
ACAD_PLOTSETTINGS
350
19
  3
ACAD_PLOTSTYLENAME
350
E
  0
DICTIONARY
  5
D
102
{ACAD_REACTORS
330
C
102
}
330
C
100
AcDbDictionary
281
     1
  0
DICTIONARY
  5
1A
102
{ACAD_REACTORS
330
C
102
}
330
C
100
AcDbDictionary
281
     1
  3
Layout1
350
1E
  3
Layout2
350
26
  3
Model
350
22
  0
DICTIONARY
  5
17
102
{ACAD_REACTORS
330
C
102
}
330
C
100
AcDbDictionary
281
     1
  3
Standard
350
18
  0
DICTIONARY
  5
19
102
{ACAD_REACTORS
330
C
102
}
330
C
100
AcDbDictionary
281
     1
  0
ACDBDICTIONARYWDFLT
  5
E
102
{ACAD_REACTORS
330
C
102
}
330
C
100
AcDbDictionary
281
     1
  3
Normal
350
F
100
AcDbDictionaryWithDefault
340
F
  0
LAYOUT
  5
1E
102
{ACAD_REACTORS
330
1A
102
}
330
1A
100
AcDbPlotSettings
  1

  2
none_device
  4

  6

 40
0.0
 41
0.0
 42
0.0
 43
0.0
 44
0.0
 45
0.0
 46
0.0
 47
0.0
 48
0.0
 49
0.0
140
0.0
141
0.0
142
1.0
143
1.0
 70
   688
 72
     0
 73
     0
 74
     5
  7

 75
    16
147
1.0
148
0.0
149
0.0
100
AcDbLayout
  1
Layout1
 70
     1
 71
     1
 10
0.0
 20
0.0
 11
12.0
 21
9.0
 12
0.0
 22
0.0
 32
0.0
 14
1.0000000000E+20
 24
1.0000000000E+20
 34
1.0000000000E+20
 15
-1.0000000000E+20
 25
-1.0000000000E+20
 35
-1.0000000000E+20
146
0.0
 13
0.0
 23
0.0
 33
0.0
 16
1.0
 26
0.0
 36
0.0
 17
0.0
 27
1.0
 37
0.0
 76
     0
330
1B
  0
LAYOUT
  5
26
102
{ACAD_REACTORS
330
1A
102
}
330
1A
100
AcDbPlotSettings
  1

  2
none_device
  4

  6

 40
0.0
 41
0.0
 42
0.0
 43
0.0
 44
0.0
 45
0.0
 46
0.0
 47
0.0
 48
0.0
 49
0.0
140
0.0
141
0.0
142
1.0
143
1.0
 70
   688
 72
     0
 73
     0
 74
     5
  7

 75
    16
147
1.0
148
0.0
149
0.0
100
AcDbLayout
  1
Layout2
 70
     1
 71
     2
 10
0.0
 20
0.0
 11
0.0
 21
0.0
 12
0.0
 22
0.0
 32
0.0
 14
0.0
 24
0.0
 34
0.0
 15
0.0
 25
0.0
 35
0.0
146
0.0
 13
0.0
 23
0.0
 33
0.0
 16
1.0
 26
0.0
 36
0.0
 17
0.0
 27
1.0
 37
0.0
 76
     0
330
23
  0
LAYOUT
  5
22
102
{ACAD_REACTORS
330
1A
102
}
330
1A
100
AcDbPlotSettings
  1

  2
none_device
  4

  6

 40
0.0
 41
0.0
 42
0.0
 43
0.0
 44
0.0
 45
0.0
 46
0.0
 47
0.0
 48
0.0
 49
0.0
140
0.0
141
0.0
142
1.0
143
1.0
 70
  1712
 72
     0
 73
     0
 74
     0
  7

 75
     0
147
1.0
148
0.0
149
0.0
100
AcDbLayout
  1
Model
 70
     1
 71
     0
 10
0.0
 20
0.0
 11
8.5
 21
11.0
 12
0.0
 22
0.0
 32
0.0
 14
0.0
 24
0.0
 34
0.0
 15
8.5
 25
11.0
 35
0.0
146
0.0
 13
0.0
 23
0.0
 33
0.0
 16
1.0
 26
0.0
 36
0.0
 17
0.0
 27
1.0
 37
0.0
 76
     0
330
1F
331
29
  0
MLINESTYLE
  5
18
102
{ACAD_REACTORS
330
17
102
}
330
17
100
AcDbMlineStyle
  2
Standard
 70
     0
  3

 62
   256
 51
90.0
 52
90.0
 71
     2
 49
0.5
 62
   256
  6
BYLAYER
 49
-0.5
 62
   256
  6
BYLAYER
  0
ACDBPLACEHOLDER
  5
F
102
{ACAD_REACTORS
330
E
102
}
330
E
  0
ENDSEC
  0
EOF
