  0
SECTION
  2
HEADER
  9
$ACADVER
  1
AC1015
  9
$ACADMAINTVER
 70
     6
  9
$DWGCODEPAGE
  3
ANSI_1252
  9
$INSBASE
 10
0.0
 20
0.0
 30
0.0
  9
$EXTMIN
 10
0.0
 20
0.0
 30
0.0
  9
$EXTMAX
 10
8.5
 20
11.0
 30
0.0
  9
$LIMMIN
 10
0.0
 20
0.0
  9
$LIMMAX
 10
8.5
 20
11.0
  9
$ORTHOMODE
 70
     0
  9
$REGENMODE
 70
     1
  9
$FILLMODE
 70
     1
  9
$QTEXTMODE
 70
     0
  9
$MIRRTEXT
 70
     1
  9
$LTSCALE
 40
1.0
  9
$ATTMODE
 70
     1
  9
$TEXTSIZE
 40
0.125
  9
$TRACEWID
 40
0.05
  9
$TEXTSTYLE
  7
Standard
  9
$CLAYER
  8
0
  9
$CELTYPE
  6
ByLayer
  9
$CECOLOR
 62
   256
  9
$CELTSCALE
 40
1.0
  9
$DISPSILH
 70
     0
  9
$DIMSCALE
 40
1.0
  9
$DIMASZ
 40
0.13
  9
$DIMEXO
 40
0.05
  9
$DIMDLI
 40
0.38
  9
$DIMRND
 40
0.0
  9
$DIMDLE
 40
0.0
  9
$DIMEXE
 40
0.125
  9
$DIMTP
 40
0.0
  9
$DIMTM
 40
0.0
  9
$DIMTXT
 40
0.1527777778
  9
$DIMCEN
 40
0.09
  9
$DIMTSZ
 40
0.0
  9
$DIMTOL
 70
     0
  9
$DIMLIM
 70
     0
  9
$DIMTIH
 70
     1
  9
$DIMTOH
 70
     1
  9
$DIMSE1
 70
     0
  9
$DIMSE2
 70
     0
  9
$DIMTAD
 70
     1
  9
$DIMZIN
 70
     0
  9
$DIMBLK
  1

  9
$DIMASO
 70
     1
  9
$DIMSHO
 70
     1
  9
$DIMPOST
  1

  9
$DIMAPOST
  1

  9
$DIMALT
 70
     0
  9
$DIMALTD
 70
     2
  9
$DIMALTF
 40
25.4
  9
$DIMLFAC
 40
4.0
  9
$DIMTOFL
 70
     0
  9
$DIMTVP
 40
0.0
  9
$DIMTIX
 70
     0
  9
$DIMSOXD
 70
     0
  9
$DIMSAH
 70
     0
  9
$DIMBLK1
  1

  9
$DIMBLK2
  1

  9
$DIMSTYLE
  2
Standard
  9
$DIMCLRD
 70
     0
  9
$DIMCLRE
 70
     0
  9
$DIMCLRT
 70
     0
  9
$DIMTFAC
 40
1.0
  9
$DIMGAP
 40
0.06
  9
$DIMJUST
 70
     0
  9
$DIMSD1
 70
     0
  9
$DIMSD2
 70
     0
  9
$DIMTOLJ
 70
     1
  9
$DIMTZIN
 70
     0
  9
$DIMALTZ
 70
     0
  9
$DIMALTTZ
 70
     0
  9
$DIMUPT
 70
     0
  9
$DIMDEC
 70
     2
  9
$DIMTDEC
 70
     2
  9
$DIMALTU
 70
     2
  9
$DIMALTTD
 70
     2
  9
$DIMTXSTY
  7
Standard
  9
$DIMAUNIT
 70
     0
  9
$DIMADEC
 70
     2
  9
$DIMALTRND
 40
0.0
  9
$DIMAZIN
 70
     0
  9
$DIMDSEP
 70
    46
  9
$DIMATFIT
 70
     3
  9
$DIMFRAC
 70
     0
  9
$DIMLDRBLK
  1

  9
$DIMLUNIT
 70
     2
  9
$DIMLWD
 70
    -2
  9
$DIMLWE
 70
    -2
  9
$DIMTMOVE
 70
     0
  9
$LUNITS
 70
     2
  9
$LUPREC
 70
     3
  9
$SKETCHINC
 40
0.1
  9
$FILLETRAD
 40
0.5
  9
$AUNITS
 70
     0
  9
$AUPREC
 70
     2
  9
$MENU
  1
.
  9
$ELEVATION
 40
0.0
  9
$PELEVATION
 40
0.0
  9
$THICKNESS
 40
0.0
  9
$LIMCHECK
 70
     0
  9
$CHAMFERA
 40
0.5
  9
$CHAMFERB
 40
0.5
  9
$CHAMFERC
 40
1.0
  9
$CHAMFERD
 40
0.0
  9
$SKPOLY
 70
     0
  9
$TDCREATE
 40
2456051.494876551
  9
$TDUCREATE
 40
2456051.744876551
  9
$TDUPDATE
 40
2456051.494876829
  9
$TDUUPDATE
 40
2456051.744876829
  9
$TDINDWG
 40
0.0000000116
  9
$TDUSRTIMER
 40
0.0000000116
  9
$USRTIMER
 70
     1
  9
$ANGBASE
 50
0.0
  9
$ANGDIR
 70
     0
  9
$PDMODE
 70
     0
  9
$PDSIZE
 40
-1.0
  9
$PLINEWID
 40
0.0
  9
$SPLFRAME
 70
     0
  9
$SPLINETYPE
 70
     6
  9
$SPLINESEGS
 70
     8
  9
$HANDSEED
  5
187
  9
$SURFTAB1
 70
     6
  9
$SURFTAB2
 70
     6
  9
$SURFTYPE
 70
     6
  9
$SURFU
 70
     6
  9
$SURFV
 70
     6
  9
$UCSBASE
  2

  9
$UCSNAME
  2

  9
$UCSORG
 10
0.0
 20
0.0
 30
0.0
  9
$UCSXDIR
 10
1.0
 20
0.0
 30
0.0
  9
$UCSYDIR
 10
0.0
 20
1.0
 30
0.0
  9
$UCSORTHOREF
  2

  9
$UCSORTHOVIEW
 70
     0
  9
$UCSORGTOP
 10
0.0
 20
0.0
 30
0.0
  9
$UCSORGBOTTOM
 10
0.0
 20
0.0
 30
0.0
  9
$UCSORGLEFT
 10
0.0
 20
0.0
 30
0.0
  9
$UCSORGRIGHT
 10
0.0
 20
0.0
 30
0.0
  9
$UCSORGFRONT
 10
0.0
 20
0.0
 30
0.0
  9
$UCSORGBACK
 10
0.0
 20
0.0
 30
0.0
  9
$PUCSBASE
  2

  9
$PUCSNAME
  2

  9
$PUCSORG
 10
0.0
 20
0.0
 30
0.0
  9
$PUCSXDIR
 10
1.0
 20
0.0
 30
0.0
  9
$PUCSYDIR
 10
0.0
 20
1.0
 30
0.0
  9
$PUCSORTHOREF
  2

  9
$PUCSORTHOVIEW
 70
     0
  9
$PUCSORGTOP
 10
0.0
 20
0.0
 30
0.0
  9
$PUCSORGBOTTOM
 10
0.0
 20
0.0
 30
0.0
  9
$PUCSORGLEFT
 10
0.0
 20
0.0
 30
0.0
  9
$PUCSORGRIGHT
 10
0.0
 20
0.0
 30
0.0
  9
$PUCSORGFRONT
 10
0.0
 20
0.0
 30
0.0
  9
$PUCSORGBACK
 10
0.0
 20
0.0
 30
0.0
  9
$USERI1
 70
     0
  9
$USERI2
 70
     0
  9
$USERI3
 70
     0
  9
$USERI4
 70
     0
  9
$USERI5
 70
     0
  9
$USERR1
 40
0.0
  9
$USERR2
 40
0.0
  9
$USERR3
 40
0.0
  9
$USERR4
 40
0.0
  9
$USERR5
 40
0.0
  9
$WORLDVIEW
 70
     1
  9
$SHADEDGE
 70
     3
  9
$SHADEDIF
 70
    70
  9
$TILEMODE
 70
     1
  9
$MAXACTVP
 70
    64
  9
$PINSBASE
 10
0.0
 20
0.0
 30
0.0
  9
$PLIMCHECK
 70
     0
  9
$PEXTMIN
 10
1.0000000000E+20
 20
1.0000000000E+20
 30
1.0000000000E+20
  9
$PEXTMAX
 10
-1.0000000000E+20
 20
-1.0000000000E+20
 30
-1.0000000000E+20
  9
$PLIMMIN
 10
0.0
 20
0.0
  9
$PLIMMAX
 10
12.0
 20
9.0
  9
$UNITMODE
 70
     0
  9
$VISRETAIN
 70
     1
  9
$PLINEGEN
 70
     0
  9
$PSLTSCALE
 70
     1
  9
$TREEDEPTH
 70
  3020
  9
$CMLSTYLE
  2
Standard
  9
$CMLJUST
 70
     0
  9
$CMLSCALE
 40
1.0
  9
$PROXYGRAPHICS
 70
     1
  9
$MEASUREMENT
 70
     0
  9
$CELWEIGHT
370
    -1
  9
$ENDCAPS
280
     0
  9
$JOINSTYLE
280
     0
  9
$LWDISPLAY
290
     1
  9
$INSUNITS
 70
     1
  9
$HYPERLINKBASE
  1

  9
$STYLESHEET
  1

  9
$XEDIT
290
     1
  9
$CEPSNTYPE
380
     0
  9
$PSTYLEMODE
290
     1
  9
$FINGERPRINTGUID
  2
{4515BA31-7E29-4A15-B7C9-0EFDE3530CB1}
  9
$VERSIONGUID
  2
{FAEB1C32-E019-11D5-929B-00C0DF256EC4}
  9
$EXTNAMES
290
     1
  9
$PSVPSCALE
 40
0.0
  9
$OLESTARTUP
290
     0
  0
ENDSEC
  0
SECTION
  2
CLASSES
  0
CLASS
  1
ACDBDICTIONARYWDFLT
  2
AcDbDictionaryWithDefault
  3
ObjectDBX Classes
 90
        0
280
     0
281
     0
  0
CLASS
  1
VISUALSTYLE
  2
AcDbVisualStyle
  3
ObjectDBX Classes
 90
     4095
280
     0
281
     0
  0
CLASS
  1
MATERIAL
  2
AcDbMaterial
  3
ObjectDBX Classes
 90
     1153
280
     0
281
     0
  0
CLASS
  1
ACDBPLACEHOLDER
  2
AcDbPlaceHolder
  3
ObjectDBX Classes
 90
        0
280
     0
281
     0
  0
CLASS
  1
LAYOUT
  2
AcDbLayout
  3
ObjectDBX Classes
 90
        0
280
     0
281
     0
  0
ENDSEC
  0
SECTION
  2
TABLES
  0
TABLE
  2
VPORT
  5
8
330
0
100
AcDbSymbolTable
 70
     1
  0
VPORT
  5
29
330
8
100
AcDbSymbolTableRecord
100
AcDbViewportTableRecord
  2
*Active
 70
     0
 10
0.0
 20
0.0
 11
1.0
 21
1.0
 12
4.25
 22
5.5
 13
0.0
 23
0.0
 14
0.5
 24
0.5
 15
0.5
 25
0.5
 16
0.0
 26
0.0
 36
1.0
 17
0.0
 27
0.0
 37
0.0
 40
11.0
 41
0.7727272727
 42
50.0
 43
0.0
 44
0.0
 50
0.0
 51
0.0
 71
     0
 72
  2000
 73
     1
 74
     3
 75
     0
 76
     0
 77
     0
 78
     0
281
     0
 65
     1
110
0.0
120
0.0
130
0.0
111
1.0
121
0.0
131
0.0
112
0.0
122
1.0
132
0.0
 79
     0
146
0.0
  0
ENDTAB
  0
TABLE
  2
LTYPE
  5
5
330
0
100
AcDbSymbolTable
 70
     6
  0
LTYPE
  5
14
330
5
100
AcDbSymbolTableRecord
100
AcDbLinetypeTableRecord
  2
ByBlock
 70
     0
  3

 72
    65
 73
     0
 40
0.0
  0
LTYPE
  5
15
330
5
100
AcDbSymbolTableRecord
100
AcDbLinetypeTableRecord
  2
ByLayer
 70
     0
  3

 72
    65
 73
     0
 40
0.0
  0
LTYPE
  5
16
330
5
100
AcDbSymbolTableRecord
100
AcDbLinetypeTableRecord
  2
Continuous
 70
     0
  3
Solid line
 72
    65
 73
     0
 40
0.0
  0
LTYPE
  5
3F
330
5
100
AcDbSymbolTableRecord
100
AcDbLinetypeTableRecord
  2
HIDDEN
 70
     0
  3
Hidden __ __ __ __ __ __ __ __ __ __ __ __ __ __
 72
    65
 73
     2
 40
0.075
 49
0.05
 74
     0
 49
-0.025
 74
     0
  0
LTYPE
  5
40
330
5
100
AcDbSymbolTableRecord
100
AcDbLinetypeTableRecord
  2
PHANTOM
 70
     0
  3
Phantom ______  __  __  ______  __  __  ______
 72
    65
 73
     6
 40
0.5
 49
0.25
 74
     0
 49
-0.05
 74
     0
 49
0.05
 74
     0
 49
-0.05
 74
     0
 49
0.05
 74
     0
 49
-0.05
 74
     0
  0
LTYPE
  5
41
330
5
100
AcDbSymbolTableRecord
100
AcDbLinetypeTableRecord
  2
CENTER
 70
     0
  3
Center ____ _ ____ _ ____ _ ____ _ ____ _ ____
 72
    65
 73
     4
 40
0.4
 49
0.25
 74
     0
 49
-0.05
 74
     0
 49
0.05
 74
     0
 49
-0.05
 74
     0
  0
LTYPE
  5
42
330
5
100
AcDbSymbolTableRecord
100
AcDbLinetypeTableRecord
  2
CENTERX2
 70
     0
  3
Center (2x) ________  __  ________  __  _____
 72
    65
 73
     4
 40
0.8
 49
0.5
 74
     0
 49
-0.1
 74
     0
 49
0.1
 74
     0
 49
-0.1
 74
     0
  0
LTYPE
  5
43
330
5
100
AcDbSymbolTableRecord
100
AcDbLinetypeTableRecord
  2
DOT2
 70
     0
  3
Dot (.5x) ........................................
 72
    65
 73
     2
 40
0.025
 49
0.0
 74
     0
 49
-0.025
 74
     0
  0
ENDTAB
  0
TABLE
  2
LAYER
  5
2
330
0
100
AcDbSymbolTable
 70
     1
  0
LAYER
  5
10
330
2
100
AcDbSymbolTableRecord
100
AcDbLayerTableRecord
  2
0
 70
     0
 62
     7
  6
Continuous
370
    -3
390
F
  0
ENDTAB
  0
TABLE
  2
STYLE
  5
3
330
0
100
AcDbSymbolTable
 70
     1
  0
STYLE
  5
11
330
3
100
AcDbSymbolTableRecord
100
AcDbTextStyleTableRecord
  2
Standard
 70
     0
 40
0.0
 41
1.0
 50
0.0
 71
     0
 42
0.125
  3
txt
  4

  0
ENDTAB
  0
TABLE
  2
VIEW
  5
6
330
0
100
AcDbSymbolTable
 70
     0
  0
ENDTAB
  0
TABLE
  2
UCS
  5
7
330
0
100
AcDbSymbolTable
 70
     0
  0
ENDTAB
  0
TABLE
  2
APPID
  5
9
330
0
100
AcDbSymbolTable
 70
     1
  0
APPID
  5
12
330
9
100
AcDbSymbolTableRecord
100
AcDbRegAppTableRecord
  2
ACAD
 70
     0
  0
ENDTAB
  0
TABLE
  2
DIMSTYLE
  5
A
330
0
100
AcDbSymbolTable
 70
     1
100
AcDbDimStyleTable
  0
DIMSTYLE
105
27
330
A
100
AcDbSymbolTableRecord
100
AcDbDimStyleTableRecord
  2
Standard
 70
     0
178
     0
340
11
  0
ENDTAB
  0
TABLE
  2
BLOCK_RECORD
  5
1
330
0
100
AcDbSymbolTable
 70
     1
  0
BLOCK_RECORD
  5
1F
330
1
100
AcDbSymbolTableRecord
100
AcDbBlockTableRecord
  2
*Model_Space
340
22
  0
BLOCK_RECORD
  5
1B
330
1
100
AcDbSymbolTableRecord
100
AcDbBlockTableRecord
  2
*Paper_Space
340
1E
  0
BLOCK_RECORD
  5
23
330
1
100
AcDbSymbolTableRecord
100
AcDbBlockTableRecord
  2
*Paper_Space0
340
26
  0
ENDTAB
  0
ENDSEC
  0
SECTION
  2
BLOCKS
  0
BLOCK
  5
20
330
1F
100
AcDbEntity
  8
0
100
AcDbBlockBegin
  2
*Model_Space
 70
     0
 10
0.0
 20
0.0
 30
0.0
  3
*Model_Space
  1

  0
ENDBLK
  5
21
330
1F
100
AcDbEntity
  8
0
100
AcDbBlockEnd
  0
BLOCK
  5
1C
330
1B
100
AcDbEntity
 67
     1
  8
0
100
AcDbBlockBegin
  2
*Paper_Space
 70
     0
 10
0.0
 20
0.0
 30
0.0
  3
*Paper_Space
  1

  0
ENDBLK
  5
1D
330
1B
100
AcDbEntity
 67
     1
  8
0
100
AcDbBlockEnd
  0
BLOCK
  5
24
330
23
100
AcDbEntity
  8
0
100
AcDbBlockBegin
  2
*Paper_Space0
 70
     0
 10
0.0
 20
0.0
 30
0.0
  3
*Paper_Space0
  1

  0
ENDBLK
  5
25
330
23
100
AcDbEntity
  8
0
100
AcDbBlockEnd
  0
ENDSEC
  0
SECTION
  2
ENTITIES
  0
LINE
  5
44
330
1F
100
AcDbEntity
  8
0
  6
Continuous
 62
     7
370
    15
100
AcDbLine
 10
5.0481284754
 20
8.3230284202
 30
0.0
 11
5.1106284334
 21
8.3230284202
 31
0.0
  0
LINE
  5
45
330
1F
100
AcDbEntity
  8
0
  6
Continuous
 62
     7
370
    15
100
AcDbLine
 10
5.1106284334
 20
8.5180284109
 30
0.0
 11
5.0481284754
 21
8.5180284109
 31
0.0
  0
LINE
  5
46
330
1F
100
AcDbEntity
  8
0
  6
Continuous
 62
     7
370
    15
100
AcDbLine
 10
3.672128411
 20
8.5180284109
 30
0.0
 11
3.609628453
 21
8.5180284109
 31
0.0
  0
LINE
  5
47
330
1F
100
AcDbEntity
  8
0
  6
Continuous
 62
     7
370
    15
100
AcDbLine
 10
3.609628453
 20
8.3230284202
 30
0.0
 11
3.672128411
 21
8.3230284202
 31
0.0
  0
ARC
  5
48
330
1F
100
AcDbEntity
  8
0
  6
Continuous
 62
     7
370
    15
100
AcDbCircle
 10
3.4841284432
 20
7.3128247848
 30
0.0
 40
0.0470000000000006
100
AcDbArc
 50
270.0
 51
330.7379254356
  0
LINE
  5
49
330
1F
100
AcDbEntity
  8
0
  6
Continuous
 62
     7
370
    15
100
AcDbLine
 10
3.4141284448
 20
7.2658248031
 30
0.0
 11
3.4841284095
 21
7.2658248031
 31
0.0
  0
ARC
  5
4A
330
1F
100
AcDbEntity
  8
0
  6
Continuous
 62
     7
370
    15
100
AcDbCircle
 10
3.4141284432
 20
7.3128247848
 30
0.0
 40
0.0469999999999997
100
AcDbArc
 50
209.2620745644
 51
270.0
  0
ARC
  5
4B
330
1F
100
AcDbEntity
  8
0
  6
Continuous
 62
     7
370
    15
100
AcDbCircle
 10
5.3061284432
 20
8.3354563145
 30
0.0
 40
0.0470000000000006
100
AcDbArc
 50
0.0
 51
41.1673584184
  0
LINE
  5
4C
330
1F
100
AcDbEntity
  8
0
  6
Continuous
 62
     7
370
    15
100
AcDbLine
 10
3.5973784079
 20
8.342403413
 30
0.0
 11
3.609628453
 21
8.342403413
 31
0.0
  0
LINE
  5
4D
330
1F
100
AcDbEntity
  8
0
  6
Continuous
 62
     7
370
    15
100
AcDbLine
 10
3.609628453
 20
8.4986534547
 30
0.0
 11
3.5973784079
 21
8.4986534547
 31
0.0
  0
LINE
  5
4E
330
1F
100
AcDbEntity
  8
0
  6
Continuous
 62
     7
370
    15
100
AcDbLine
 10
3.5973784079
 20
8.521051836
 30
0.0
 11
3.5273784432
 21
8.521051836
 31
0.0
  0
ARC
  5
4F
330
1F
100
AcDbEntity
  8
0
  6
Continuous
 62
     7
370
    15
100
AcDbCircle
 10
3.5273784432
 20
8.4740518425
 30
0.0
 40
0.0470000000000006
100
AcDbArc
 50
90.0
 51
180.0
  0
LINE
  5
50
330
1F
100
AcDbEntity
  8
0
  6
Continuous
 62
     7
370
    15
100
AcDbLine
 10
5.4714729582
 20
8.4746622918
 30
0.0
 11
5.3442584011
 21
8.4746622918
 31
0.0
  0
LINE
  5
51
330
1F
100
AcDbEntity
  8
0
  6
Continuous
 62
     7
370
    15
100
AcDbLine
 10
5.3442584011
 20
8.3663945759
 30
0.0
 11
5.4714729582
 21
8.3663945759
 31
0.0
  0
LINE
  5
52
330
1F
100
AcDbEntity
  8
0
  6
Continuous
 62
     7
370
    15
100
AcDbLine
 10
5.3148784738
 20
8.3781514601
 30
0.0
 11
5.321128455
 21
8.3781514601
 31
0.0
  0
LINE
  5
53
330
1F
100
AcDbEntity
  8
0
  6
Continuous
 62
     7
370
    15
100
AcDbLine
 10
5.321128455
 20
8.4629054077
 30
0.0
 11
5.3148784738
 21
8.4629054077
 31
0.0
  0
LINE
  5
54
330
1F
100
AcDbEntity
  8
0
  6
Continuous
 62
     7
370
    15
100
AcDbLine
 10
5.1228784785
 20
8.4986534547
 30
0.0
 11
5.1106284334
 21
8.4986534547
 31
0.0
  0
LINE
  5
55
330
1F
100
AcDbEntity
  8
0
  6
Continuous
 62
     7
370
    15
100
AcDbLine
 10
5.1106284334
 20
8.342403413
 30
0.0
 11
5.1228784785
 21
8.342403413
 31
0.0
  0
LINE
  5
56
330
1F
100
AcDbEntity
  8
0
  6
Continuous
 62
     7
370
    15
100
AcDbLine
 10
5.3098784449
 20
8.521051836
 30
0.0
 11
5.1228784785
 21
8.521051836
 31
0.0
  0
LINE
  5
57
330
1F
100
AcDbEntity
  8
0
  6
Continuous
 62
     7
370
    15
100
AcDbLine
 10
5.3148784738
 20
8.516051807
 30
0.0
 11
5.3098784449
 21
8.521051836
 31
0.0
  0
LINE
  5
58
330
1F
100
AcDbEntity
  8
0
  6
Continuous
 62
     7
370
    15
100
AcDbLine
 10
3.8596284317
 20
8.3892784182
 30
0.0
 11
4.8606284547
 21
8.3892784182
 31
0.0
  0
LINE
  5
59
330
1F
100
AcDbEntity
  8
0
  6
Continuous
 62
     7
370
    15
100
AcDbLine
 10
4.8606284547
 20
8.4517784495
 30
0.0
 11
3.8596284317
 21
8.4517784495
 31
0.0
  0
LINE
  5
5A
330
1F
100
AcDbEntity
  8
0
  6
Continuous
 62
     7
370
    15
100
AcDbLine
 10
3.8948784411
 20
8.3299759399
 30
0.0
 11
3.8823784422
 21
8.3299759399
 31
0.0
  0
LINE
  5
5B
330
1F
100
AcDbEntity
  8
0
  6
Continuous
 62
     7
370
    15
100
AcDbLine
 10
5.3961284486
 20
7.7094005455
 30
0.0
 11
5.3971284103
 21
7.7111325947
 31
0.0
  0
LINE
  5
5C
330
1F
100
AcDbEntity
  8
0
  6
Continuous
 62
     7
370
    15
100
AcDbLine
 10
5.3971284103
 20
7.9028192953
 30
0.0
 11
5.3961284486
 21
7.9045513445
 31
0.0
  0
LINE
  5
5D
330
1F
100
AcDbEntity
  8
0
  6
Continuous
 62
     7
370
    15
100
AcDbLine
 10
3.3553784168
 20
7.2898509456
 30
0.0
 11
3.930378441
 21
7.2898509456
 31
0.0
  0
LINE
  5
5E
330
1F
100
AcDbEntity
  8
0
  6
Continuous
 62
     7
370
    15
100
AcDbLine
 10
3.930378441
 20
8.3241009445
 30
0.0
 11
3.672128411
 21
8.3241009445
 31
0.0
  0
LINE
  5
5F
330
1F
100
AcDbEntity
  8
0
  6
Continuous
 62
     7
370
    15
100
AcDbLine
 10
3.609628453
 20
8.3241009445
 30
0.0
 11
3.5973784079
 21
8.3241009445
 31
0.0
  0
LINE
  5
60
330
1F
100
AcDbEntity
  8
0
  6
Continuous
 62
     7
370
    15
100
AcDbLine
 10
3.4803784795
 20
8.3241009445
 30
0.0
 11
3.3553784168
 21
8.3241009445
 31
0.0
  0
ARC
  5
61
330
1F
100
AcDbEntity
  8
0
  6
Continuous
 62
     7
370
    15
100
AcDbCircle
 10
3.9303784432
 20
8.292850945
 30
0.0
 40
0.0312500000000004
100
AcDbArc
 50
0.0
 51
90.0
  0
ARC
  5
62
330
1F
100
AcDbEntity
  8
0
  6
Continuous
 62
     7
370
    15
100
AcDbCircle
 10
3.9303784432
 20
7.321100945
 30
0.0
 40
0.0312499999999996
100
AcDbArc
 50
270.0
 51
0.0
  0
LINE
  5
63
330
1F
100
AcDbEntity
  8
0
  6
Continuous
 62
     7
370
    15
100
AcDbLine
 10
3.3553784168
 20
8.3241009445
 30
0.0
 11
3.3241284378
 21
8.2928509288
 31
0.0
  0
LINE
  5
64
330
1F
100
AcDbEntity
  8
0
  6
Continuous
 62
     7
370
    15
100
AcDbLine
 10
3.3241284378
 20
7.3211009612
 30
0.0
 11
3.3553784168
 21
7.2898509456
 31
0.0
  0
ARC
  5
65
330
1F
100
AcDbEntity
  8
0
  6
Continuous
 62
     7
370
    15
100
AcDbCircle
 10
4.7898784432
 20
7.321100945
 30
0.0
 40
0.03125
100
AcDbArc
 50
222.3261152219
 51
270.0
  0
ARC
  5
66
330
1F
100
AcDbEntity
  8
0
  6
Continuous
 62
     7
370
    15
100
AcDbCircle
 10
4.7898784432
 20
8.292850945
 30
0.0
 40
0.03125
100
AcDbArc
 50
90.0
 51
180.0
  0
LINE
  5
67
330
1F
100
AcDbEntity
  8
0
  6
Continuous
 62
     7
370
    15
100
AcDbLine
 10
5.3648784696
 20
8.3241009445
 30
0.0
 11
5.3148784738
 21
8.3241009445
 31
0.0
  0
LINE
  5
68
330
1F
100
AcDbEntity
  8
0
  6
Continuous
 62
     7
370
    15
100
AcDbLine
 10
5.1228784785
 20
8.3241009445
 30
0.0
 11
5.1106284334
 21
8.3241009445
 31
0.0
  0
LINE
  5
69
330
1F
100
AcDbEntity
  8
0
  6
Continuous
 62
     7
370
    15
100
AcDbLine
 10
5.0481284754
 20
8.3241009445
 30
0.0
 11
4.7898784453
 21
8.3241009445
 31
0.0
  0
LINE
  5
6A
330
1F
100
AcDbEntity
  8
0
  6
Continuous
 62
     7
370
    15
100
AcDbLine
 10
4.7898784453
 20
7.2898509456
 30
0.0
 11
5.3648784696
 21
7.2898509456
 31
0.0
  0
LINE
  5
6B
330
1F
100
AcDbEntity
  8
0
  6
Continuous
 62
     7
370
    15
100
AcDbLine
 10
5.3648784696
 20
7.2898509456
 30
0.0
 11
5.3961284486
 21
7.3211009612
 31
0.0
  0
LINE
  5
6C
330
1F
100
AcDbEntity
  8
0
  6
Continuous
 62
     7
370
    15
100
AcDbLine
 10
5.3961284486
 20
8.2928509288
 30
0.0
 11
5.3648784696
 21
8.3241009445
 31
0.0
  0
LINE
  5
6D
330
1F
100
AcDbEntity
  8
0
  6
Continuous
 62
     7
370
    15
100
AcDbLine
 10
3.975628435
 20
8.2716009343
 30
0.0
 11
3.9751647537
 21
8.2716009343
 31
0.0
  0
LINE
  5
6E
330
1F
100
AcDbEntity
  8
0
  6
Continuous
 62
     7
370
    15
100
AcDbLine
 10
3.9751647537
 20
7.3423509557
 30
0.0
 11
3.975628435
 21
7.3423509557
 31
0.0
  0
LINE
  5
6F
330
1F
100
AcDbEntity
  8
0
  6
Continuous
 62
     7
370
    15
100
AcDbLine
 10
3.9751647537
 20
8.2716009343
 30
0.0
 11
3.9616284567
 21
8.2481554018
 31
0.0
  0
LINE
  5
70
330
1F
100
AcDbEntity
  8
0
  6
Continuous
 62
     7
370
    15
100
AcDbLine
 10
3.9616284567
 20
7.3657964882
 30
0.0
 11
3.9751647537
 21
7.3423509557
 31
0.0
  0
LINE
  5
71
330
1F
100
AcDbEntity
  8
0
  6
Continuous
 62
     7
370
    15
100
AcDbLine
 10
4.7450921327
 20
8.2716009343
 30
0.0
 11
4.7446284514
 21
8.2716009343
 31
0.0
  0
LINE
  5
72
330
1F
100
AcDbEntity
  8
0
  6
Continuous
 62
     7
370
    15
100
AcDbLine
 10
4.7586284297
 20
8.2481554018
 30
0.0
 11
4.7450921327
 21
8.2716009343
 31
0.0
  0
ARC
  5
73
330
1F
100
AcDbEntity
  8
0
  6
Continuous
 62
     7
370
    15
100
AcDbCircle
 10
4.7616284432
 20
8.301225945
 30
0.0
 40
0.0312500000000015
100
AcDbArc
 50
45.358898313
 51
90.0
  0
ARC
  5
74
330
1F
100
AcDbEntity
  8
0
  6
Continuous
 62
     7
370
    15
100
AcDbCircle
 10
3.9586284432
 20
8.301225945
 30
0.0
 40
0.03125
100
AcDbArc
 50
90.0
 51
134.641101687
  0
LINE
  5
75
330
1F
100
AcDbEntity
  8
0
  6
Continuous
 62
     7
370
    15
100
AcDbLine
 10
3.9586284614
 20
8.3324759544
 30
0.0
 11
4.761628425
 21
8.3324759544
 31
0.0
  0
LINE
  5
76
330
1F
100
AcDbEntity
  8
0
  6
Continuous
 62
     7
370
    15
100
AcDbLine
 10
3.975628435
 20
7.3399759365
 30
0.0
 11
3.9616284567
 21
7.3399759365
 31
0.0
  0
CIRCLE
  5
77
330
1F
100
AcDbEntity
  8
0
  6
Continuous
 62
     7
370
    15
100
AcDbCircle
 10
4.3601284432
 20
7.501475945
 30
0.0
 40
0.05
  0
CIRCLE
  5
78
330
1F
100
AcDbEntity
  8
0
  6
Continuous
 62
     7
370
    15
100
AcDbCircle
 10
4.3601284432
 20
7.501475945
 30
0.0
 40
0.0536250000000007
  0
CIRCLE
  5
79
330
1F
100
AcDbEntity
  8
0
  6
Continuous
 62
     7
370
    15
100
AcDbCircle
 10
4.3601284432
 20
8.062475945
 30
0.0
 40
0.0499999999999993
  0
CIRCLE
  5
7A
330
1F
100
AcDbEntity
  8
0
  6
Continuous
 62
     7
370
    15
100
AcDbCircle
 10
4.3601284432
 20
8.062475945
 30
0.0
 40
0.053625
  0
CIRCLE
  5
7B
330
1F
100
AcDbEntity
  8
0
  6
Continuous
 62
     7
370
    15
100
AcDbCircle
 10
4.3601284432
 20
7.501475945
 30
0.0
 40
0.1124999999999998
  0
ARC
  5
7C
330
1F
100
AcDbEntity
  8
0
  6
Continuous
 62
     7
370
    15
100
AcDbCircle
 10
4.3601284432
 20
7.501475945
 30
0.0
 40
0.1375000000000011
100
AcDbArc
 50
276.514392322
 51
323.485607678
  0
SPLINE
  5
7D
330
1F
100
AcDbEntity
  8
0
  6
Continuous
 62
     7
370
    15
100
AcDbSpline
210
0.0
220
0.0
230
1.0
 70
     8
 71
     3
 72
    17
 73
    13
 74
     0
 42
0.00000001
 43
0.00000001
 12
1.0
 22
0.0
 32
0.0
 13
1.0
 23
0.0
 33
0.0
 40
0.0
 40
0.0
 40
0.0
 40
0.0
 40
0.1776425128351278
 40
0.3004698932065991
 40
0.3877883024699492
 40
0.4559479786733752
 40
0.5244831274600155
 40
0.5853464940365364
 40
0.6667782048977637
 40
0.7822132323223316
 40
0.9440464861373031
 40
1.0
 40
1.0
 40
1.0
 40
1.0
 10
4.375728201730992
 20
7.364863735668486
 30
0.0
 10
4.375277048336248
 20
7.367271641164262
 30
0.0
 10
4.374513953904771
 20
7.371344444997198
 30
0.0
 10
4.370689102100055
 20
7.375842580574417
 30
0.0
 10
4.366726753859289
 20
7.378345308266006
 30
0.0
 10
4.362717296602059
 20
7.379555102209808
 30
0.0
 10
4.358812077533315
 20
7.37969979027348
 30
0.0
 10
4.354871906108288
 20
7.378867208920323
 30
0.0
 10
4.35081245551902
 20
7.37684332361738
 30
0.0
 10
4.346845067388559
 20
7.372920270499539
 30
0.0
 10
4.344910073887593
 20
7.368579548708257
 30
0.0
 10
4.344606642004234
 20
7.365623261432332
 30
0.0
 10
4.344528684650475
 20
7.364863735668486
 30
0.0
  0
ARC
  5
7E
330
1F
100
AcDbEntity
  8
0
  6
Continuous
 62
     7
370
    15
100
AcDbCircle
 10
4.3601284432
 20
7.501475945
 30
0.0
 40
0.137500000000001
100
AcDbArc
 50
216.514392322
 51
263.485607678
  0
SPLINE
  5
7F
330
1F
100
AcDbEntity
  8
0
  6
Continuous
 62
     7
370
    15
100
AcDbSpline
210
0.0
220
0.0
230
1.0
 70
     8
 71
     3
 72
    17
 73
    13
 74
     0
 42
0.00000001
 43
0.00000001
 12
1.0
 22
0.0
 32
0.0
 13
1.0
 23
0.0
 33
0.0
 40
0.0
 40
0.0
 40
0.0
 40
0.0
 40
0.1776428266215694
 40
0.3004702272298688
 40
0.3877886492741169
 40
0.4559478633968771
 40
0.5244830632734789
 40
0.5853465952966631
 40
0.666778214209474
 40
0.7822133622294964
 40
0.9440465011044512
 40
1.0
 40
1.0
 40
1.0
 40
1.0
 10
4.249618668975742
 20
7.419660042656872
 30
0.0
 10
4.251478403406384
 20
7.421254713471871
 30
0.0
 10
4.254624012140434
 20
7.423951985921605
 30
0.0
 10
4.256607117563051
 20
7.429513471146616
 30
0.0
 10
4.256793326474209
 20
7.434196326369139
 30
0.0
 10
4.255836317686009
 20
7.438273502790188
 30
0.0
 10
4.254009010522783
 20
7.44172786128428
 30
0.0
 10
4.251317895325909
 20
7.444723869906515
 30
0.0
 10
4.247535432234376
 20
7.447227517987622
 30
0.0
 10
4.242154260289603
 20
7.448701824312425
 30
0.0
 10
4.23742759741991
 20
7.448207229221818
 30
0.0
 10
4.234715662340114
 20
7.446991866754195
 30
0.0
 10
4.234018915018765
 20
7.446679617191108
 30
0.0
  0
ARC
  5
80
330
1F
100
AcDbEntity
  8
0
  6
Continuous
 62
     7
370
    15
100
AcDbCircle
 10
4.3601284432
 20
7.501475945
 30
0.0
 40
0.1375000000000003
100
AcDbArc
 50
156.514392322
 51
203.485607678
  0
SPLINE
  5
81
330
1F
100
AcDbEntity
  8
0
  6
Continuous
 62
     7
370
    15
100
AcDbSpline
210
0.0
220
0.0
230
1.0
 70
     8
 71
     3
 72
    17
 73
    13
 74
     0
 42
0.00000001
 43
0.00000001
 12
1.0
 22
0.0
 32
0.0
 13
1.0
 23
0.0
 33
0.0
 40
0.0
 40
0.0
 40
0.0
 40
0.0
 40
0.1776427263177247
 40
0.3004701155292145
 40
0.3877883594363143
 40
0.455947958714748
 40
0.524483167477947
 40
0.5853464110096921
 40
0.6667780802302694
 40
0.7822131841409037
 40
0.9440464569175709
 40
1.0
 40
1.0
 40
1.0
 40
1.0
 10
4.234018915018765
 20
7.556272267834123
 30
0.0
 10
4.236329803420661
 20
7.555459020315097
 30
0.0
 10
4.240238507815633
 20
7.554083469618142
 30
0.0
 10
4.246046449575418
 20
7.555146801845194
 30
0.0
 10
4.250195014405723
 20
7.557326977651892
 30
0.0
 10
4.253247468492889
 20
7.560194351378041
 30
0.0
 10
4.255325378543474
 20
7.563504029031079
 30
0.0
 10
4.256574423365695
 20
7.567332606224541
 30
0.0
 10
4.25685142809555
 20
7.571860133957746
 30
0.0
 10
4.255437640950406
 20
7.577257523375964
 30
0.0
 10
4.252645968085115
 20
7.581103641663337
 30
0.0
 10
4.250237460124387
 20
7.582844566040913
 30
0.0
 10
4.249618668975742
 20
7.583291842368358
 30
0.0
  0
ARC
  5
82
330
1F
100
AcDbEntity
  8
0
  6
Continuous
 62
     7
370
    15
100
AcDbCircle
 10
4.3601284432
 20
7.501475945
 30
0.0
 40
0.1375
100
AcDbArc
 50
96.514392322
 51
143.485607678
  0
SPLINE
  5
83
330
1F
100
AcDbEntity
  8
0
  6
Continuous
 62
     7
370
    15
100
AcDbSpline
210
0.0
220
0.0
230
1.0
 70
     8
 71
     3
 72
    17
 73
    13
 74
     0
 42
0.00000001
 43
0.00000001
 12
1.0
 22
0.0
 32
0.0
 13
1.0
 23
0.0
 33
0.0
 40
0.0
 40
0.0
 40
0.0
 40
0.0
 40
0.1776426731298095
 40
0.3004702013141208
 40
0.3877882980095854
 40
0.4559480373031123
 40
0.5244831645102278
 40
0.5853465738501092
 40
0.6667781353824794
 40
0.7822133008964143
 40
0.9440465037552738
 40
1.0
 40
1.0
 40
1.0
 40
1.0
 10
4.344528684650475
 20
7.638088167689865
 30
0.0
 10
4.344979839900701
 20
7.635680260472813
 30
0.0
 10
4.345742937564516
 20
7.631607453227195
 30
0.0
 10
4.34956776972069
 20
7.627109269470939
 30
0.0
 10
4.353530144362124
 20
7.624606608120003
 30
0.0
 10
4.357539585327598
 20
7.623396777255472
 30
0.0
 10
4.36144481235883
 20
7.62325208845474
 30
0.0
 10
4.365384973504861
 20
7.624084705816672
 30
0.0
 10
4.369444440435108
 20
7.626108548944593
 30
0.0
 10
4.373411812384842
 20
7.630031643489797
 30
0.0
 10
4.375346812960258
 20
7.634372353574539
 30
0.0
 10
4.375650244472563
 20
7.637328641706175
 30
0.0
 10
4.375728201730992
 20
7.638088167689865
 30
0.0
  0
ARC
  5
84
330
1F
100
AcDbEntity
  8
0
  6
Continuous
 62
     7
370
    15
100
AcDbCircle
 10
4.3601284432
 20
7.501475945
 30
0.0
 40
0.1374999999999998
100
AcDbArc
 50
36.514392322
 51
83.485607678
  0
SPLINE
  5
85
330
1F
100
AcDbEntity
  8
0
  6
Continuous
 62
     7
370
    15
100
AcDbSpline
210
0.0
220
0.0
230
1.0
 70
     8
 71
     3
 72
    17
 73
    13
 74
     0
 42
0.00000001
 43
0.00000001
 12
1.0
 22
0.0
 32
0.0
 13
1.0
 23
0.0
 33
0.0
 40
0.0
 40
0.0
 40
0.0
 40
0.0
 40
0.1776426567023157
 40
0.3004702851551384
 40
0.387788429813597
 40
0.4559482291248574
 40
0.5244831474463534
 40
0.5853464464720439
 40
0.6667782239083158
 40
0.7822133685684521
 40
0.9440465027330485
 40
1.0
 40
1.0
 40
1.0
 40
1.0
 10
4.470638217405726
 20
7.583291842368358
 30
0.0
 10
4.468778482621342
 20
7.581697180905564
 30
0.0
 10
4.465632869673701
 20
7.578999921174447
 30
0.0
 10
4.463649769009371
 20
7.573438415899304
 30
0.0
 10
4.463463565453322
 20
7.568755566234294
 30
0.0
 10
4.46442055840862
 20
7.56467837674463
 30
0.0
 10
4.466247875579515
 20
7.561224020722849
 30
0.0
 10
4.468939001476874
 20
7.558228035805758
 30
0.0
 10
4.472721446604615
 20
7.555724359163383
 30
0.0
 10
4.478102628418742
 20
7.554250064585297
 30
0.0
 10
4.4828292887676
 20
7.55474465548062
 30
0.0
 10
4.485541224001708
 20
7.555960018205056
 30
0.0
 10
4.486237971362703
 20
7.556272267834123
 30
0.0
  0
ARC
  5
86
330
1F
100
AcDbEntity
  8
0
  6
Continuous
 62
     7
370
    15
100
AcDbCircle
 10
4.3601284432
 20
7.501475945
 30
0.0
 40
0.1375000000000004
100
AcDbArc
 50
336.514392322
 51
23.485607678
  0
SPLINE
  5
87
330
1F
100
AcDbEntity
  8
0
  6
Continuous
 62
     7
370
    15
100
AcDbSpline
210
0.0
220
0.0
230
1.0
 70
     8
 71
     3
 72
    17
 73
    13
 74
     0
 42
0.00000001
 43
0.00000001
 12
1.0
 22
0.0
 32
0.0
 13
1.0
 23
0.0
 33
0.0
 40
0.0
 40
0.0
 40
0.0
 40
0.0
 40
0.1776427178131699
 40
0.3004701011443612
 40
0.3877882085637761
 40
0.4559480136144391
 40
0.5244832190965498
 40
0.5853467528669963
 40
0.6667778490250884
 40
0.7822131945673363
 40
0.9440464595963182
 40
0.9999999999999999
 40
0.9999999999999999
 40
0.9999999999999999
 40
0.9999999999999999
 10
4.486237971362703
 20
7.446679617191108
 30
0.0
 10
4.483927082188613
 20
7.447492866298997
 30
0.0
 10
4.480018376487529
 20
7.4488684196834
 30
0.0
 10
4.474210443577245
 20
7.447805073687737
 30
0.0
 10
4.470061861514377
 20
7.445624931250979
 30
0.0
 10
4.467009424046413
 20
7.442757531740731
 30
0.0
 10
4.464931502399514
 20
7.43944785379106
 30
0.0
 10
4.463682469770934
 20
7.435619272040328
 30
0.0
 10
4.463405457412022
 20
7.431091762562694
 30
0.0
 10
4.46481924403684
 20
7.425694358891184
 30
0.0
 10
4.467610918239968
 20
7.421848243829587
 30
0.0
 10
4.470019426245556
 20
7.420107319079918
 30
0.0
 10
4.470638217405726
 20
7.419660042656872
 30
0.0
  0
CIRCLE
  5
88
330
1F
100
AcDbEntity
  8
0
  6
Continuous
 62
     7
370
    15
100
AcDbCircle
 10
4.3601284432
 20
7.501475945
 30
0.0
 40
0.0665000000000004
  0
ARC
  5
89
330
1F
100
AcDbEntity
  8
0
  6
Continuous
 62
     7
370
    15
100
AcDbCircle
 10
4.3601284432
 20
7.501475945
 30
0.0
 40
0.1375
100
AcDbArc
 50
143.485607678
 51
156.514392322
  0
ARC
  5
8A
330
1F
100
AcDbEntity
  8
0
  6
Continuous
 62
     7
370
    15
100
AcDbCircle
 10
4.3601284432
 20
7.501475945
 30
0.0
 40
0.1375000000000003
100
AcDbArc
 50
203.485607678
 51
216.514392322
  0
ARC
  5
8B
330
1F
100
AcDbEntity
  8
0
  6
Continuous
 62
     7
370
    15
100
AcDbCircle
 10
4.3601284432
 20
7.501475945
 30
0.0
 40
0.1374999999999993
100
AcDbArc
 50
83.485607678
 51
96.514392322
  0
ARC
  5
8C
330
1F
100
AcDbEntity
  8
0
  6
Continuous
 62
     7
370
    15
100
AcDbCircle
 10
4.3601284432
 20
7.501475945
 30
0.0
 40
0.1375000000000011
100
AcDbArc
 50
263.485607678
 51
276.514392322
  0
ARC
  5
8D
330
1F
100
AcDbEntity
  8
0
  6
Continuous
 62
     7
370
    15
100
AcDbCircle
 10
4.3601284432
 20
7.501475945
 30
0.0
 40
0.1375
100
AcDbArc
 50
23.485607678
 51
36.514392322
  0
ARC
  5
8E
330
1F
100
AcDbEntity
  8
0
  6
Continuous
 62
     7
370
    15
100
AcDbCircle
 10
4.3601284432
 20
7.501475945
 30
0.0
 40
0.1375000000000004
100
AcDbArc
 50
323.485607678
 51
336.514392322
  0
CIRCLE
  5
8F
330
1F
100
AcDbEntity
  8
0
  6
Continuous
 62
     7
370
    15
100
AcDbCircle
 10
4.3601284432
 20
8.062475945
 30
0.0
 40
0.1124999999999998
  0
ARC
  5
90
330
1F
100
AcDbEntity
  8
0
  6
Continuous
 62
     7
370
    15
100
AcDbCircle
 10
4.3601284432
 20
8.062475945
 30
0.0
 40
0.1375000000000002
100
AcDbArc
 50
276.514392322
 51
323.485607678
  0
SPLINE
  5
91
330
1F
100
AcDbEntity
  8
0
  6
Continuous
 62
     7
370
    15
100
AcDbSpline
210
0.0
220
0.0
230
1.0
 70
     8
 71
     3
 72
    17
 73
    13
 74
     0
 42
0.00000001
 43
0.00000001
 12
1.0
 22
0.0
 32
0.0
 13
1.0
 23
0.0
 33
0.0
 40
0.0
 40
0.0
 40
0.0
 40
0.0
 40
0.177642518287218
 40
0.3004698461650577
 40
0.3877885674706091
 40
0.4559478260671506
 40
0.5244829443076664
 40
0.5853462696320209
 40
0.6667783099332276
 40
0.7822126179846574
 40
0.9440465525272507
 40
1.0
 40
1.0
 40
1.0
 40
1.0
 10
4.375728201730992
 20
7.925863726615385
 30
0.0
 10
4.375277050698045
 20
7.928271634506548
 30
0.0
 10
4.374513960404268
 20
7.932344441628476
 30
0.0
 10
4.370689085629022
 20
7.936842626670953
 30
0.0
 10
4.366726779624522
 20
7.939345277455075
 30
0.0
 10
4.362717280590309
 20
7.940555109356884
 30
0.0
 10
4.358812081263443
 20
7.940699794550752
 30
0.0
 10
4.354871893137296
 20
7.939867185504839
 30
0.0
 10
4.350812485717793
 20
7.937843369510042
 30
0.0
 10
4.346845033494716
 20
7.933920206533889
 30
0.0
 10
4.344910078661941
 20
7.92957955732106
 30
0.0
 10
4.34460664273158
 20
7.926623253568659
 30
0.0
 10
4.344528684650475
 20
7.925863726615385
 30
0.0
  0
ARC
  5
92
330
1F
100
AcDbEntity
  8
0
  6
Continuous
 62
     7
370
    15
100
AcDbCircle
 10
4.3601284432
 20
8.062475945
 30
0.0
 40
0.1375000000000001
100
AcDbArc
 50
216.514392322
 51
263.485607678
  0
SPLINE
  5
93
330
1F
100
AcDbEntity
  8
0
  6
Continuous
 62
     7
370
    15
100
AcDbSpline
210
0.0
220
0.0
230
1.0
 70
     8
 71
     3
 72
    17
 73
    13
 74
     0
 42
0.00000001
 43
0.00000001
 12
1.0
 22
0.0
 32
0.0
 13
1.0
 23
0.0
 33
0.0
 40
0.0
 40
0.0
 40
0.0
 40
0.0
 40
0.1776424797236988
 40
0.3004697543886909
 40
0.3877887163507189
 40
0.4559477751602332
 40
0.5244829555351646
 40
0.5853461939250669
 40
0.6667784399814661
 40
0.7822127127944136
 40
0.944046558477388
 40
1.0
 40
1.0
 40
1.0
 40
1.0
 10
4.249618668975742
 20
7.980660051936892
 30
0.0
 10
4.251478403880392
 20
7.982254711907088
 30
0.0
 10
4.254624014608734
 20
7.984951967036173
 30
0.0
 10
4.256607119243818
 20
7.990513493634402
 30
0.0
 10
4.256793329629077
 20
7.995196285394647
 30
0.0
 10
4.25583631433324
 20
7.999273524535907
 30
0.0
 10
4.254009019984077
 20
8.002727866282022
 30
0.0
 10
4.251317869063239
 20
8.00572387047454
 30
0.0
 10
4.247535482255866
 20
8.008227514227704
 30
0.0
 10
4.24215419860094
 20
8.00970184199508
 30
0.0
 10
4.237427614665411
 20
8.00920724263619
 30
0.0
 10
4.23471566364376
 20
8.007991875883768
 30
0.0
 10
4.234018915018765
 20
8.007679626471129
 30
0.0
  0
ARC
  5
94
330
1F
100
AcDbEntity
  8
0
  6
Continuous
 62
     7
370
    15
100
AcDbCircle
 10
4.3601284432
 20
8.062475945
 30
0.0
 40
0.1375000000000001
100
AcDbArc
 50
156.514392322
 51
203.485607678
  0
SPLINE
  5
95
330
1F
100
AcDbEntity
  8
0
  6
Continuous
 62
     7
370
    15
100
AcDbSpline
210
0.0
220
0.0
230
1.0
 70
     8
 71
     3
 72
    17
 73
    13
 74
     0
 42
0.00000001
 43
0.00000001
 12
1.0
 22
0.0
 32
0.0
 13
1.0
 23
0.0
 33
0.0
 40
0.0
 40
0.0
 40
0.0
 40
0.0
 40
0.177642549100981
 40
0.3004698157796185
 40
0.3877884697240634
 40
0.4559478310324722
 40
0.5244830221969352
 40
0.5853459118594021
 40
0.6667780495917448
 40
0.7822125286597684
 40
0.9440465127369388
 40
0.9999999999999999
 40
0.9999999999999999
 40
0.9999999999999999
 40
0.9999999999999999
 10
4.234018915018765
 20
8.117272277114143
 30
0.0
 10
4.236329801302604
 20
8.11645902595464
 30
0.0
 10
4.240238502115033
 20
8.115083469100073
 30
0.0
 10
4.246046470158732
 20
8.116146835068923
 30
0.0
 10
4.250194995723162
 20
8.118326940998802
 30
0.0
 10
4.253247475888883
 20
8.121194375912651
 30
0.0
 10
4.255325372228844
 20
8.124504027867282
 30
0.0
 10
4.256574429897887
 20
8.128332621027146
 30
0.0
 10
4.256851428958172
 20
8.132860080655263
 30
0.0
 10
4.255437625736117
 20
8.138257590818124
 30
0.0
 10
4.252645979764647
 20
8.14210363779296
 30
0.0
 10
4.250237460538878
 20
8.143844574058965
 30
0.0
 10
4.249618668975742
 20
8.14429185164838
 30
0.0
  0
ARC
  5
96
330
1F
100
AcDbEntity
  8
0
  6
Continuous
 62
     7
370
    15
100
AcDbCircle
 10
4.3601284432
 20
8.062475945
 30
0.0
 40
0.1375000000000005
100
AcDbArc
 50
96.514392322
 51
143.485607678
  0
SPLINE
  5
97
330
1F
100
AcDbEntity
  8
0
  6
Continuous
 62
     7
370
    15
100
AcDbSpline
210
0.0
220
0.0
230
1.0
 70
     8
 71
     3
 72
    17
 73
    13
 74
     0
 42
0.00000001
 43
0.00000001
 12
1.0
 22
0.0
 32
0.0
 13
1.0
 23
0.0
 33
0.0
 40
0.0
 40
0.0
 40
0.0
 40
0.0
 40
0.17764232546377
 40
0.3004699492558042
 40
0.3877886107982805
 40
0.455947836099306
 40
0.5244829633695602
 40
0.5853462657494458
 40
0.6667784404672963
 40
0.7822125892904176
 40
0.9440465451551907
 40
0.9999999999999999
 40
0.9999999999999999
 40
0.9999999999999999
 40
0.9999999999999999
 10
4.344528684650475
 20
8.199088158636766
 30
0.0
 10
4.344979838467183
 20
8.196680262066561
 30
0.0
 10
4.34574293455962
 20
8.192607468275025
 30
0.0
 10
4.349567793212108
 20
8.18810924593332
 30
0.0
 10
4.353530107235708
 20
8.185606606787546
 30
0.0
 10
4.357539607448512
 20
8.184396786086243
 30
0.0
 10
4.361444803298825
 20
8.184252103963027
 30
0.0
 10
4.365384998515962
 20
8.185084692025203
 30
0.0
 10
4.369444391531994
 20
8.187108544833917
 30
0.0
 10
4.373411859294822
 20
8.191031668860546
 30
0.0
 10
4.375346807269813
 20
8.19537232894219
 30
0.0
 10
4.375650243557964
 20
8.198328631890163
 30
0.0
 10
4.375728201730992
 20
8.199088158636766
 30
0.0
  0
ARC
  5
98
330
1F
100
AcDbEntity
  8
0
  6
Continuous
 62
     7
370
    15
100
AcDbCircle
 10
4.3601284432
 20
8.062475945
 30
0.0
 40
0.1375000000000008
100
AcDbArc
 50
36.514392322
 51
83.485607678
  0
SPLINE
  5
99
330
1F
100
AcDbEntity
  8
0
  6
Continuous
 62
     7
370
    15
100
AcDbSpline
210
0.0
220
0.0
230
1.0
 70
     8
 71
     3
 72
    17
 73
    13
 74
     0
 42
0.00000001
 43
0.00000001
 12
1.0
 22
0.0
 32
0.0
 13
1.0
 23
0.0
 33
0.0
 40
0.0
 40
0.0
 40
0.0
 40
0.0
 40
0.1776426498814427
 40
0.3004699282864944
 40
0.3877888929073626
 40
0.4559482473799359
 40
0.5244828707224201
 40
0.585346342191353
 40
0.6667784298349538
 40
0.7822127061628458
 40
0.9440465567736199
 40
1.0
 40
1.0
 40
1.0
 40
1.0
 10
4.470638217405726
 20
8.14429185164838
 30
0.0
 10
4.468778483093109
 20
8.142697184581676
 30
0.0
 10
4.465632874558692
 20
8.139999918471917
 30
0.0
 10
4.463649764867402
 20
8.13443839088206
 30
0.0
 10
4.463463561558275
 20
8.129755597531194
 30
0.0
 10
4.464420558526035
 20
8.125678352344924
 30
0.0
 10
4.466247884273685
 20
8.122224032316211
 30
0.0
 10
4.468939004493439
 20
8.119228011059016
 30
0.0
 10
4.472721412718498
 20
8.11672439782816
 30
0.0
 10
4.478102684977069
 20
8.115250057447096
 30
0.0
 10
4.482829271949739
 20
8.11574466129443
 30
0.0
 10
4.485541222785472
 20
8.116960027772095
 30
0.0
 10
4.486237971362703
 20
8.117272277114143
 30
0.0
  0
ARC
  5
9A
330
1F
100
AcDbEntity
  8
0
  6
Continuous
 62
     7
370
    15
100
AcDbCircle
 10
4.3601284432
 20
8.062475945
 30
0.0
 40
0.1375000000000001
100
AcDbArc
 50
336.514392322
 51
23.485607678
  0
SPLINE
  5
9B
330
1F
100
AcDbEntity
  8
0
  6
Continuous
 62
     7
370
    15
100
AcDbSpline
210
0.0
220
0.0
230
1.0
 70
     8
 71
     3
 72
    17
 73
    13
 74
     0
 42
0.00000001
 43
0.00000001
 12
1.0
 22
0.0
 32
0.0
 13
1.0
 23
0.0
 33
0.0
 40
0.0
 40
0.0
 40
0.0
 40
0.0
 40
0.1776425186853157
 40
0.3004697549964888
 40
0.3877885516012306
 40
0.4559477119554545
 40
0.5244829112466213
 40
0.585346394430305
 40
0.6667782572386801
 40
0.7822125028351632
 40
0.944046506102137
 40
1.0
 40
1.0
 40
1.0
 40
1.0
 10
4.486237971362703
 20
8.007679626471129
 30
0.0
 10
4.483927085978997
 20
8.008492864430824
 30
0.0
 10
4.480018386810544
 20
8.009868398916105
 30
0.0
 10
4.474210408564011
 20
8.008805082336538
 30
0.0
 10
4.470061900729474
 20
8.006624938223585
 30
0.0
 10
4.467009405642519
 20
8.003757528777282
 30
0.0
 10
4.464931505560711
 20
8.00044786676429
 30
0.0
 10
4.463682464768419
 20
7.996619258590554
 30
0.0
 10
4.463405454120814
 20
7.992091805370463
 30
0.0
 10
4.464819265461056
 20
7.986694312448192
 30
0.0
 10
4.467610906388004
 20
7.982848265581111
 30
0.0
 10
4.470019425795819
 20
7.981107329483137
 30
0.0
 10
4.470638217405726
 20
7.980660051936892
 30
0.0
  0
CIRCLE
  5
9C
330
1F
100
AcDbEntity
  8
0
  6
Continuous
 62
     7
370
    15
100
AcDbCircle
 10
4.3601284432
 20
8.062475945
 30
0.0
 40
0.0665000000000004
  0
ARC
  5
9D
330
1F
100
AcDbEntity
  8
0
  6
Continuous
 62
     7
370
    15
100
AcDbCircle
 10
4.3601284432
 20
8.062475945
 30
0.0
 40
0.1375000000000002
100
AcDbArc
 50
83.485607678
 51
96.514392322
  0
ARC
  5
9E
330
1F
100
AcDbEntity
  8
0
  6
Continuous
 62
     7
370
    15
100
AcDbCircle
 10
4.3601284432
 20
8.062475945
 30
0.0
 40
0.1375000000000005
100
AcDbArc
 50
143.485607678
 51
156.514392322
  0
ARC
  5
9F
330
1F
100
AcDbEntity
  8
0
  6
Continuous
 62
     7
370
    15
100
AcDbCircle
 10
4.3601284432
 20
8.062475945
 30
0.0
 40
0.1375
100
AcDbArc
 50
203.485607678
 51
216.514392322
  0
ARC
  5
A0
330
1F
100
AcDbEntity
  8
0
  6
Continuous
 62
     7
370
    15
100
AcDbCircle
 10
4.3601284432
 20
8.062475945
 30
0.0
 40
0.1375000000000002
100
AcDbArc
 50
263.485607678
 51
276.514392322
  0
ARC
  5
A1
330
1F
100
AcDbEntity
  8
0
  6
Continuous
 62
     7
370
    15
100
AcDbCircle
 10
4.3601284432
 20
8.062475945
 30
0.0
 40
0.1375000000000008
100
AcDbArc
 50
23.485607678
 51
36.514392322
  0
ARC
  5
A2
330
1F
100
AcDbEntity
  8
0
  6
Continuous
 62
     7
370
    15
100
AcDbCircle
 10
4.3601284432
 20
8.062475945
 30
0.0
 40
0.1375000000000001
100
AcDbArc
 50
323.485607678
 51
336.514392322
  0
LINE
  5
A3
330
1F
100
AcDbEntity
  8
0
  6
Continuous
 62
     7
370
    15
100
AcDbLine
 10
5.1106284334
 20
8.4205284339
 30
0.0
 11
5.1106284334
 21
8.5180284109
 31
0.0
  0
LINE
  5
A4
330
1F
100
AcDbEntity
  8
0
  6
Continuous
 62
     7
370
    15
100
AcDbLine
 10
5.1106284334
 20
8.3230284202
 30
0.0
 11
5.1106284334
 21
8.4205284339
 31
0.0
  0
LINE
  5
A5
330
1F
100
AcDbEntity
  8
0
  6
Continuous
 62
     7
370
    15
100
AcDbLine
 10
5.0481284754
 20
8.3242178731
 30
0.0
 11
5.0481284754
 21
8.3230284202
 31
0.0
  0
LINE
  5
A6
330
1F
100
AcDbEntity
  8
0
  6
Continuous
 62
     7
370
    15
100
AcDbLine
 10
5.0481284754
 20
8.3242178731
 30
0.0
 11
4.8606284547
 21
8.3242178731
 31
0.0
  0
LINE
  5
A7
330
1F
100
AcDbEntity
  8
0
  6
Continuous
 62
     7
370
    15
100
AcDbLine
 10
4.8606284547
 20
8.3592241254
 30
0.0
 11
5.0481284754
 21
8.3592241254
 31
0.0
  0
LINE
  5
A8
330
1F
100
AcDbEntity
  8
0
  6
Continuous
 62
     7
370
    15
100
AcDbLine
 10
5.0481284754
 20
8.3855221449
 30
0.0
 11
5.0481284754
 21
8.3592241254
 31
0.0
  0
LINE
  5
A9
330
1F
100
AcDbEntity
  8
0
  6
Continuous
 62
     7
370
    15
100
AcDbLine
 10
5.0481284754
 20
8.3855221449
 30
0.0
 11
4.8606284547
 21
8.3855221449
 31
0.0
  0
LINE
  5
AA
330
1F
100
AcDbEntity
  8
0
  6
Continuous
 62
     7
370
    15
100
AcDbLine
 10
4.8606284547
 20
8.4555346861
 30
0.0
 11
5.0481284754
 21
8.4555346861
 31
0.0
  0
LINE
  5
AB
330
1F
100
AcDbEntity
  8
0
  6
Continuous
 62
     7
370
    15
100
AcDbLine
 10
5.0481284754
 20
8.4818327423
 30
0.0
 11
5.0481284754
 21
8.4555346861
 31
0.0
  0
LINE
  5
AC
330
1F
100
AcDbEntity
  8
0
  6
Continuous
 62
     7
370
    15
100
AcDbLine
 10
5.0481284754
 20
8.4818327423
 30
0.0
 11
4.8606284547
 21
8.4818327423
 31
0.0
  0
LINE
  5
AD
330
1F
100
AcDbEntity
  8
0
  6
Continuous
 62
     7
370
    15
100
AcDbLine
 10
4.8606284547
 20
8.516838958
 30
0.0
 11
5.0481284754
 21
8.516838958
 31
0.0
  0
LINE
  5
AE
330
1F
100
AcDbEntity
  8
0
  6
Continuous
 62
     7
370
    15
100
AcDbLine
 10
5.0481284754
 20
8.5180284109
 30
0.0
 11
5.0481284754
 21
8.516838958
 31
0.0
  0
LINE
  5
AF
330
1F
100
AcDbEntity
  8
0
  6
Continuous
 62
     7
370
    15
100
AcDbLine
 10
4.8606284547
 20
8.4818327423
 30
0.0
 11
4.8606284547
 21
8.516838958
 31
0.0
  0
LINE
  5
B0
330
1F
100
AcDbEntity
  8
0
  6
Continuous
 62
     7
370
    15
100
AcDbLine
 10
4.8606284547
 20
8.3855221449
 30
0.0
 11
4.8606284547
 21
8.4555346861
 31
0.0
  0
LINE
  5
B1
330
1F
100
AcDbEntity
  8
0
  6
Continuous
 62
     7
370
    15
100
AcDbLine
 10
4.8606284547
 20
8.3242178731
 30
0.0
 11
4.8606284547
 21
8.3592241254
 31
0.0
  0
LINE
  5
B2
330
1F
100
AcDbEntity
  8
0
  6
Continuous
 62
     7
370
    15
100
AcDbLine
 10
4.8606284547
 20
8.4818327423
 30
0.0
 11
4.8606284547
 21
8.4555346861
 31
0.0
  0
LINE
  5
B3
330
1F
100
AcDbEntity
  8
0
  6
Continuous
 62
     7
370
    15
100
AcDbLine
 10
4.8606284547
 20
8.3855221449
 30
0.0
 11
4.8606284547
 21
8.3592241254
 31
0.0
  0
LINE
  5
B4
330
1F
100
AcDbEntity
  8
0
  6
Continuous
 62
     7
370
    15
100
AcDbLine
 10
3.609628453
 20
8.5180284109
 30
0.0
 11
3.609628453
 21
8.3230284202
 31
0.0
  0
LINE
  5
B5
330
1F
100
AcDbEntity
  8
0
  6
Continuous
 62
     7
370
    15
100
AcDbLine
 10
3.8596284317
 20
8.4555346861
 30
0.0
 11
3.8596284317
 21
8.3855221449
 31
0.0
  0
LINE
  5
B6
330
1F
100
AcDbEntity
  8
0
  6
Continuous
 62
     7
370
    15
100
AcDbLine
 10
3.8596284317
 20
8.3855221449
 30
0.0
 11
3.672128411
 21
8.3855221449
 31
0.0
  0
LINE
  5
B7
330
1F
100
AcDbEntity
  8
0
  6
Continuous
 62
     7
370
    15
100
AcDbLine
 10
3.672128411
 20
8.3592241254
 30
0.0
 11
3.672128411
 21
8.3855221449
 31
0.0
  0
LINE
  5
B8
330
1F
100
AcDbEntity
  8
0
  6
Continuous
 62
     7
370
    15
100
AcDbLine
 10
3.672128411
 20
8.3592241254
 30
0.0
 11
3.8596284317
 21
8.3592241254
 31
0.0
  0
LINE
  5
B9
330
1F
100
AcDbEntity
  8
0
  6
Continuous
 62
     7
370
    15
100
AcDbLine
 10
3.8596284317
 20
8.3592241254
 30
0.0
 11
3.8596284317
 21
8.3242178731
 31
0.0
  0
LINE
  5
BA
330
1F
100
AcDbEntity
  8
0
  6
Continuous
 62
     7
370
    15
100
AcDbLine
 10
3.8596284317
 20
8.3242178731
 30
0.0
 11
3.672128411
 21
8.3242178731
 31
0.0
  0
LINE
  5
BB
330
1F
100
AcDbEntity
  8
0
  6
Continuous
 62
     7
370
    15
100
AcDbLine
 10
3.672128411
 20
8.3230284202
 30
0.0
 11
3.672128411
 21
8.3242178731
 31
0.0
  0
LINE
  5
BC
330
1F
100
AcDbEntity
  8
0
  6
Continuous
 62
     7
370
    15
100
AcDbLine
 10
3.672128411
 20
8.516838958
 30
0.0
 11
3.672128411
 21
8.5180284109
 31
0.0
  0
LINE
  5
BD
330
1F
100
AcDbEntity
  8
0
  6
Continuous
 62
     7
370
    15
100
AcDbLine
 10
3.672128411
 20
8.516838958
 30
0.0
 11
3.8596284317
 21
8.516838958
 31
0.0
  0
LINE
  5
BE
330
1F
100
AcDbEntity
  8
0
  6
Continuous
 62
     7
370
    15
100
AcDbLine
 10
3.8596284317
 20
8.516838958
 30
0.0
 11
3.8596284317
 21
8.4818327423
 31
0.0
  0
LINE
  5
BF
330
1F
100
AcDbEntity
  8
0
  6
Continuous
 62
     7
370
    15
100
AcDbLine
 10
3.8596284317
 20
8.4818327423
 30
0.0
 11
3.672128411
 21
8.4818327423
 31
0.0
  0
LINE
  5
C0
330
1F
100
AcDbEntity
  8
0
  6
Continuous
 62
     7
370
    15
100
AcDbLine
 10
3.672128411
 20
8.4555346861
 30
0.0
 11
3.672128411
 21
8.4818327423
 31
0.0
  0
LINE
  5
C1
330
1F
100
AcDbEntity
  8
0
  6
Continuous
 62
     7
370
    15
100
AcDbLine
 10
3.672128411
 20
8.4555346861
 30
0.0
 11
3.8596284317
 21
8.4555346861
 31
0.0
  0
LINE
  5
C2
330
1F
100
AcDbEntity
  8
0
  6
Continuous
 62
     7
370
    15
100
AcDbLine
 10
3.8596284317
 20
8.3592241254
 30
0.0
 11
3.8596284317
 21
8.3855221449
 31
0.0
  0
LINE
  5
C3
330
1F
100
AcDbEntity
  8
0
  6
Continuous
 62
     7
370
    15
100
AcDbLine
 10
3.8596284317
 20
8.4555346861
 30
0.0
 11
3.8596284317
 21
8.4818327423
 31
0.0
  0
LINE
  5
C4
330
1F
100
AcDbEntity
  8
0
  6
Continuous
 62
     7
370
    15
100
AcDbLine
 10
3.4141284448
 20
7.2826137625
 30
0.0
 11
3.4841284095
 21
7.2826137625
 31
0.0
  0
LINE
  5
C5
330
1F
100
AcDbEntity
  8
0
  6
Continuous
 62
     7
370
    15
100
AcDbLine
 10
5.3531284786
 20
8.3241009445
 30
0.0
 11
5.3531284786
 21
8.3354562966
 31
0.0
  0
LINE
  5
C6
330
1F
100
AcDbEntity
  8
0
  6
Continuous
 62
     7
370
    15
100
AcDbLine
 10
3.5273784432
 20
8.5037703756
 30
0.0
 11
3.5973784079
 21
8.5037703756
 31
0.0
  0
LINE
  5
C7
330
1F
100
AcDbEntity
  8
0
  6
Continuous
 62
     7
370
    15
100
AcDbLine
 10
3.5973784079
 20
8.4472553018
 30
0.0
 11
3.5273784432
 21
8.4472553018
 31
0.0
  0
LINE
  5
C8
330
1F
100
AcDbEntity
  8
0
  6
Continuous
 62
     7
370
    15
100
AcDbLine
 10
3.5273784432
 20
8.4472553018
 30
0.0
 11
3.5273784432
 21
8.5037703756
 31
0.0
  0
LINE
  5
C9
330
1F
100
AcDbEntity
  8
0
  6
Continuous
 62
     7
370
    15
100
AcDbLine
 10
3.5973784079
 20
8.5037703756
 30
0.0
 11
3.5973784079
 21
8.4472553018
 31
0.0
  0
ARC
  5
CA
330
1F
100
AcDbEntity
  8
0
  6
Continuous
 62
     7
370
    15
100
AcDbCircle
 10
3.5267620136
 20
8.4573866171
 30
0.0
 40
0.0463878544554735
100
AcDbArc
 50
89.2385970056
 51
179.218020698
  0
LWPOLYLINE
  5
CB
330
1F
100
AcDbEntity
  8
0
  6
Continuous
 62
     7
370
    15
100
AcDbPolyline
 90
        9
 70
   128
 43
0.0
 10
3.5273784432
 20
8.4472553018
 10
3.5182091691
 20
8.4474620994
 10
3.509392331
 20
8.4480746457
 10
3.5012666515
 20
8.4490694008
 10
3.4941444538
 20
8.4504080854
 10
3.4882993413
 20
8.4520392932
 10
3.4839560781
 20
8.453900325
 10
3.481281569
 20
8.4559196817
 10
3.4803784795
 20
8.4580197041
  0
LINE
  5
CC
330
1F
100
AcDbEntity
  8
0
  6
Continuous
 62
     7
370
    15
100
AcDbLine
 10
3.5973784079
 20
8.2995388882
 30
0.0
 11
3.5273784432
 21
8.2995388882
 31
0.0
  0
LINE
  5
CD
330
1F
100
AcDbEntity
  8
0
  6
Continuous
 62
     7
370
    15
100
AcDbLine
 10
3.5273784432
 20
8.2995388882
 30
0.0
 11
3.5273784432
 21
8.4472553018
 31
0.0
  0
LINE
  5
CE
330
1F
100
AcDbEntity
  8
0
  6
Continuous
 62
     7
370
    15
100
AcDbLine
 10
3.5973784079
 20
8.2995388882
 30
0.0
 11
3.5973784079
 21
8.4472553018
 31
0.0
  0
LWPOLYLINE
  5
CF
330
1F
100
AcDbEntity
  8
0
  6
Continuous
 62
     7
370
    15
100
AcDbPolyline
 90
        9
 70
   128
 43
0.0
 10
3.5273784432
 20
8.2995388882
 10
3.5182091691
 20
8.2997457225
 10
3.509392331
 20
8.3003583054
 10
3.5012666515
 20
8.3013530239
 10
3.4941444538
 20
8.3026917451
 10
3.4882993413
 20
8.304322953
 10
3.4839560781
 20
8.3061839481
 10
3.481281569
 20
8.3082033048
 10
3.4803784795
 20
8.3103033272
  0
LINE
  5
D0
330
1F
100
AcDbEntity
  8
0
  6
Continuous
 62
     7
370
    15
100
AcDbLine
 10
3.4803784795
 20
8.3103033272
 30
0.0
 11
3.4803784795
 21
8.4580197041
 31
0.0
  0
LINE
  5
D1
330
1F
100
AcDbEntity
  8
0
  6
Continuous
 62
     7
370
    15
100
AcDbLine
 10
3.5273784432
 20
8.5198025437
 30
0.0
 11
3.5273784432
 21
8.5037703756
 31
0.0
  0
LINE
  5
D2
330
1F
100
AcDbEntity
  8
0
  6
Continuous
 62
     7
370
    15
100
AcDbLine
 10
3.5973784079
 20
8.5198025437
 30
0.0
 11
3.5273784432
 21
8.5198025437
 31
0.0
  0
LINE
  5
D3
330
1F
100
AcDbEntity
  8
0
  6
Continuous
 62
     7
370
    15
100
AcDbLine
 10
3.5973784079
 20
8.5198025437
 30
0.0
 11
3.5973784079
 21
8.5037703756
 31
0.0
  0
LINE
  5
D4
330
1F
100
AcDbEntity
  8
0
  6
Continuous
 62
     7
370
    15
100
AcDbLine
 10
3.4803784795
 20
8.4580197041
 30
0.0
 11
3.4803784795
 21
8.4740518722
 31
0.0
  0
ARC
  5
D5
330
1F
100
AcDbEntity
  8
0
  6
Continuous
 62
     7
370
    15
100
AcDbCircle
 10
3.5267620438
 20
8.4734187542
 30
0.0
 40
0.0463878850710727
100
AcDbArc
 50
89.2386348067
 51
179.2179828969
  0
LINE
  5
D6
330
1F
100
AcDbEntity
  8
0
  6
Continuous
 62
     7
370
    15
100
AcDbLine
 10
3.5973784079
 20
8.521051836
 30
0.0
 11
3.5973784079
 21
8.5198025437
 31
0.0
  0
ARC
  5
D7
330
1F
100
AcDbEntity
  8
0
  6
Continuous
 62
     7
370
    15
100
AcDbCircle
 10
4.8732316056
 20
7.4978974377
 30
0.0
 40
0.0500000000000003
100
AcDbArc
 50
318.856085215
 51
138.856085215
  0
LINE
  5
D8
330
1F
100
AcDbEntity
  8
0
  6
Continuous
 62
     7
370
    15
100
AcDbLine
 10
4.7280754026
 20
7.255765676
 30
0.0
 11
4.9108845641
 21
7.4649997956
 31
0.0
  0
ARC
  5
D9
330
1F
100
AcDbEntity
  8
0
  6
Continuous
 62
     7
370
    15
100
AcDbCircle
 10
4.6468367997
 20
7.3670161019
 30
0.0
 40
0.0468750000000004
100
AcDbArc
 50
296.3309290193
 51
1.6895132811
  0
LINE
  5
DA
330
1F
100
AcDbEntity
  8
0
  6
Continuous
 62
     7
370
    15
100
AcDbLine
 10
4.8355786274
 20
7.5307950771
 30
0.0
 11
4.6936914132
 21
7.3683981415
 31
0.0
  0
CIRCLE
  5
DB
330
1F
100
AcDbEntity
  8
0
  6
Continuous
 62
     7
370
    15
100
AcDbCircle
 10
4.8732316056
 20
7.4978974377
 30
0.0
 40
0.0241250000000005
  0
ARC
  5
DC
330
1F
100
AcDbEntity
  8
0
  6
Continuous
 62
     7
370
    15
100
AcDbCircle
 10
4.5399072913
 20
7.2778770658
 30
0.0
 40
0.0612500000000003
100
AcDbArc
 50
131.3309557439
 51
192.1593062787
  0
ARC
  5
DD
330
1F
100
AcDbEntity
  8
0
  6
Continuous
 62
     7
370
    15
100
AcDbCircle
 10
4.6006712813
 20
7.3670794624
 30
0.0
 40
0.169182062105814
100
AcDbArc
 50
293.3139972111
 51
318.856085215
  0
LINE
  5
DE
330
1F
100
AcDbEntity
  8
0
  6
Continuous
 62
     7
370
    15
100
AcDbLine
 10
4.4994573345
 20
7.3238701426
 30
0.0
 11
4.5320034377
 21
7.3311923546
 31
0.0
  0
LINE
  5
DF
330
1F
100
AcDbEntity
  8
0
  6
Continuous
 62
     7
370
    15
100
AcDbLine
 10
4.5320034377
 20
7.2649759429
 30
0.0
 11
4.5320034377
 21
7.3399759365
 31
0.0
  0
LINE
  5
E0
330
1F
100
AcDbEntity
  8
0
  6
Continuous
 62
     7
370
    15
100
AcDbLine
 10
4.6676284426
 20
7.3399759365
 30
0.0
 11
4.6676284426
 21
7.1837259315
 31
0.0
  0
LINE
  5
E1
330
1F
100
AcDbEntity
  8
0
  6
Continuous
 62
     7
370
    15
100
AcDbLine
 10
4.0526284438
 20
7.1837259315
 30
0.0
 11
4.6676284426
 21
7.1837259315
 31
0.0
  0
LINE
  5
E2
330
1F
100
AcDbEntity
  8
0
  6
Continuous
 62
     7
370
    15
100
AcDbLine
 10
4.0526284438
 20
7.3399759365
 30
0.0
 11
4.0526284438
 21
7.1837259315
 31
0.0
  0
LINE
  5
E3
330
1F
100
AcDbEntity
  8
0
  6
Continuous
 62
     7
370
    15
100
AcDbLine
 10
4.0526284438
 20
7.3399759365
 30
0.0
 11
4.1882534487
 21
7.3399759365
 31
0.0
  0
LINE
  5
E4
330
1F
100
AcDbEntity
  8
0
  6
Continuous
 62
     7
370
    15
100
AcDbLine
 10
4.1882534487
 20
7.2649759429
 30
0.0
 11
4.1882534487
 21
7.3399759365
 31
0.0
  0
LINE
  5
E5
330
1F
100
AcDbEntity
  8
0
  6
Continuous
 62
     7
370
    15
100
AcDbLine
 10
4.1882534487
 20
7.2649759429
 30
0.0
 11
4.5320034377
 21
7.2649759429
 31
0.0
  0
CIRCLE
  5
E6
330
1F
100
AcDbEntity
  8
0
  6
Continuous
 62
     7
370
    15
100
AcDbCircle
 10
4.6206284432
 20
7.261975945
 30
0.0
 40
0.0241250000000006
  0
LINE
  5
E7
330
1F
100
AcDbEntity
  8
0
  6
Continuous
 62
     7
370
    15
100
AcDbLine
 10
4.5320034377
 20
7.3399759365
 30
0.0
 11
4.6676284426
 21
7.3399759365
 31
0.0
  0
LINE
  5
E8
330
1F
100
AcDbEntity
  8
0
  6
Continuous
 62
     7
370
    15
100
AcDbLine
 10
4.2507534434
 20
7.2649759429
 30
0.0
 11
4.2507534434
 21
7.3399759365
 31
0.0
  0
LINE
  5
E9
330
1F
100
AcDbEntity
  8
0
  6
Continuous
 62
     7
370
    15
100
AcDbLine
 10
4.1950023291
 20
7.3399759365
 30
0.0
 11
4.1882534487
 21
7.3399759365
 31
0.0
  0
LINE
  5
EA
330
1F
100
AcDbEntity
  8
0
  6
Continuous
 62
     7
370
    15
100
AcDbLine
 10
4.5275179828
 20
7.3301832263
 30
0.0
 11
4.5275179828
 21
7.3399759365
 31
0.0
  0
LINE
  5
EB
330
1F
100
AcDbEntity
  8
0
  6
Continuous
 62
     7
370
    15
100
AcDbLine
 10
4.5320034377
 20
7.3399759365
 30
0.0
 11
4.5275179828
 21
7.3399759365
 31
0.0
  0
LINE
  5
EC
330
1F
100
AcDbEntity
  8
0
  6
Continuous
 62
     7
370
    15
100
AcDbLine
 10
4.469503443
 20
7.2649759429
 30
0.0
 11
4.469503443
 21
7.3399759365
 31
0.0
  0
LINE
  5
ED
330
1F
100
AcDbEntity
  8
0
  6
Continuous
 62
     7
370
    15
100
AcDbLine
 10
4.5275179828
 20
7.3399759365
 30
0.0
 11
4.5252545573
 21
7.3399759365
 31
0.0
  0
LINE
  5
EE
330
1F
100
AcDbEntity
  8
0
  6
Continuous
 62
     7
370
    15
100
AcDbLine
 10
5.3442584011
 20
8.3663945759
 30
0.0
 11
5.3442584011
 21
8.3934672065
 31
0.0
  0
LINE
  5
EF
330
1F
100
AcDbEntity
  8
0
  6
Continuous
 62
     7
370
    15
100
AcDbLine
 10
5.3442584011
 20
8.3934672065
 30
0.0
 11
5.3442584011
 21
8.4476010645
 31
0.0
  0
LINE
  5
F0
330
1F
100
AcDbEntity
  8
0
  6
Continuous
 62
     7
370
    15
100
AcDbLine
 10
5.3442584011
 20
8.4476010645
 30
0.0
 11
5.3442584011
 21
8.4746622918
 31
0.0
  0
LINE
  5
F1
330
1F
100
AcDbEntity
  8
0
  6
Continuous
 62
     7
370
    15
100
AcDbLine
 10
5.4714729582
 20
8.3663945759
 30
0.0
 11
5.4714729582
 21
8.4746622918
 31
0.0
  0
LINE
  5
F2
330
1F
100
AcDbEntity
  8
0
  6
Continuous
 62
     7
370
    15
100
AcDbLine
 10
5.3442584011
 20
8.3663945759
 30
0.0
 11
5.321128455
 21
8.3663945759
 31
0.0
  0
LINE
  5
F3
330
1F
100
AcDbEntity
  8
0
  6
Continuous
 62
     7
370
    15
100
AcDbLine
 10
5.3442584011
 20
8.3934672065
 30
0.0
 11
5.321128455
 21
8.3934672065
 31
0.0
  0
LINE
  5
F4
330
1F
100
AcDbEntity
  8
0
  6
Continuous
 62
     7
370
    15
100
AcDbLine
 10
5.321128455
 20
8.3934672065
 30
0.0
 11
5.321128455
 21
8.3663945759
 31
0.0
  0
LINE
  5
F5
330
1F
100
AcDbEntity
  8
0
  6
Continuous
 62
     7
370
    15
100
AcDbLine
 10
5.3442584011
 20
8.4476010645
 30
0.0
 11
5.321128455
 21
8.4476010645
 31
0.0
  0
LINE
  5
F6
330
1F
100
AcDbEntity
  8
0
  6
Continuous
 62
     7
370
    15
100
AcDbLine
 10
5.321128455
 20
8.4476010645
 30
0.0
 11
5.321128455
 21
8.3934672065
 31
0.0
  0
LINE
  5
F7
330
1F
100
AcDbEntity
  8
0
  6
Continuous
 62
     7
370
    15
100
AcDbLine
 10
5.3442584011
 20
8.4746622918
 30
0.0
 11
5.321128455
 21
8.4746622918
 31
0.0
  0
LINE
  5
F8
330
1F
100
AcDbEntity
  8
0
  6
Continuous
 62
     7
370
    15
100
AcDbLine
 10
5.321128455
 20
8.4746622918
 30
0.0
 11
5.321128455
 21
8.4476010645
 31
0.0
  0
LINE
  5
F9
330
1F
100
AcDbEntity
  8
0
  6
Continuous
 62
     7
370
    15
100
AcDbLine
 10
5.3148784738
 20
8.4989032985
 30
0.0
 11
5.3148784738
 21
8.4484004619
 31
0.0
  0
LINE
  5
FA
330
1F
100
AcDbEntity
  8
0
  6
Continuous
 62
     7
370
    15
100
AcDbLine
 10
5.3148784738
 20
8.4484004619
 30
0.0
 11
5.3098784449
 21
8.4472553018
 31
0.0
  0
LINE
  5
FB
330
1F
100
AcDbEntity
  8
0
  6
Continuous
 62
     7
370
    15
100
AcDbLine
 10
5.3098784449
 20
8.4472553018
 30
0.0
 11
5.3098784449
 21
8.5037703756
 31
0.0
  0
LINE
  5
FC
330
1F
100
AcDbEntity
  8
0
  6
Continuous
 62
     7
370
    15
100
AcDbLine
 10
5.3148784738
 20
8.4989032985
 30
0.0
 11
5.3098784449
 21
8.5037703756
 31
0.0
  0
LINE
  5
FD
330
1F
100
AcDbEntity
  8
0
  6
Continuous
 62
     7
370
    15
100
AcDbLine
 10
5.1228784785
 20
8.4472553018
 30
0.0
 11
5.1228784785
 21
8.5037703756
 31
0.0
  0
LINE
  5
FE
330
1F
100
AcDbEntity
  8
0
  6
Continuous
 62
     7
370
    15
100
AcDbLine
 10
5.1228784785
 20
8.5037703756
 30
0.0
 11
5.3098784449
 21
8.5037703756
 31
0.0
  0
LINE
  5
FF
330
1F
100
AcDbEntity
  8
0
  6
Continuous
 62
     7
370
    15
100
AcDbLine
 10
5.3098784449
 20
8.4472553018
 30
0.0
 11
5.1228784785
 21
8.4472553018
 31
0.0
  0
LINE
  5
100
330
1F
100
AcDbEntity
  8
0
  6
Continuous
 62
     7
370
    15
100
AcDbLine
 10
5.3098784449
 20
8.2861543895
 30
0.0
 11
5.3148784738
 21
8.2872995496
 31
0.0
  0
LINE
  5
101
330
1F
100
AcDbEntity
  8
0
  6
Continuous
 62
     7
370
    15
100
AcDbLine
 10
5.3098784449
 20
8.2861543895
 30
0.0
 11
5.3098784449
 21
8.4472553018
 31
0.0
  0
LINE
  5
102
330
1F
100
AcDbEntity
  8
0
  6
Continuous
 62
     7
370
    15
100
AcDbLine
 10
5.3148784738
 20
8.4484004619
 30
0.0
 11
5.3148784738
 21
8.2872995496
 31
0.0
  0
LINE
  5
103
330
1F
100
AcDbEntity
  8
0
  6
Continuous
 62
     7
370
    15
100
AcDbLine
 10
5.3098784449
 20
8.2861543895
 30
0.0
 11
5.2228214173
 21
8.2861543895
 31
0.0
  0
LINE
  5
104
330
1F
100
AcDbEntity
  8
0
  6
Continuous
 62
     7
370
    15
100
AcDbLine
 10
5.2228214173
 20
8.2852060538
 30
0.0
 11
5.2228214173
 21
8.2861543895
 31
0.0
  0
LINE
  5
105
330
1F
100
AcDbEntity
  8
0
  6
Continuous
 62
     7
370
    15
100
AcDbLine
 10
5.1228784785
 20
8.2852060538
 30
0.0
 11
5.1228784785
 21
8.4472553018
 31
0.0
  0
LINE
  5
106
330
1F
100
AcDbEntity
  8
0
  6
Continuous
 62
     7
370
    15
100
AcDbLine
 10
5.3098784449
 20
8.5198025437
 30
0.0
 11
5.1228784785
 21
8.5198025437
 31
0.0
  0
LINE
  5
107
330
1F
100
AcDbEntity
  8
0
  6
Continuous
 62
     7
370
    15
100
AcDbLine
 10
5.3098784449
 20
8.5037703756
 30
0.0
 11
5.3098784449
 21
8.5198025437
 31
0.0
  0
LINE
  5
108
330
1F
100
AcDbEntity
  8
0
  6
Continuous
 62
     7
370
    15
100
AcDbLine
 10
5.1228784785
 20
8.5037703756
 30
0.0
 11
5.1228784785
 21
8.5198025437
 31
0.0
  0
LINE
  5
109
330
1F
100
AcDbEntity
  8
0
  6
Continuous
 62
     7
370
    15
100
AcDbLine
 10
5.3098784449
 20
8.5198025437
 30
0.0
 11
5.3148784738
 21
8.5149354666
 31
0.0
  0
LINE
  5
10A
330
1F
100
AcDbEntity
  8
0
  6
Continuous
 62
     7
370
    15
100
AcDbLine
 10
5.3148784738
 20
8.5149354666
 30
0.0
 11
5.3148784738
 21
8.4989032985
 31
0.0
  0
LINE
  5
10B
330
1F
100
AcDbEntity
  8
0
  6
Continuous
 62
     7
370
    15
100
AcDbLine
 10
5.3098784449
 20
8.5198025437
 30
0.0
 11
5.3098784449
 21
8.521051836
 31
0.0
  0
LINE
  5
10C
330
1F
100
AcDbEntity
  8
0
  6
Continuous
 62
     7
370
    15
100
AcDbLine
 10
5.1228784785
 20
8.5198025437
 30
0.0
 11
5.1228784785
 21
8.521051836
 31
0.0
  0
LINE
  5
10D
330
1F
100
AcDbEntity
  8
0
  6
Continuous
 62
     7
370
    15
100
AcDbLine
 10
5.3148784738
 20
8.516051807
 30
0.0
 11
5.3148784738
 21
8.5149354666
 31
0.0
  0
ARC
  5
10E
330
1F
100
AcDbEntity
  8
0
  6
Continuous
 62
     7
370
    15
100
AcDbCircle
 10
3.4728784432
 20
7.806975945
 30
0.0
 40
0.0645933530658679
100
AcDbArc
 50
186.6677110222
 51
353.3322889778
  0
LINE
  5
10F
330
1F
100
AcDbEntity
  8
0
  6
Continuous
 62
     7
370
    15
100
AcDbLine
 10
3.4087220073
 20
7.7994759452
 30
0.0
 11
3.5370349383
 21
7.7994759452
 31
0.0
  0
ARC
  5
110
330
1F
100
AcDbEntity
  8
0
  6
Continuous
 62
     7
370
    15
100
AcDbCircle
 10
3.4728784432
 20
7.806975945
 30
0.0
 40
0.0781250000000003
100
AcDbArc
 50
185.5088786712
 51
354.4911213288
  0
LINE
  5
111
330
1F
100
AcDbEntity
  8
0
  6
Continuous
 62
     7
370
    15
100
AcDbLine
 10
3.404182653
 20
7.7994759452
 30
0.0
 11
3.4087220073
 21
7.7994759452
 31
0.0
  0
LINE
  5
112
330
1F
100
AcDbEntity
  8
0
  6
Continuous
 62
     7
370
    15
100
AcDbLine
 10
3.5370349383
 20
7.7994759452
 30
0.0
 11
3.5415962189
 21
7.7994759452
 31
0.0
  0
ARC
  5
113
330
1F
100
AcDbEntity
  8
0
  6
Continuous
 62
     7
370
    15
100
AcDbCircle
 10
3.4728784432
 20
7.806975945
 30
0.0
 40
0.0645933530658678
100
AcDbArc
 50
6.6677110222
 51
173.3322889778
  0
LINE
  5
114
330
1F
100
AcDbEntity
  8
0
  6
Continuous
 62
     7
370
    15
100
AcDbLine
 10
3.5370349383
 20
7.8144759448
 30
0.0
 11
3.4087220073
 21
7.8144759448
 31
0.0
  0
ARC
  5
115
330
1F
100
AcDbEntity
  8
0
  6
Continuous
 62
     7
370
    15
100
AcDbCircle
 10
3.4728784432
 20
7.806975945
 30
0.0
 40
0.0781250000000002
100
AcDbArc
 50
5.5088786712
 51
174.4911213288
  0
SPLINE
  5
116
330
1F
100
AcDbEntity
  8
0
  6
Continuous
 62
     7
370
    15
100
AcDbSpline
210
0.0
220
0.0
230
1.0
 70
    24
 71
     3
 72
     9
 73
     5
 74
     0
 42
0.00000001
 43
0.00000001
 12
1.0
 22
0.0
 32
0.0
 13
1.0
 23
0.0
 33
0.0
 40
0.0
 40
0.0
 40
0.0
 40
0.0
 40
0.8993281968279105
 40
1.0
 40
1.0
 40
1.0
 40
1.0
 10
3.408722007252401
 20
7.814475944834879
 30
0.0
 10
3.407105686374061
 20
7.814475944834879
 30
0.0
 10
3.405308432730684
 20
7.814475944834879
 30
0.0
 10
3.403511902772917
 20
7.814475944834879
 30
0.0
 10
3.403331042862616
 20
7.814475944834879
 30
0.0
  0
LINE
  5
117
330
1F
100
AcDbEntity
  8
0
  6
Continuous
 62
     7
370
    15
100
AcDbLine
 10
3.541616092
 20
7.8144759448
 30
0.0
 11
3.5370349383
 21
7.8144759448
 31
0.0
  0
ARC
  5
118
330
1F
100
AcDbEntity
  8
0
  6
Continuous
 62
     7
370
    15
100
AcDbCircle
 10
3.4728784432
 20
7.806975945
 30
0.0
 40
0.0656758848205992
100
AcDbArc
 50
173.4426789397
 51
186.5573210603
  0
ARC
  5
119
330
1F
100
AcDbEntity
  8
0
  6
Continuous
 62
     7
370
    15
100
AcDbCircle
 10
3.4728784432
 20
7.806975945
 30
0.0
 40
0.0656758848205992
100
AcDbArc
 50
353.4426789397
 51
6.5573210603
  0
ARC
  5
11A
330
1F
100
AcDbEntity
  8
0
  6
Continuous
 62
     7
370
    15
100
AcDbCircle
 10
5.2473784432
 20
7.806975945
 30
0.0
 40
0.0645933530658685
100
AcDbArc
 50
6.6677110222
 51
173.3322889778
  0
LINE
  5
11B
330
1F
100
AcDbEntity
  8
0
  6
Continuous
 62
     7
370
    15
100
AcDbLine
 10
5.1832219481
 20
7.8144759448
 30
0.0
 11
5.1786606674
 21
7.8144759448
 31
0.0
  0
ARC
  5
11C
330
1F
100
AcDbEntity
  8
0
  6
Continuous
 62
     7
370
    15
100
AcDbCircle
 10
5.2473784432
 20
7.806975945
 30
0.0
 40
0.0781250000000004
100
AcDbArc
 50
5.5088786712
 51
174.4911213288
  0
LINE
  5
11D
330
1F
100
AcDbEntity
  8
0
  6
Continuous
 62
     7
370
    15
100
AcDbLine
 10
5.3160742334
 20
7.8144759448
 30
0.0
 11
5.3115348791
 21
7.8144759448
 31
0.0
  0
ARC
  5
11E
330
1F
100
AcDbEntity
  8
0
  6
Continuous
 62
     7
370
    15
100
AcDbCircle
 10
5.2473784432
 20
7.806975945
 30
0.0
 40
0.0781250000000001
100
AcDbArc
 50
185.5088786712
 51
354.4911213288
  0
LINE
  5
11F
330
1F
100
AcDbEntity
  8
0
  6
Continuous
 62
     7
370
    15
100
AcDbLine
 10
5.1786407943
 20
7.7994759452
 30
0.0
 11
5.1832219481
 21
7.7994759452
 31
0.0
  0
ARC
  5
120
330
1F
100
AcDbEntity
  8
0
  6
Continuous
 62
     7
370
    15
100
AcDbCircle
 10
5.2473784432
 20
7.806975945
 30
0.0
 40
0.0645933530658682
100
AcDbArc
 50
186.6677110222
 51
353.3322889778
  0
SPLINE
  5
121
330
1F
100
AcDbEntity
  8
0
  6
Continuous
 62
     7
370
    15
100
AcDbSpline
210
0.0
220
0.0
230
1.0
 70
    24
 71
     3
 72
     9
 73
     5
 74
     0
 42
0.00000001
 43
0.00000001
 12
1.0
 22
0.0
 32
0.0
 13
1.0
 23
0.0
 33
0.0
 40
0.0
 40
0.0
 40
0.0
 40
0.0
 40
0.8993281968279105
 40
1.0
 40
1.0
 40
1.0
 40
1.0
 10
5.311534879129066
 20
7.799475945199489
 30
0.0
 10
5.313151200007406
 20
7.799475945199489
 30
0.0
 10
5.314948453650783
 20
7.799475945199489
 30
0.0
 10
5.31674498360855
 20
7.799475945199489
 30
0.0
 10
5.316925843518852
 20
7.799475945199489
 30
0.0
  0
LINE
  5
122
330
1F
100
AcDbEntity
  8
0
  6
Continuous
 62
     7
370
    15
100
AcDbLine
 10
5.1832219481
 20
7.7994759452
 30
0.0
 11
5.3115348791
 21
7.7994759452
 31
0.0
  0
LINE
  5
123
330
1F
100
AcDbEntity
  8
0
  6
Continuous
 62
     7
370
    15
100
AcDbLine
 10
5.3115348791
 20
7.8144759448
 30
0.0
 11
5.1832219481
 21
7.8144759448
 31
0.0
  0
ARC
  5
124
330
1F
100
AcDbEntity
  8
0
  6
Continuous
 62
     7
370
    15
100
AcDbCircle
 10
5.2473784432
 20
7.806975945
 30
0.0
 40
0.0656758848205997
100
AcDbArc
 50
173.4426789397
 51
186.5573210603
  0
ARC
  5
125
330
1F
100
AcDbEntity
  8
0
  6
Continuous
 62
     7
370
    15
100
AcDbCircle
 10
5.2473784432
 20
7.806975945
 30
0.0
 40
0.0656758848205989
100
AcDbArc
 50
353.4426789397
 51
6.5573210603
  0
LINE
  5
126
330
1F
100
AcDbEntity
  8
0
  6
Continuous
 62
     7
370
    15
100
AcDbLine
 10
3.8823784422
 20
8.328992368
 30
0.0
 11
3.8596284317
 21
8.328992368
 31
0.0
  0
LINE
  5
127
330
1F
100
AcDbEntity
  8
0
  6
Continuous
 62
     7
370
    15
100
AcDbLine
 10
3.8823784422
 20
8.328992368
 30
0.0
 11
3.8823784422
 21
8.3299759399
 31
0.0
  0
LINE
  5
128
330
1F
100
AcDbEntity
  8
0
  6
Continuous
 62
     7
370
    15
100
AcDbLine
 10
3.8948784411
 20
8.3241009445
 30
0.0
 11
3.8948784411
 21
8.3299759399
 31
0.0
  0
LINE
  5
129
330
1F
100
AcDbEntity
  8
0
  6
Continuous
 62
     7
370
    15
100
AcDbLine
 10
4.4322972253
 20
7.6264759502
 30
0.0
 11
4.4397405185
 21
7.6135837874
 31
0.0
  0
LINE
  5
12A
330
1F
100
AcDbEntity
  8
0
  6
Continuous
 62
     7
370
    15
100
AcDbLine
 10
4.4970227143
 20
7.5143681052
 30
0.0
 11
4.5044660075
 21
7.5014759425
 31
0.0
  0
LINE
  5
12B
330
1F
100
AcDbEntity
  8
0
  6
Continuous
 62
     7
370
    15
100
AcDbLine
 10
4.4322972253
 20
7.3764759349
 30
0.0
 11
4.417410639
 21
7.3764759349
 31
0.0
  0
LINE
  5
12C
330
1F
100
AcDbEntity
  8
0
  6
Continuous
 62
     7
370
    15
100
AcDbLine
 10
4.3028462474
 20
7.3764759349
 30
0.0
 11
4.2879596611
 21
7.3764759349
 31
0.0
  0
LINE
  5
12D
330
1F
100
AcDbEntity
  8
0
  6
Continuous
 62
     7
370
    15
100
AcDbLine
 10
4.2879596611
 20
7.3764759349
 30
0.0
 11
4.2805163679
 21
7.3893681159
 31
0.0
  0
LINE
  5
12E
330
1F
100
AcDbEntity
  8
0
  6
Continuous
 62
     7
370
    15
100
AcDbLine
 10
4.2232341721
 20
7.4885837798
 30
0.0
 11
4.2157908789
 21
7.5014759425
 31
0.0
  0
LINE
  5
12F
330
1F
100
AcDbEntity
  8
0
  6
Continuous
 62
     7
370
    15
100
AcDbLine
 10
4.5044660075
 20
7.5014759425
 30
0.0
 11
4.4970227143
 21
7.4885837798
 31
0.0
  0
LINE
  5
130
330
1F
100
AcDbEntity
  8
0
  6
Continuous
 62
     7
370
    15
100
AcDbLine
 10
4.4397405185
 20
7.3893681159
 30
0.0
 11
4.4322972253
 21
7.3764759349
 31
0.0
  0
LINE
  5
131
330
1F
100
AcDbEntity
  8
0
  6
Continuous
 62
     7
370
    15
100
AcDbLine
 10
4.2879596611
 20
7.6264759502
 30
0.0
 11
4.3028462474
 21
7.6264759502
 31
0.0
  0
LINE
  5
132
330
1F
100
AcDbEntity
  8
0
  6
Continuous
 62
     7
370
    15
100
AcDbLine
 10
4.417410639
 20
7.6264759502
 30
0.0
 11
4.4322972253
 21
7.6264759502
 31
0.0
  0
LINE
  5
133
330
1F
100
AcDbEntity
  8
0
  6
Continuous
 62
     7
370
    15
100
AcDbLine
 10
4.2157908789
 20
7.5014759425
 30
0.0
 11
4.2232341721
 21
7.5143681052
 31
0.0
  0
LINE
  5
134
330
1F
100
AcDbEntity
  8
0
  6
Continuous
 62
     7
370
    15
100
AcDbLine
 10
4.2805163679
 20
7.6135837874
 30
0.0
 11
4.2879596611
 21
7.6264759502
 31
0.0
  0
LINE
  5
135
330
1F
100
AcDbEntity
  8
0
  6
Continuous
 62
     7
370
    15
100
AcDbLine
 10
4.2879596611
 20
8.1874759594
 30
0.0
 11
4.3028462474
 21
8.1874759594
 31
0.0
  0
LINE
  5
136
330
1F
100
AcDbEntity
  8
0
  6
Continuous
 62
     7
370
    15
100
AcDbLine
 10
4.417410639
 20
8.1874759594
 30
0.0
 11
4.4322972253
 21
8.1874759594
 31
0.0
  0
LINE
  5
137
330
1F
100
AcDbEntity
  8
0
  6
Continuous
 62
     7
370
    15
100
AcDbLine
 10
4.4322972253
 20
8.1874759594
 30
0.0
 11
4.4397405185
 21
8.1745837784
 31
0.0
  0
LINE
  5
138
330
1F
100
AcDbEntity
  8
0
  6
Continuous
 62
     7
370
    15
100
AcDbLine
 10
4.4970227143
 20
8.0753681145
 30
0.0
 11
4.5044660075
 21
8.0624759518
 31
0.0
  0
LINE
  5
139
330
1F
100
AcDbEntity
  8
0
  6
Continuous
 62
     7
370
    15
100
AcDbLine
 10
4.2879596611
 20
7.9374759441
 30
0.0
 11
4.2805163679
 21
7.9503681069
 31
0.0
  0
LINE
  5
13A
330
1F
100
AcDbEntity
  8
0
  6
Continuous
 62
     7
370
    15
100
AcDbLine
 10
4.2232341721
 20
8.0495837891
 30
0.0
 11
4.2157908789
 21
8.0624759518
 31
0.0
  0
LINE
  5
13B
330
1F
100
AcDbEntity
  8
0
  6
Continuous
 62
     7
370
    15
100
AcDbLine
 10
4.2157908789
 20
8.0624759518
 30
0.0
 11
4.2232341721
 21
8.0753681145
 31
0.0
  0
LINE
  5
13C
330
1F
100
AcDbEntity
  8
0
  6
Continuous
 62
     7
370
    15
100
AcDbLine
 10
4.2805163679
 20
8.1745837784
 30
0.0
 11
4.2879596611
 21
8.1874759594
 31
0.0
  0
LINE
  5
13D
330
1F
100
AcDbEntity
  8
0
  6
Continuous
 62
     7
370
    15
100
AcDbLine
 10
4.5044660075
 20
8.0624759518
 30
0.0
 11
4.4970227143
 21
8.0495837891
 31
0.0
  0
LINE
  5
13E
330
1F
100
AcDbEntity
  8
0
  6
Continuous
 62
     7
370
    15
100
AcDbLine
 10
4.4397405185
 20
7.9503681069
 30
0.0
 11
4.4322972253
 21
7.9374759441
 31
0.0
  0
LINE
  5
13F
330
1F
100
AcDbEntity
  8
0
  6
Continuous
 62
     7
370
    15
100
AcDbLine
 10
4.4322972253
 20
7.9374759441
 30
0.0
 11
4.417410639
 21
7.9374759441
 31
0.0
  0
LINE
  5
140
330
1F
100
AcDbEntity
  8
0
  6
Continuous
 62
     7
370
    15
100
AcDbLine
 10
4.3028462474
 20
7.9374759441
 30
0.0
 11
4.2879596611
 21
7.9374759441
 31
0.0
  0
LINE
  5
141
330
1F
100
AcDbEntity
  8
0
  6
Continuous
 62
     7
370
    15
100
AcDbLine
 10
5.3971284103
 20
7.7967600193
 30
0.0
 11
5.3971284103
 21
7.9028192953
 31
0.0
  0
LINE
  5
142
330
1F
100
AcDbEntity
  8
0
  6
Continuous
 62
     7
370
    15
100
AcDbLine
 10
5.3971284103
 20
7.7111325947
 30
0.0
 11
5.3971284103
 21
7.7967600193
 31
0.0
  0
LINE
  5
143
330
1F
100
AcDbEntity
  8
0
  6
Continuous
 62
     7
370
    15
100
AcDbLine
 10
3.6319114089
 20
8.319553707
 30
0.0
 11
3.5973784079
 21
8.319553707
 31
0.0
  0
LINE
  5
144
330
1F
100
AcDbEntity
  8
0
  6
Continuous
 62
     7
370
    15
100
AcDbLine
 10
3.4803784795
 20
8.319553707
 30
0.0
 11
3.453845466
 21
8.319553707
 31
0.0
  0
SPLINE
  5
145
330
1F
100
AcDbEntity
  8
0
  6
Continuous
 62
     7
370
    15
100
AcDbSpline
210
0.0
220
0.0
230
1.0
 70
     8
 71
     3
 72
    14
 73
    10
 74
     0
 42
0.00000001
 43
0.00000001
 12
1.0
 22
0.0
 32
0.0
 13
1.0
 23
0.0
 33
0.0
 40
0.0
 40
0.0
 40
0.0
 40
0.0
 40
0.160705299870935
 40
0.3213967206890146
 40
0.4821761602419232
 40
0.6429544939874241
 40
0.8024376509409012
 40
0.961933935124525
 40
0.9999999999999999
 40
0.9999999999999999
 40
0.9999999999999999
 40
0.9999999999999999
 10
3.453845465982356
 20
8.31955370700847
 30
0.0
 10
3.451272496470405
 20
8.318836689105558
 30
0.0
 10
3.446126779656847
 20
8.317402715223821
 30
0.0
 10
3.441686482931929
 20
8.314449167643993
 30
0.0
 10
3.439932150217838
 20
8.310875180297069
 30
0.0
 10
3.441020997037319
 20
8.306752211625112
 30
0.0
 10
3.44497031450655
 20
8.302200105422356
 30
0.0
 10
3.449812225210103
 20
8.29864062056087
 30
0.0
 10
3.453193890892869
 20
8.296669686233615
 30
0.0
 10
3.453845465982356
 20
8.296289929086951
 30
0.0
  0
LINE
  5
146
330
1F
100
AcDbEntity
  8
0
  6
Continuous
 62
     7
370
    15
100
AcDbLine
 10
3.453845466
 20
8.2962899291
 30
0.0
 11
3.6319114089
 21
8.2962899291
 31
0.0
  0
SPLINE
  5
147
330
1F
100
AcDbEntity
  8
0
  6
Continuous
 62
     7
370
    15
100
AcDbSpline
210
0.0
220
0.0
230
1.0
 70
     8
 71
     3
 72
    14
 73
    10
 74
     0
 42
0.00000001
 43
0.00000001
 12
1.0
 22
0.0
 32
0.0
 13
1.0
 23
0.0
 33
0.0
 40
0.0
 40
0.0
 40
0.0
 40
0.0
 40
0.1607053382602342
 40
0.3213969433404985
 40
0.4821762277412815
 40
0.6429544894521613
 40
0.8024377191030841
 40
0.961933982178629
 40
1.0
 40
1.0
 40
1.0
 40
1.0
 10
3.631911408949387
 20
8.296289929086951
 30
0.0
 10
3.634484368351801
 20
8.297896806631362
 30
0.0
 10
3.639630067282694
 20
8.301110424403408
 30
0.0
 10
3.644070513734198
 20
8.305761737173993
 30
0.0
 10
3.645824692139322
 20
8.310001006234142
 30
0.0
 10
3.644735885162339
 20
8.313710971983983
 30
0.0
 10
3.640786558898139
 20
8.316757386525007
 30
0.0
 10
3.635944653183663
 20
8.31857135646621
 30
0.0
 10
3.632562984111348
 20
8.319395007168715
 30
0.0
 10
3.631911408949387
 20
8.31955370700847
 30
0.0
  0
SPLINE
  5
148
330
1F
100
AcDbEntity
  8
0
  6
Continuous
 62
     7
370
    15
100
AcDbSpline
210
0.0
220
0.0
230
1.0
 70
    11
 71
     3
 72
    26
 73
    22
 74
     0
 42
0.00000001
 43
0.00000001
 12
1.0
 22
0.0
 32
0.0
 13
1.0
 23
0.0
 33
0.0
 40
0.0
 40
0.0
 40
0.0
 40
0.0
 40
0.0533529856363867
 40
0.1066940511292799
 40
0.1603432584048925
 40
0.214197498245715
 40
0.2677191341339671
 40
0.3208938859735285
 40
0.3742387173338951
 40
0.4280094781641474
 40
0.4818051001678943
 40
0.5351750920706245
 40
0.5883358260378452
 40
0.6418268629973618
 40
0.6956744124442075
 40
0.7493507911087912
 40
0.8025998584842123
 40
0.855826817737084
 40
0.9094668384482536
 40
0.9633232836446779
 40
1.0
 40
1.0
 40
1.0
 40
1.0
 10
3.472878472778104
 20
7.736975943663173
 30
0.0
 10
3.465047380235237
 20
7.737742612883513
 30
0.0
 10
3.449386944775054
 20
7.739275780034677
 30
0.0
 10
3.428516828967192
 20
7.751218779569823
 30
0.0
 10
3.412554144265551
 20
7.768863996738768
 30
0.0
 10
3.40334649326092
 20
7.791008272235302
 30
0.0
 10
3.401990021472739
 20
7.81487286663
 30
0.0
 10
3.408548241475278
 20
7.837763826451132
 30
0.0
 10
3.422254228050416
 20
7.8572262130536
 30
0.0
 10
3.441689472626727
 20
7.871142055342993
 30
0.0
 10
3.464686606473452
 20
7.877843192933812
 30
0.0
 10
3.48852791194977
 20
7.876559540059151
 30
0.0
 10
3.510541921532463
 20
7.867539450784878
 30
0.0
 10
3.52840249139788
 20
7.851762702123205
 30
0.0
 10
3.540099427717139
 20
7.830882677901627
 30
0.0
 10
3.544211009682483
 20
7.807296209807409
 30
0.0
 10
3.540318904545625
 20
7.783782516159124
 30
0.0
 10
3.528939308944725
 20
7.762863201377278
 30
0.0
 10
3.511273179648331
 20
7.746922700443234
 30
0.0
 10
3.491495693907348
 20
7.738247366308689
 30
0.0
 10
3.478246126217567
 20
7.737342515886215
 30
0.0
 10
3.472878472778104
 20
7.736975943663173
 30
0.0
  0
LINE
  5
149
330
1F
100
AcDbEntity
  8
0
  6
Continuous
 62
     7
370
    15
100
AcDbLine
 10
3.3553784168
 20
7.2898509456
 30
0.0
 11
3.3553784168
 21
8.3241009445
 31
0.0
  0
LINE
  5
14A
330
1F
100
AcDbEntity
  8
0
  6
Continuous
 62
     7
370
    15
100
AcDbLine
 10
3.6319114089
 20
7.3176619609
 30
0.0
 11
3.453845466
 21
7.3176619609
 31
0.0
  0
SPLINE
  5
14B
330
1F
100
AcDbEntity
  8
0
  6
Continuous
 62
     7
370
    15
100
AcDbSpline
210
0.0
220
0.0
230
1.0
 70
     8
 71
     3
 72
    14
 73
    10
 74
     0
 42
0.00000001
 43
0.00000001
 12
1.0
 22
0.0
 32
0.0
 13
1.0
 23
0.0
 33
0.0
 40
0.0
 40
0.0
 40
0.0
 40
0.0
 40
0.1607053565066277
 40
0.3213967965298104
 40
0.4821761689478622
 40
0.642954448913415
 40
0.8024376966719741
 40
0.9619339778566347
 40
0.9999999999999999
 40
0.9999999999999999
 40
0.9999999999999999
 40
0.9999999999999999
 10
3.453845465982356
 20
7.317661960947416
 30
0.0
 10
3.451272496531697
 20
7.316055084044226
 30
0.0
 10
3.44612678043992
 20
7.312841469387381
 30
0.0
 10
3.441686483898339
 20
7.308190147996154
 30
0.0
 10
3.43993214974678
 20
7.303950885549416
 30
0.0
 10
3.441020998526475
 20
7.300240917727889
 30
0.0
 10
3.444970313606788
 20
7.297194503598733
 30
0.0
 10
3.449812221863217
 20
7.295380533563919
 30
0.0
 10
3.453193890838995
 20
7.294556882864969
 30
0.0
 10
3.453845465982356
 20
7.294398183025897
 30
0.0
  0
LINE
  5
14C
330
1F
100
AcDbEntity
  8
0
  6
Continuous
 62
     7
370
    15
100
AcDbLine
 10
3.453845466
 20
7.294398183
 30
0.0
 11
3.6319114089
 21
7.294398183
 31
0.0
  0
SPLINE
  5
14D
330
1F
100
AcDbEntity
  8
0
  6
Continuous
 62
     7
370
    15
100
AcDbSpline
210
0.0
220
0.0
230
1.0
 70
     8
 71
     3
 72
    14
 73
    10
 74
     0
 42
0.00000001
 43
0.00000001
 12
1.0
 22
0.0
 32
0.0
 13
1.0
 23
0.0
 33
0.0
 40
0.0
 40
0.0
 40
0.0
 40
0.0
 40
0.1607052816245401
 40
0.3213968674997138
 40
0.4821762190353686
 40
0.6429545345261825
 40
0.8024376733720261
 40
0.9619339394465259
 40
1.0
 40
1.0
 40
1.0
 40
1.0
 10
3.631911408949388
 20
7.294398183025897
 30
0.0
 10
3.634484368413098
 20
7.295115201384065
 30
0.0
 10
3.639630068065784
 20
7.296549176994111
 30
0.0
 10
3.644070514700608
 20
7.299502718897619
 30
0.0
 10
3.645824691668258
 20
7.303076711173921
 30
0.0
 10
3.644735886651488
 20
7.307199678185937
 30
0.0
 10
3.640786557998378
 20
7.311751784673898
 30
0.0
 10
3.635944649836778
 20
7.315311269470563
 30
0.0
 10
3.632562984057475
 20
7.317282203800279
 30
0.0
 10
3.631911408949387
 20
7.317661960947416
 30
0.0
  0
LINE
  5
14E
330
1F
100
AcDbEntity
  8
0
  6
Continuous
 62
     7
370
    15
100
AcDbLine
 10
3.9616284567
 20
7.8007275921
 30
0.0
 11
3.9616284567
 21
7.3211009612
 31
0.0
  0
LINE
  5
14F
330
1F
100
AcDbEntity
  8
0
  6
Continuous
 62
     7
370
    15
100
AcDbLine
 10
3.9616284567
 20
8.2928509288
 30
0.0
 11
3.9616284567
 21
7.8132242979
 31
0.0
  0
SPLINE
  5
150
330
1F
100
AcDbEntity
  8
0
  6
Continuous
 62
     7
370
    15
100
AcDbSpline
210
0.0
220
0.0
230
1.0
 70
     8
 71
     3
 72
    14
 73
    10
 74
     0
 42
0.00000001
 43
0.00000001
 12
1.0
 22
0.0
 32
0.0
 13
1.0
 23
0.0
 33
0.0
 40
0.0
 40
0.0
 40
0.0
 40
0.0
 40
0.0854159663941621
 40
0.2652349470898201
 40
0.4450528138617718
 40
0.6245291994663507
 40
0.8035089444957985
 40
0.9832974853265376
 40
0.9999999999999999
 40
0.9999999999999999
 40
0.9999999999999999
 40
0.9999999999999999
 10
3.961628456696583
 20
7.813224297939844
 30
0.0
 10
3.961625280635159
 20
7.812964280096311
 30
0.0
 10
3.961615418281326
 20
7.812156868766986
 30
0.0
 10
3.961531158763314
 20
7.810339355810529
 30
0.0
 10
3.961461106007654
 20
7.807794385605971
 30
0.0
 10
3.961479625124205
 20
7.805149558849064
 30
0.0
 10
3.961571632566923
 20
7.80271877286237
 30
0.0
 10
3.961626801300528
 20
7.801344432534365
 30
0.0
 10
3.961628327005632
 20
7.800775918066498
 30
0.0
 10
3.961628456696583
 20
7.800727592094523
 30
0.0
  0
LINE
  5
151
330
1F
100
AcDbEntity
  8
0
  6
Continuous
 62
     7
370
    15
100
AcDbLine
 10
3.3241284378
 20
7.3211009612
 30
0.0
 11
3.3241284378
 21
8.2928509288
 31
0.0
  0
ARC
  5
152
330
1F
100
AcDbEntity
  8
0
  6
Continuous
 62
     7
370
    15
100
AcDbCircle
 10
3.4569623971
 20
8.3023332762
 30
0.0
 40
0.0175002427668509
100
AcDbArc
 50
100.2595684351
 51
161.3769349196
  0
ARC
  5
153
330
1F
100
AcDbEntity
  8
0
  6
Continuous
 62
     7
370
    15
100
AcDbCircle
 10
3.6287945889
 20
8.3023334048
 30
0.0
 40
0.0175000964607003
100
AcDbArc
 50
18.6227822602
 51
79.7407143851
  0
ARC
  5
154
330
1F
100
AcDbEntity
  8
0
  6
Continuous
 62
     7
370
    15
100
AcDbCircle
 10
3.6287945889
 20
7.3116184853
 30
0.0
 40
0.0175000964607016
100
AcDbArc
 50
280.2592856149
 51
341.3772177398
  0
ARC
  5
155
330
1F
100
AcDbEntity
  8
0
  6
Continuous
 62
     7
370
    15
100
AcDbCircle
 10
3.4569623971
 20
7.3116186138
 30
0.0
 40
0.0175002427668521
100
AcDbArc
 50
198.6230650804
 51
259.7404315649
  0
LWPOLYLINE
  5
156
330
1F
100
AcDbEntity
  8
0
  6
Continuous
 62
     7
370
    15
100
AcDbPolyline
 90
       27
 70
   128
 43
0.0
 10
3.5428784375
 20
7.3157352232
 10
3.5530194403
 20
7.3154532231
 10
3.56257107
 20
7.314623576
 10
3.5709782729
 20
7.3132944981
 10
3.5777523613
 20
7.311543245
 10
3.5824997598
 20
7.3094715656
 10
3.5849445182
 20
7.3071999085
 10
3.5849445182
 20
7.3048602355
 10
3.5824997598
 20
7.3025885784
 10
3.5777523613
 20
7.300516899
 10
3.5709782729
 20
7.2987656459
 10
3.56257107
 20
7.2974365679
 10
3.5530194403
 20
7.2966069208
 10
3.5428784375
 20
7.2963248841
 10
3.5327374346
 20
7.2966069208
 10
3.523185805
 20
7.2974365679
 10
3.5147786021
 20
7.2987656459
 10
3.5080045137
 20
7.300516899
 10
3.5032571152
 20
7.3025885784
 10
3.5008124301
 20
7.3048602355
 10
3.5008124301
 20
7.3071999085
 10
3.5032571152
 20
7.3094715656
 10
3.5080045137
 20
7.311543245
 10
3.5147786021
 20
7.3132944981
 10
3.523185805
 20
7.314623576
 10
3.5327374346
 20
7.3154532231
 10
3.5428784375
 20
7.3157352232
  0
LINE
  5
157
330
1F
100
AcDbEntity
  8
0
  6
Continuous
 62
     7
370
    15
100
AcDbLine
 10
4.7586284297
 20
7.8132242979
 30
0.0
 11
4.7586284297
 21
8.2928509288
 31
0.0
  0
LINE
  5
158
330
1F
100
AcDbEntity
  8
0
  6
Continuous
 62
     7
370
    15
100
AcDbLine
 10
4.7586284297
 20
7.4427217529
 30
0.0
 11
4.7586284297
 21
7.8007275921
 31
0.0
  0
SPLINE
  5
159
330
1F
100
AcDbEntity
  8
0
  6
Continuous
 62
     7
370
    15
100
AcDbSpline
210
0.0
220
0.0
230
1.0
 70
     8
 71
     3
 72
    14
 73
    10
 74
     0
 42
0.00000001
 43
0.00000001
 12
1.0
 22
0.0
 32
0.0
 13
1.0
 23
0.0
 33
0.0
 40
0.0
 40
0.0
 40
0.0
 40
0.0
 40
0.0854159663941621
 40
0.2652349470898201
 40
0.4450528138617718
 40
0.6245291994663507
 40
0.8035089444957985
 40
0.9832974853265376
 40
0.9999999999999999
 40
0.9999999999999999
 40
0.9999999999999999
 40
0.9999999999999999
 10
4.758628429684885
 20
7.800727592094523
 30
0.0
 10
4.758631605746308
 20
7.800987609938057
 30
0.0
 10
4.758641468100142
 20
7.801795021267382
 30
0.0
 10
4.758725727618153
 20
7.80361253422384
 30
0.0
 10
4.758795780373814
 20
7.806157504428398
 30
0.0
 10
4.758777261257262
 20
7.808802331185304
 30
0.0
 10
4.758685253814545
 20
7.811233117171998
 30
0.0
 10
4.758630085080939
 20
7.812607457500003
 30
0.0
 10
4.758628559375835
 20
7.81317597196787
 30
0.0
 10
4.758628429684885
 20
7.813224297939844
 30
0.0
  0
LINE
  5
15A
330
1F
100
AcDbEntity
  8
0
  6
Continuous
 62
     7
370
    15
100
AcDbLine
 10
5.0883454774
 20
7.294398183
 30
0.0
 11
5.2664114204
 21
7.294398183
 31
0.0
  0
SPLINE
  5
15B
330
1F
100
AcDbEntity
  8
0
  6
Continuous
 62
     7
370
    15
100
AcDbSpline
210
0.0
220
0.0
230
1.0
 70
     8
 71
     3
 72
    14
 73
    10
 74
     0
 42
0.00000001
 43
0.00000001
 12
1.0
 22
0.0
 32
0.0
 13
1.0
 23
0.0
 33
0.0
 40
0.0
 40
0.0
 40
0.0
 40
0.0
 40
0.160705299870935
 40
0.3213967206890146
 40
0.4821761602419232
 40
0.6429544939874241
 40
0.8024376509409012
 40
0.961933935124525
 40
0.9999999999999999
 40
0.9999999999999999
 40
0.9999999999999999
 40
0.9999999999999999
 10
5.266411420399112
 20
7.294398183025897
 30
0.0
 10
5.268984389911062
 20
7.29511520092881
 30
0.0
 10
5.274130106724621
 20
7.296549174810547
 30
0.0
 10
5.278570403449539
 20
7.299502722390376
 30
0.0
 10
5.280324736163629
 20
7.303076709737299
 30
0.0
 10
5.279235889344148
 20
7.307199678409257
 30
0.0
 10
5.275286571874917
 20
7.311751784612011
 30
0.0
 10
5.270444661171365
 20
7.315311269473499
 30
0.0
 10
5.267062995488598
 20
7.317282203800754
 30
0.0
 10
5.266411420399112
 20
7.317661960947416
 30
0.0
  0
LINE
  5
15C
330
1F
100
AcDbEntity
  8
0
  6
Continuous
 62
     7
370
    15
100
AcDbLine
 10
5.2664114204
 20
7.3176619609
 30
0.0
 11
5.0883454774
 21
7.3176619609
 31
0.0
  0
SPLINE
  5
15D
330
1F
100
AcDbEntity
  8
0
  6
Continuous
 62
     7
370
    15
100
AcDbSpline
210
0.0
220
0.0
230
1.0
 70
     8
 71
     3
 72
    14
 73
    10
 74
     0
 42
0.00000001
 43
0.00000001
 12
1.0
 22
0.0
 32
0.0
 13
1.0
 23
0.0
 33
0.0
 40
0.0
 40
0.0
 40
0.0
 40
0.0
 40
0.1607053382602342
 40
0.3213969433404985
 40
0.4821762277412815
 40
0.6429544894521613
 40
0.8024377191030841
 40
0.961933982178629
 40
1.0
 40
1.0
 40
1.0
 40
1.0
 10
5.08834547743208
 20
7.317661960947416
 30
0.0
 10
5.085772518029668
 20
7.316055083403007
 30
0.0
 10
5.080626819098773
 20
7.31284146563096
 30
0.0
 10
5.07618637264727
 20
7.308190152860376
 30
0.0
 10
5.074432194242145
 20
7.303950883800226
 30
0.0
 10
5.075521001219128
 20
7.300240918050385
 30
0.0
 10
5.079470327483329
 20
7.297194503509361
 30
0.0
 10
5.084312233197804
 20
7.295380533568158
 30
0.0
 10
5.087693902270119
 20
7.294556882865653
 30
0.0
 10
5.08834547743208
 20
7.294398183025897
 30
0.0
  0
SPLINE
  5
15E
330
1F
100
AcDbEntity
  8
0
  6
Continuous
 62
     7
370
    15
100
AcDbSpline
210
0.0
220
0.0
230
1.0
 70
    11
 71
     3
 72
    26
 73
    22
 74
     0
 42
0.00000001
 43
0.00000001
 12
1.0
 22
0.0
 32
0.0
 13
1.0
 23
0.0
 33
0.0
 40
0.0
 40
0.0
 40
0.0
 40
0.0
 40
0.0533529856363867
 40
0.1066940511292799
 40
0.1603432584048925
 40
0.214197498245715
 40
0.2677191341339671
 40
0.3208938859735285
 40
0.3742387173338951
 40
0.4280094781641474
 40
0.4818051001678943
 40
0.5351750920706245
 40
0.5883358260378452
 40
0.6418268629973618
 40
0.6956744124442075
 40
0.7493507911087912
 40
0.8025998584842123
 40
0.855826817737084
 40
0.9094668384482536
 40
0.9633232836446779
 40
1.0
 40
1.0
 40
1.0
 40
1.0
 10
5.247378413603363
 20
7.876975946371195
 30
0.0
 10
5.255209506146229
 20
7.876209277150855
 30
0.0
 10
5.270869941606413
 20
7.874676109999692
 30
0.0
 10
5.291740057414275
 20
7.862733110464545
 30
0.0
 10
5.307702742115916
 20
7.845087893295601
 30
0.0
 10
5.316910393120547
 20
7.822943617799067
 30
0.0
 10
5.318266864908728
 20
7.799079023404367
 30
0.0
 10
5.31170864490619
 20
7.776188063583236
 30
0.0
 10
5.298002658331052
 20
7.756725676980768
 30
0.0
 10
5.27856741375474
 20
7.742809834691375
 30
0.0
 10
5.255570279908015
 20
7.736108697100556
 30
0.0
 10
5.231728974431697
 20
7.737392349975218
 30
0.0
 10
5.209714964849004
 20
7.74641243924949
 30
0.0
 10
5.191854394983587
 20
7.762189187911163
 30
0.0
 10
5.180157458664328
 20
7.783069212132742
 30
0.0
 10
5.176045876698985
 20
7.806655680226958
 30
0.0
 10
5.179937981835843
 20
7.830169373875245
 30
0.0
 10
5.191317577436743
 20
7.851088688657091
 30
0.0
 10
5.208983706733135
 20
7.867029189591134
 30
0.0
 10
5.228761192474119
 20
7.875704523725678
 30
0.0
 10
5.2420107601639
 20
7.876609374148153
 30
0.0
 10
5.247378413603363
 20
7.876975946371195
 30
0.0
  0
LINE
  5
15F
330
1F
100
AcDbEntity
  8
0
  6
Continuous
 62
     7
370
    15
100
AcDbLine
 10
5.3648784696
 20
8.3241009445
 30
0.0
 11
5.3648784696
 21
7.2898509456
 31
0.0
  0
LINE
  5
160
330
1F
100
AcDbEntity
  8
0
  6
Continuous
 62
     7
370
    15
100
AcDbLine
 10
5.0883454774
 20
8.2962899291
 30
0.0
 11
5.1228784785
 21
8.2962899291
 31
0.0
  0
LINE
  5
161
330
1F
100
AcDbEntity
  8
0
  6
Continuous
 62
     7
370
    15
100
AcDbLine
 10
5.1228784785
 20
8.319553707
 30
0.0
 11
5.0883454774
 21
8.319553707
 31
0.0
  0
SPLINE
  5
162
330
1F
100
AcDbEntity
  8
0
  6
Continuous
 62
     7
370
    15
100
AcDbSpline
210
0.0
220
0.0
230
1.0
 70
     8
 71
     3
 72
    14
 73
    10
 74
     0
 42
0.00000001
 43
0.00000001
 12
1.0
 22
0.0
 32
0.0
 13
1.0
 23
0.0
 33
0.0
 40
0.0
 40
0.0
 40
0.0
 40
0.0
 40
0.1607052816245401
 40
0.3213968674997138
 40
0.4821762190353686
 40
0.6429545345261825
 40
0.8024376733720261
 40
0.9619339394465259
 40
1.0
 40
1.0
 40
1.0
 40
1.0
 10
5.08834547743208
 20
8.31955370700847
 30
0.0
 10
5.085772517968369
 20
8.318836688650302
 30
0.0
 10
5.080626818315683
 20
8.317402713040257
 30
0.0
 10
5.076186371680859
 20
8.314449171136749
 30
0.0
 10
5.07443219471321
 20
8.310875178860448
 30
0.0
 10
5.075520999729979
 20
8.30675221184843
 30
0.0
 10
5.079470328383089
 20
8.302200105360468
 30
0.0
 10
5.084312236544689
 20
8.298640620563805
 30
0.0
 10
5.087693902323992
 20
8.29666968623409
 30
0.0
 10
5.08834547743208
 20
8.296289929086951
 30
0.0
  0
LINE
  5
163
330
1F
100
AcDbEntity
  8
0
  6
Continuous
 62
     7
370
    15
100
AcDbLine
 10
5.3961284486
 20
8.2928509288
 30
0.0
 11
5.3961284486
 21
7.3211009612
 31
0.0
  0
ARC
  5
164
330
1F
100
AcDbEntity
  8
0
  6
Continuous
 62
     7
370
    15
100
AcDbCircle
 10
5.0914622975
 20
7.3116184853
 30
0.0
 40
0.017500096460703
100
AcDbArc
 50
198.6227822602
 51
259.7407143851
  0
ARC
  5
165
330
1F
100
AcDbEntity
  8
0
  6
Continuous
 62
     7
370
    15
100
AcDbCircle
 10
5.2632944893
 20
7.3116186138
 30
0.0
 40
0.0175002427668505
100
AcDbArc
 50
280.2595684351
 51
341.3769349196
  0
LWPOLYLINE
  5
166
330
1F
100
AcDbEntity
  8
0
  6
Continuous
 62
     7
370
    15
100
AcDbPolyline
 90
       27
 70
   128
 43
0.0
 10
5.1773784489
 20
7.3157352232
 10
5.1672374461
 20
7.3154532231
 10
5.1576858164
 20
7.314623576
 10
5.1492786135
 20
7.3132944981
 10
5.1425045251
 20
7.311543245
 10
5.1377571266
 20
7.3094715656
 10
5.1353123682
 20
7.3071999085
 10
5.1353123682
 20
7.3048602355
 10
5.1377571266
 20
7.3025885784
 10
5.1425045251
 20
7.300516899
 10
5.1492786135
 20
7.2987656459
 10
5.1576858164
 20
7.2974365679
 10
5.1672374461
 20
7.2966069208
 10
5.1773784489
 20
7.2963248841
 10
5.1875194518
 20
7.2966069208
 10
5.1970710814
 20
7.2974365679
 10
5.2054782843
 20
7.2987656459
 10
5.2122523727
 20
7.300516899
 10
5.2169997712
 20
7.3025885784
 10
5.2194444563
 20
7.3048602355
 10
5.2194444563
 20
7.3071999085
 10
5.2169997712
 20
7.3094715656
 10
5.2122523727
 20
7.311543245
 10
5.2054782843
 20
7.3132944981
 10
5.1970710814
 20
7.314623576
 10
5.1875194518
 20
7.3154532231
 10
5.1773784489
 20
7.3157352232
  0
ARC
  5
167
330
1F
100
AcDbEntity
  8
0
  6
Continuous
 62
     7
370
    15
100
AcDbCircle
 10
5.0914622975
 20
8.3023334048
 30
0.0
 40
0.0175000964607035
100
AcDbArc
 50
100.2592856149
 51
161.3772177398
  0
LINE
  5
168
330
1F
100
AcDbEntity
  8
0
  6
Continuous
 62
     7
370
    15
100
AcDbLine
 10
3.975628435
 20
7.3399759365
 30
0.0
 11
3.975628435
 21
8.2774759298
 31
0.0
  0
LINE
  5
169
330
1F
100
AcDbEntity
  8
0
  6
Continuous
 62
     7
370
    15
100
AcDbLine
 10
4.7446284514
 20
8.2774759298
 30
0.0
 11
3.975628435
 21
8.2774759298
 31
0.0
  0
LINE
  5
16A
330
1F
100
AcDbEntity
  8
0
  6
Continuous
 62
     7
370
    15
100
AcDbLine
 10
4.7446284514
 20
7.4266980547
 30
0.0
 11
4.7446284514
 21
8.2774759298
 31
0.0
  0
LINE
  5
16B
330
1F
100
AcDbEntity
  8
0
  6
Continuous
 62
     7
370
    15
100
AcDbLine
 10
4.7067720221
 20
7.3833695186
 30
0.0
 11
4.66337844
 21
7.3399759365
 31
0.0
  0
LINE
  5
16C
330
1F
100
AcDbEntity
  8
0
  6
Continuous
 62
     7
370
    15
100
AcDbLine
 10
3.975628435
 20
7.3399759365
 30
0.0
 11
4.0526284438
 21
7.3399759365
 31
0.0
  0
LINE
  5
16D
330
1F
100
AcDbEntity
  8
0
  6
Continuous
 62
     7
370
    15
100
AcDbLine
 10
4.1950023291
 20
7.3399759365
 30
0.0
 11
4.5252545573
 21
7.3399759365
 31
0.0
  0
LINE
  5
16E
330
1F
100
AcDbEntity
  8
0
  6
Continuous
 62
     7
370
    15
100
AcDbLine
 10
3.975628435
 20
8.3242259397
 30
0.0
 11
4.7446284514
 21
8.3242259397
 31
0.0
  0
LINE
  5
16F
330
1F
100
AcDbEntity
  8
0
  6
Continuous
 62
     7
370
    15
100
AcDbLine
 10
3.975628435
 20
8.2774759298
 30
0.0
 11
3.975628435
 21
8.3242259397
 31
0.0
  0
LINE
  5
170
330
1F
100
AcDbEntity
  8
0
  6
Continuous
 62
     7
370
    15
100
AcDbLine
 10
4.7446284514
 20
8.3242259397
 30
0.0
 11
4.7446284514
 21
8.2774759298
 31
0.0
  0
LINE
  5
171
330
1F
100
AcDbEntity
  8
0
  6
Continuous
 62
     7
370
    15
100
AcDbLine
 10
3.9751647537
 20
7.806975945
 30
0.0
 11
3.9751647537
 21
8.2716009343
 31
0.0
  0
LINE
  5
172
330
1F
100
AcDbEntity
  8
0
  6
Continuous
 62
     7
370
    15
100
AcDbLine
 10
3.9751647537
 20
7.3423509557
 30
0.0
 11
3.9751647537
 21
7.806975945
 31
0.0
  0
LINE
  5
173
330
1F
100
AcDbEntity
  8
0
  6
Continuous
 62
     7
370
    15
100
AcDbLine
 10
4.7450921327
 20
7.806975945
 30
0.0
 11
4.7450921327
 21
8.2716009343
 31
0.0
  0
LINE
  5
174
330
1F
100
AcDbEntity
  8
0
  6
Continuous
 62
     7
370
    15
100
AcDbLine
 10
4.7450921327
 20
7.4272287986
 30
0.0
 11
4.7450921327
 21
7.806975945
 31
0.0
  0
LINE
  5
175
330
1F
100
AcDbEntity
  8
0
  6
Continuous
 62
     7
370
    15
100
AcDbLine
 10
4.6676284426
 20
7.3399759365
 30
0.0
 11
4.6851264355
 21
7.3399759365
 31
0.0
  0
LINE
  5
176
330
1F
100
AcDbEntity
  8
0
  6
Continuous
 62
     8
370
    15
100
AcDbLine
 10
4.761628425
 20
8.3324759544
 30
0.0
 11
4.761628425
 21
8.3062113378
 31
0.0
  0
LINE
  5
177
330
1F
100
AcDbEntity
  8
0
  6
Continuous
 62
     8
370
    15
100
AcDbLine
 10
3.9586284614
 20
8.3062113378
 30
0.0
 11
3.9586284614
 21
8.3324759544
 31
0.0
  0
LINE
  5
178
330
1F
100
AcDbEntity
  8
0
  6
Continuous
 62
     8
370
    15
100
AcDbLine
 10
4.7597716098
 20
8.3012259387
 30
0.0
 11
4.7446284514
 21
8.3012259387
 31
0.0
  0
LINE
  5
179
330
1F
100
AcDbEntity
  8
0
  6
Continuous
 62
     8
370
    15
100
AcDbLine
 10
3.975628435
 20
8.3012259387
 30
0.0
 11
3.9604852766
 21
8.3012259387
 31
0.0
  0
LINE
  5
17A
330
1F
100
AcDbEntity
  8
0
  6
Continuous
 62
     8
370
    15
100
AcDbLine
 10
3.4841284095
 20
7.2898509456
 30
0.0
 11
3.4841284095
 21
7.2826137625
 31
0.0
  0
LINE
  5
17B
330
1F
100
AcDbEntity
  8
0
  6
Continuous
 62
     8
370
    15
100
AcDbLine
 10
3.4141284448
 20
7.2898509456
 30
0.0
 11
3.4141284448
 21
7.2826137625
 31
0.0
  0
ARC
  5
17C
330
1F
100
AcDbEntity
  8
0
  6
Continuous
 62
     8
370
    15
100
AcDbCircle
 10
3.4851463237
 20
7.3463006865
 30
0.0
 40
0.063695058149992
100
AcDbArc
 50
269.0843139911
 51
297.5942671207
  0
ARC
  5
17D
330
1F
100
AcDbEntity
  8
0
  6
Continuous
 62
     8
370
    15
100
AcDbCircle
 10
3.4131105661
 20
7.3463005374
 30
0.0
 40
0.0636949085005576
100
AcDbArc
 50
242.4057008876
 51
270.9156561933
  0
LINE
  5
17E
330
1F
100
AcDbEntity
  8
0
  6
Continuous
 62
     8
370
    15
100
AcDbLine
 10
3.4841284095
 20
7.2826137625
 30
0.0
 11
3.4841284095
 21
7.2658248031
 31
0.0
  0
LINE
  5
17F
330
1F
100
AcDbEntity
  8
0
  6
Continuous
 62
     8
370
    15
100
AcDbLine
 10
3.4141284448
 20
7.2826137625
 30
0.0
 11
3.4141284448
 21
7.2658248031
 31
0.0
  0
LWPOLYLINE
  5
180
330
1F
100
AcDbEntity
  8
0
  6
Continuous
 62
     8
370
    15
100
AcDbPolyline
 90
        9
 70
   128
 43
0.0
 10
5.3531284786
 20
8.3354562966
 10
5.3522253157
 20
8.3413501752
 10
5.3495508066
 20
8.3470175664
 10
5.3452075435
 20
8.3522406727
 10
5.339362431
 20
8.3568187465
 10
5.3322402333
 20
8.3605758631
 10
5.3241145538
 20
8.3633676675
 10
5.3152977157
 20
8.3650868377
 10
5.3148784738
 20
8.3651391604
  0
LINE
  5
181
330
1F
100
AcDbEntity
  8
0
  6
Continuous
 62
     8
370
    15
100
AcDbLine
 10
3.5273784432
 20
8.521051836
 30
0.0
 11
3.5273784432
 21
8.5198025437
 31
0.0
  0
LINE
  5
182
330
1F
100
AcDbEntity
  8
0
  6
Continuous
 62
     8
370
    15
100
AcDbLine
 10
3.930378441
 20
7.806975945
 30
0.0
 11
3.930378441
 21
8.3241009445
 31
0.0
  0
LINE
  5
183
330
1F
100
AcDbEntity
  8
0
  6
Continuous
 62
     8
370
    15
100
AcDbLine
 10
3.930378441
 20
7.2898509456
 30
0.0
 11
3.930378441
 21
7.806975945
 31
0.0
  0
LINE
  5
184
330
1F
100
AcDbEntity
  8
0
  6
Continuous
 62
     8
370
    15
100
AcDbLine
 10
4.7898784453
 20
7.806975945
 30
0.0
 11
4.7898784453
 21
7.4784889397
 31
0.0
  0
LINE
  5
185
330
1F
100
AcDbEntity
  8
0
  6
Continuous
 62
     8
370
    15
100
AcDbLine
 10
4.7898784453
 20
7.3265023022
 30
0.0
 11
4.7898784453
 21
7.2898509456
 31
0.0
  0
LINE
  5
186
330
1F
100
AcDbEntity
  8
0
  6
Continuous
 62
     8
370
    15
100
AcDbLine
 10
4.7898784453
 20
8.3241009445
 30
0.0
 11
4.7898784453
 21
7.806975945
 31
0.0
  0
ENDSEC
  0
SECTION
  2
OBJECTS
  0
DICTIONARY
  5
C
330
0
100
AcDbDictionary
281
     1
  3
ACAD_GROUP
350
D
  3
ACAD_LAYOUT
350
1A
  3
ACAD_MLINESTYLE
350
17
  3
ACAD_PLOTSETTINGS
350
19
  3
ACAD_PLOTSTYLENAME
350
E
  0
DICTIONARY
  5
D
102
{ACAD_REACTORS
330
C
102
}
330
C
100
AcDbDictionary
281
     1
  0
DICTIONARY
  5
1A
102
{ACAD_REACTORS
330
C
102
}
330
C
100
AcDbDictionary
281
     1
  3
Layout1
350
1E
  3
Layout2
350
26
  3
Model
350
22
  0
DICTIONARY
  5
17
102
{ACAD_REACTORS
330
C
102
}
330
C
100
AcDbDictionary
281
     1
  3
Standard
350
18
  0
DICTIONARY
  5
19
102
{ACAD_REACTORS
330
C
102
}
330
C
100
AcDbDictionary
281
     1
  0
ACDBDICTIONARYWDFLT
  5
E
102
{ACAD_REACTORS
330
C
102
}
330
C
100
AcDbDictionary
281
     1
  3
Normal
350
F
100
AcDbDictionaryWithDefault
340
F
  0
LAYOUT
  5
1E
102
{ACAD_REACTORS
330
1A
102
}
330
1A
100
AcDbPlotSettings
  1

  2
none_device
  4

  6

 40
0.0
 41
0.0
 42
0.0
 43
0.0
 44
0.0
 45
0.0
 46
0.0
 47
0.0
 48
0.0
 49
0.0
140
0.0
141
0.0
142
1.0
143
1.0
 70
   688
 72
     0
 73
     0
 74
     5
  7

 75
    16
147
1.0
148
0.0
149
0.0
100
AcDbLayout
  1
Layout1
 70
     1
 71
     1
 10
0.0
 20
0.0
 11
12.0
 21
9.0
 12
0.0
 22
0.0
 32
0.0
 14
1.0000000000E+20
 24
1.0000000000E+20
 34
1.0000000000E+20
 15
-1.0000000000E+20
 25
-1.0000000000E+20
 35
-1.0000000000E+20
146
0.0
 13
0.0
 23
0.0
 33
0.0
 16
1.0
 26
0.0
 36
0.0
 17
0.0
 27
1.0
 37
0.0
 76
     0
330
1B
  0
LAYOUT
  5
26
102
{ACAD_REACTORS
330
1A
102
}
330
1A
100
AcDbPlotSettings
  1

  2
none_device
  4

  6

 40
0.0
 41
0.0
 42
0.0
 43
0.0
 44
0.0
 45
0.0
 46
0.0
 47
0.0
 48
0.0
 49
0.0
140
0.0
141
0.0
142
1.0
143
1.0
 70
   688
 72
     0
 73
     0
 74
     5
  7

 75
    16
147
1.0
148
0.0
149
0.0
100
AcDbLayout
  1
Layout2
 70
     1
 71
     2
 10
0.0
 20
0.0
 11
0.0
 21
0.0
 12
0.0
 22
0.0
 32
0.0
 14
0.0
 24
0.0
 34
0.0
 15
0.0
 25
0.0
 35
0.0
146
0.0
 13
0.0
 23
0.0
 33
0.0
 16
1.0
 26
0.0
 36
0.0
 17
0.0
 27
1.0
 37
0.0
 76
     0
330
23
  0
LAYOUT
  5
22
102
{ACAD_REACTORS
330
1A
102
}
330
1A
100
AcDbPlotSettings
  1

  2
none_device
  4

  6

 40
0.0
 41
0.0
 42
0.0
 43
0.0
 44
0.0
 45
0.0
 46
0.0
 47
0.0
 48
0.0
 49
0.0
140
0.0
141
0.0
142
1.0
143
1.0
 70
  1712
 72
     0
 73
     0
 74
     0
  7

 75
     0
147
1.0
148
0.0
149
0.0
100
AcDbLayout
  1
Model
 70
     1
 71
     0
 10
0.0
 20
0.0
 11
8.5
 21
11.0
 12
0.0
 22
0.0
 32
0.0
 14
0.0
 24
0.0
 34
0.0
 15
8.5
 25
11.0
 35
0.0
146
0.0
 13
0.0
 23
0.0
 33
0.0
 16
1.0
 26
0.0
 36
0.0
 17
0.0
 27
1.0
 37
0.0
 76
     0
330
1F
331
29
  0
MLINESTYLE
  5
18
102
{ACAD_REACTORS
330
17
102
}
330
17
100
AcDbMlineStyle
  2
Standard
 70
     0
  3

 62
   256
 51
90.0
 52
90.0
 71
     2
 49
0.5
 62
   256
  6
BYLAYER
 49
-0.5
 62
   256
  6
BYLAYER
  0
ACDBPLACEHOLDER
  5
F
102
{ACAD_REACTORS
330
E
102
}
330
E
  0
ENDSEC
  0
EOF
