  0
SECTION
  2
HEADER
  9
$ACADVER
  1
AC1015
  9
$ACADMAINTVER
 70
     6
  9
$DWGCODEPAGE
  3
ANSI_1252
  9
$INSBASE
 10
0.0
 20
0.0
 30
0.0
  9
$EXTMIN
 10
0.0
 20
0.0
 30
0.0
  9
$EXTMAX
 10
8.5
 20
11.0
 30
0.0
  9
$LIMMIN
 10
0.0
 20
0.0
  9
$LIMMAX
 10
8.5
 20
11.0
  9
$ORTHOMODE
 70
     0
  9
$REGENMODE
 70
     1
  9
$FILLMODE
 70
     1
  9
$QTEXTMODE
 70
     0
  9
$MIRRTEXT
 70
     1
  9
$LTSCALE
 40
1.0
  9
$ATTMODE
 70
     1
  9
$TEXTSIZE
 40
0.125
  9
$TRACEWID
 40
0.05
  9
$TEXTSTYLE
  7
Standard
  9
$CLAYER
  8
0
  9
$CELTYPE
  6
ByLayer
  9
$CECOLOR
 62
   256
  9
$CELTSCALE
 40
1.0
  9
$DISPSILH
 70
     0
  9
$DIMSCALE
 40
1.0
  9
$DIMASZ
 40
0.13
  9
$DIMEXO
 40
0.05
  9
$DIMDLI
 40
0.38
  9
$DIMRND
 40
0.0
  9
$DIMDLE
 40
0.0
  9
$DIMEXE
 40
0.125
  9
$DIMTP
 40
0.0
  9
$DIMTM
 40
0.0
  9
$DIMTXT
 40
0.1527777778
  9
$DIMCEN
 40
0.09
  9
$DIMTSZ
 40
0.0
  9
$DIMTOL
 70
     0
  9
$DIMLIM
 70
     0
  9
$DIMTIH
 70
     1
  9
$DIMTOH
 70
     1
  9
$DIMSE1
 70
     0
  9
$DIMSE2
 70
     0
  9
$DIMTAD
 70
     1
  9
$DIMZIN
 70
     0
  9
$DIMBLK
  1

  9
$DIMASO
 70
     1
  9
$DIMSHO
 70
     1
  9
$DIMPOST
  1

  9
$DIMAPOST
  1

  9
$DIMALT
 70
     0
  9
$DIMALTD
 70
     2
  9
$DIMALTF
 40
25.4
  9
$DIMLFAC
 40
8.0
  9
$DIMTOFL
 70
     0
  9
$DIMTVP
 40
0.0
  9
$DIMTIX
 70
     0
  9
$DIMSOXD
 70
     0
  9
$DIMSAH
 70
     0
  9
$DIMBLK1
  1

  9
$DIMBLK2
  1

  9
$DIMSTYLE
  2
Standard
  9
$DIMCLRD
 70
     0
  9
$DIMCLRE
 70
     0
  9
$DIMCLRT
 70
     0
  9
$DIMTFAC
 40
1.0
  9
$DIMGAP
 40
0.06
  9
$DIMJUST
 70
     0
  9
$DIMSD1
 70
     0
  9
$DIMSD2
 70
     0
  9
$DIMTOLJ
 70
     1
  9
$DIMTZIN
 70
     0
  9
$DIMALTZ
 70
     0
  9
$DIMALTTZ
 70
     0
  9
$DIMUPT
 70
     0
  9
$DIMDEC
 70
     2
  9
$DIMTDEC
 70
     2
  9
$DIMALTU
 70
     2
  9
$DIMALTTD
 70
     2
  9
$DIMTXSTY
  7
Standard
  9
$DIMAUNIT
 70
     0
  9
$DIMADEC
 70
     2
  9
$DIMALTRND
 40
0.0
  9
$DIMAZIN
 70
     0
  9
$DIMDSEP
 70
    46
  9
$DIMATFIT
 70
     3
  9
$DIMFRAC
 70
     0
  9
$DIMLDRBLK
  1

  9
$DIMLUNIT
 70
     2
  9
$DIMLWD
 70
    -2
  9
$DIMLWE
 70
    -2
  9
$DIMTMOVE
 70
     0
  9
$LUNITS
 70
     2
  9
$LUPREC
 70
     3
  9
$SKETCHINC
 40
0.1
  9
$FILLETRAD
 40
0.5
  9
$AUNITS
 70
     0
  9
$AUPREC
 70
     2
  9
$MENU
  1
.
  9
$ELEVATION
 40
0.0
  9
$PELEVATION
 40
0.0
  9
$THICKNESS
 40
0.0
  9
$LIMCHECK
 70
     0
  9
$CHAMFERA
 40
0.5
  9
$CHAMFERB
 40
0.5
  9
$CHAMFERC
 40
1.0
  9
$CHAMFERD
 40
0.0
  9
$SKPOLY
 70
     0
  9
$TDCREATE
 40
2456051.493862709
  9
$TDUCREATE
 40
2456051.743862709
  9
$TDUPDATE
 40
2456051.493863079
  9
$TDUUPDATE
 40
2456051.743863079
  9
$TDINDWG
 40
0.0000000116
  9
$TDUSRTIMER
 40
0.0000000116
  9
$USRTIMER
 70
     1
  9
$ANGBASE
 50
0.0
  9
$ANGDIR
 70
     0
  9
$PDMODE
 70
     0
  9
$PDSIZE
 40
-1.0
  9
$PLINEWID
 40
0.0
  9
$SPLFRAME
 70
     0
  9
$SPLINETYPE
 70
     6
  9
$SPLINESEGS
 70
     8
  9
$HANDSEED
  5
202
  9
$SURFTAB1
 70
     6
  9
$SURFTAB2
 70
     6
  9
$SURFTYPE
 70
     6
  9
$SURFU
 70
     6
  9
$SURFV
 70
     6
  9
$UCSBASE
  2

  9
$UCSNAME
  2

  9
$UCSORG
 10
0.0
 20
0.0
 30
0.0
  9
$UCSXDIR
 10
1.0
 20
0.0
 30
0.0
  9
$UCSYDIR
 10
0.0
 20
1.0
 30
0.0
  9
$UCSORTHOREF
  2

  9
$UCSORTHOVIEW
 70
     0
  9
$UCSORGTOP
 10
0.0
 20
0.0
 30
0.0
  9
$UCSORGBOTTOM
 10
0.0
 20
0.0
 30
0.0
  9
$UCSORGLEFT
 10
0.0
 20
0.0
 30
0.0
  9
$UCSORGRIGHT
 10
0.0
 20
0.0
 30
0.0
  9
$UCSORGFRONT
 10
0.0
 20
0.0
 30
0.0
  9
$UCSORGBACK
 10
0.0
 20
0.0
 30
0.0
  9
$PUCSBASE
  2

  9
$PUCSNAME
  2

  9
$PUCSORG
 10
0.0
 20
0.0
 30
0.0
  9
$PUCSXDIR
 10
1.0
 20
0.0
 30
0.0
  9
$PUCSYDIR
 10
0.0
 20
1.0
 30
0.0
  9
$PUCSORTHOREF
  2

  9
$PUCSORTHOVIEW
 70
     0
  9
$PUCSORGTOP
 10
0.0
 20
0.0
 30
0.0
  9
$PUCSORGBOTTOM
 10
0.0
 20
0.0
 30
0.0
  9
$PUCSORGLEFT
 10
0.0
 20
0.0
 30
0.0
  9
$PUCSORGRIGHT
 10
0.0
 20
0.0
 30
0.0
  9
$PUCSORGFRONT
 10
0.0
 20
0.0
 30
0.0
  9
$PUCSORGBACK
 10
0.0
 20
0.0
 30
0.0
  9
$USERI1
 70
     0
  9
$USERI2
 70
     0
  9
$USERI3
 70
     0
  9
$USERI4
 70
     0
  9
$USERI5
 70
     0
  9
$USERR1
 40
0.0
  9
$USERR2
 40
0.0
  9
$USERR3
 40
0.0
  9
$USERR4
 40
0.0
  9
$USERR5
 40
0.0
  9
$WORLDVIEW
 70
     1
  9
$SHADEDGE
 70
     3
  9
$SHADEDIF
 70
    70
  9
$TILEMODE
 70
     1
  9
$MAXACTVP
 70
    64
  9
$PINSBASE
 10
0.0
 20
0.0
 30
0.0
  9
$PLIMCHECK
 70
     0
  9
$PEXTMIN
 10
1.0000000000E+20
 20
1.0000000000E+20
 30
1.0000000000E+20
  9
$PEXTMAX
 10
-1.0000000000E+20
 20
-1.0000000000E+20
 30
-1.0000000000E+20
  9
$PLIMMIN
 10
0.0
 20
0.0
  9
$PLIMMAX
 10
12.0
 20
9.0
  9
$UNITMODE
 70
     0
  9
$VISRETAIN
 70
     1
  9
$PLINEGEN
 70
     0
  9
$PSLTSCALE
 70
     1
  9
$TREEDEPTH
 70
  3020
  9
$CMLSTYLE
  2
Standard
  9
$CMLJUST
 70
     0
  9
$CMLSCALE
 40
1.0
  9
$PROXYGRAPHICS
 70
     1
  9
$MEASUREMENT
 70
     0
  9
$CELWEIGHT
370
    -1
  9
$ENDCAPS
280
     0
  9
$JOINSTYLE
280
     0
  9
$LWDISPLAY
290
     1
  9
$INSUNITS
 70
     1
  9
$HYPERLINKBASE
  1

  9
$STYLESHEET
  1

  9
$XEDIT
290
     1
  9
$CEPSNTYPE
380
     0
  9
$PSTYLEMODE
290
     1
  9
$FINGERPRINTGUID
  2
{51368558-0ADF-4290-A250-E220B0AA6DB8}
  9
$VERSIONGUID
  2
{FAEB1C32-E019-11D5-929B-00C0DF256EC4}
  9
$EXTNAMES
290
     1
  9
$PSVPSCALE
 40
0.0
  9
$OLESTARTUP
290
     0
  0
ENDSEC
  0
SECTION
  2
CLASSES
  0
CLASS
  1
ACDBDICTIONARYWDFLT
  2
AcDbDictionaryWithDefault
  3
ObjectDBX Classes
 90
        0
280
     0
281
     0
  0
CLASS
  1
VISUALSTYLE
  2
AcDbVisualStyle
  3
ObjectDBX Classes
 90
     4095
280
     0
281
     0
  0
CLASS
  1
MATERIAL
  2
AcDbMaterial
  3
ObjectDBX Classes
 90
     1153
280
     0
281
     0
  0
CLASS
  1
ACDBPLACEHOLDER
  2
AcDbPlaceHolder
  3
ObjectDBX Classes
 90
        0
280
     0
281
     0
  0
CLASS
  1
LAYOUT
  2
AcDbLayout
  3
ObjectDBX Classes
 90
        0
280
     0
281
     0
  0
ENDSEC
  0
SECTION
  2
TABLES
  0
TABLE
  2
VPORT
  5
8
330
0
100
AcDbSymbolTable
 70
     1
  0
VPORT
  5
29
330
8
100
AcDbSymbolTableRecord
100
AcDbViewportTableRecord
  2
*Active
 70
     0
 10
0.0
 20
0.0
 11
1.0
 21
1.0
 12
4.25
 22
5.5
 13
0.0
 23
0.0
 14
0.5
 24
0.5
 15
0.5
 25
0.5
 16
0.0
 26
0.0
 36
1.0
 17
0.0
 27
0.0
 37
0.0
 40
11.0
 41
0.7727272727
 42
50.0
 43
0.0
 44
0.0
 50
0.0
 51
0.0
 71
     0
 72
  2000
 73
     1
 74
     3
 75
     0
 76
     0
 77
     0
 78
     0
281
     0
 65
     1
110
0.0
120
0.0
130
0.0
111
1.0
121
0.0
131
0.0
112
0.0
122
1.0
132
0.0
 79
     0
146
0.0
  0
ENDTAB
  0
TABLE
  2
LTYPE
  5
5
330
0
100
AcDbSymbolTable
 70
     6
  0
LTYPE
  5
14
330
5
100
AcDbSymbolTableRecord
100
AcDbLinetypeTableRecord
  2
ByBlock
 70
     0
  3

 72
    65
 73
     0
 40
0.0
  0
LTYPE
  5
15
330
5
100
AcDbSymbolTableRecord
100
AcDbLinetypeTableRecord
  2
ByLayer
 70
     0
  3

 72
    65
 73
     0
 40
0.0
  0
LTYPE
  5
16
330
5
100
AcDbSymbolTableRecord
100
AcDbLinetypeTableRecord
  2
Continuous
 70
     0
  3
Solid line
 72
    65
 73
     0
 40
0.0
  0
LTYPE
  5
3F
330
5
100
AcDbSymbolTableRecord
100
AcDbLinetypeTableRecord
  2
HIDDEN
 70
     0
  3
Hidden __ __ __ __ __ __ __ __ __ __ __ __ __ __
 72
    65
 73
     2
 40
0.075
 49
0.05
 74
     0
 49
-0.025
 74
     0
  0
LTYPE
  5
40
330
5
100
AcDbSymbolTableRecord
100
AcDbLinetypeTableRecord
  2
PHANTOM
 70
     0
  3
Phantom ______  __  __  ______  __  __  ______
 72
    65
 73
     6
 40
0.5
 49
0.25
 74
     0
 49
-0.05
 74
     0
 49
0.05
 74
     0
 49
-0.05
 74
     0
 49
0.05
 74
     0
 49
-0.05
 74
     0
  0
LTYPE
  5
41
330
5
100
AcDbSymbolTableRecord
100
AcDbLinetypeTableRecord
  2
CENTER
 70
     0
  3
Center ____ _ ____ _ ____ _ ____ _ ____ _ ____
 72
    65
 73
     4
 40
0.4
 49
0.25
 74
     0
 49
-0.05
 74
     0
 49
0.05
 74
     0
 49
-0.05
 74
     0
  0
LTYPE
  5
42
330
5
100
AcDbSymbolTableRecord
100
AcDbLinetypeTableRecord
  2
CENTERX2
 70
     0
  3
Center (2x) ________  __  ________  __  _____
 72
    65
 73
     4
 40
0.8
 49
0.5
 74
     0
 49
-0.1
 74
     0
 49
0.1
 74
     0
 49
-0.1
 74
     0
  0
LTYPE
  5
43
330
5
100
AcDbSymbolTableRecord
100
AcDbLinetypeTableRecord
  2
DOT2
 70
     0
  3
Dot (.5x) ........................................
 72
    65
 73
     2
 40
0.025
 49
0.0
 74
     0
 49
-0.025
 74
     0
  0
ENDTAB
  0
TABLE
  2
LAYER
  5
2
330
0
100
AcDbSymbolTable
 70
     1
  0
LAYER
  5
10
330
2
100
AcDbSymbolTableRecord
100
AcDbLayerTableRecord
  2
0
 70
     0
 62
     7
  6
Continuous
370
    -3
390
F
  0
ENDTAB
  0
TABLE
  2
STYLE
  5
3
330
0
100
AcDbSymbolTable
 70
     1
  0
STYLE
  5
11
330
3
100
AcDbSymbolTableRecord
100
AcDbTextStyleTableRecord
  2
Standard
 70
     0
 40
0.0
 41
1.0
 50
0.0
 71
     0
 42
0.125
  3
txt
  4

  0
ENDTAB
  0
TABLE
  2
VIEW
  5
6
330
0
100
AcDbSymbolTable
 70
     0
  0
ENDTAB
  0
TABLE
  2
UCS
  5
7
330
0
100
AcDbSymbolTable
 70
     0
  0
ENDTAB
  0
TABLE
  2
APPID
  5
9
330
0
100
AcDbSymbolTable
 70
     1
  0
APPID
  5
12
330
9
100
AcDbSymbolTableRecord
100
AcDbRegAppTableRecord
  2
ACAD
 70
     0
  0
ENDTAB
  0
TABLE
  2
DIMSTYLE
  5
A
330
0
100
AcDbSymbolTable
 70
     1
100
AcDbDimStyleTable
  0
DIMSTYLE
105
27
330
A
100
AcDbSymbolTableRecord
100
AcDbDimStyleTableRecord
  2
Standard
 70
     0
178
     0
340
11
  0
ENDTAB
  0
TABLE
  2
BLOCK_RECORD
  5
1
330
0
100
AcDbSymbolTable
 70
     1
  0
BLOCK_RECORD
  5
1F
330
1
100
AcDbSymbolTableRecord
100
AcDbBlockTableRecord
  2
*Model_Space
340
22
  0
BLOCK_RECORD
  5
1B
330
1
100
AcDbSymbolTableRecord
100
AcDbBlockTableRecord
  2
*Paper_Space
340
1E
  0
BLOCK_RECORD
  5
23
330
1
100
AcDbSymbolTableRecord
100
AcDbBlockTableRecord
  2
*Paper_Space0
340
26
  0
ENDTAB
  0
ENDSEC
  0
SECTION
  2
BLOCKS
  0
BLOCK
  5
20
330
1F
100
AcDbEntity
  8
0
100
AcDbBlockBegin
  2
*Model_Space
 70
     0
 10
0.0
 20
0.0
 30
0.0
  3
*Model_Space
  1

  0
ENDBLK
  5
21
330
1F
100
AcDbEntity
  8
0
100
AcDbBlockEnd
  0
BLOCK
  5
1C
330
1B
100
AcDbEntity
 67
     1
  8
0
100
AcDbBlockBegin
  2
*Paper_Space
 70
     0
 10
0.0
 20
0.0
 30
0.0
  3
*Paper_Space
  1

  0
ENDBLK
  5
1D
330
1B
100
AcDbEntity
 67
     1
  8
0
100
AcDbBlockEnd
  0
BLOCK
  5
24
330
23
100
AcDbEntity
  8
0
100
AcDbBlockBegin
  2
*Paper_Space0
 70
     0
 10
0.0
 20
0.0
 30
0.0
  3
*Paper_Space0
  1

  0
ENDBLK
  5
25
330
23
100
AcDbEntity
  8
0
100
AcDbBlockEnd
  0
ENDSEC
  0
SECTION
  2
ENTITIES
  0
LINE
  5
44
330
1F
100
AcDbEntity
  8
0
  6
Continuous
 62
     7
100
AcDbLine
 10
5.1155685472
 20
7.5533333298
 30
0.0
 11
5.168367708
 21
7.552919992
 31
0.0
  0
LINE
  5
45
330
1F
100
AcDbEntity
  8
0
  6
Continuous
 62
     7
100
AcDbLine
 10
3.7438810472
 20
7.5533333298
 30
0.0
 11
3.796680208
 21
7.552919992
 31
0.0
  0
LINE
  5
46
330
1F
100
AcDbEntity
  8
0
  6
Continuous
 62
     7
370
    15
100
AcDbLine
 10
3.7960491221
 20
7.5556370712
 30
0.0
 11
3.7960491221
 21
7.5559795706
 31
0.0
  0
LINE
  5
47
330
1F
100
AcDbEntity
  8
0
  6
Continuous
 62
     7
370
    15
100
AcDbLine
 10
3.7047991262
 20
7.5559795706
 30
0.0
 11
3.7047991262
 21
7.5556370712
 31
0.0
  0
LINE
  5
48
330
1F
100
AcDbEntity
  8
0
  6
Continuous
 62
     7
370
    15
100
AcDbLine
 10
5.1677366129
 20
7.5556860023
 30
0.0
 11
5.1677366129
 21
7.5559795706
 31
0.0
  0
LINE
  5
49
330
1F
100
AcDbEntity
  8
0
  6
Continuous
 62
     7
370
    15
100
AcDbLine
 10
5.0764866537
 20
7.5559795706
 30
0.0
 11
5.0764866537
 21
7.5556860023
 31
0.0
  0
LINE
  5
4A
330
1F
100
AcDbEntity
  8
0
  6
Continuous
 62
     7
370
    15
100
AcDbLine
 10
3.734799153
 20
7.5592513316
 30
0.0
 11
3.734799153
 21
7.5551360499
 31
0.0
  0
LINE
  5
4B
330
1F
100
AcDbEntity
  8
0
  6
Continuous
 62
     7
370
    15
100
AcDbLine
 10
3.766049132
 20
7.5550700415
 30
0.0
 11
3.766049132
 21
7.5592513316
 31
0.0
  0
LINE
  5
4C
330
1F
100
AcDbEntity
  8
0
  6
Continuous
 62
     7
370
    15
100
AcDbLine
 10
5.1064866071
 20
7.5592513316
 30
0.0
 11
5.1064866071
 21
7.5551360499
 31
0.0
  0
LINE
  5
4D
330
1F
100
AcDbEntity
  8
0
  6
Continuous
 62
     7
370
    15
100
AcDbLine
 10
5.1377366594
 20
7.5550700415
 30
0.0
 11
5.1377366594
 21
7.5592513316
 31
0.0
  0
LINE
  5
4E
330
1F
100
AcDbEntity
  8
0
  6
Continuous
 62
     7
370
    15
100
AcDbLine
 10
3.7514864002
 20
7.5600782195
 30
0.0
 11
3.7514864002
 21
7.5535218553
 31
0.0
  0
LINE
  5
4F
330
1F
100
AcDbEntity
  8
0
  6
Continuous
 62
     7
370
    15
100
AcDbLine
 10
3.7631114326
 20
7.5591975147
 30
0.0
 11
3.7631114326
 21
7.5600782195
 31
0.0
  0
LINE
  5
50
330
1F
100
AcDbEntity
  8
0
  6
Continuous
 62
     7
370
    15
100
AcDbLine
 10
5.1231739277
 20
7.5600782195
 30
0.0
 11
5.1231739277
 21
7.5535218553
 31
0.0
  0
LINE
  5
51
330
1F
100
AcDbEntity
  8
0
  6
Continuous
 62
     7
370
    15
100
AcDbLine
 10
5.1347988867
 20
7.5591975147
 30
0.0
 11
5.1347988867
 21
7.5600782195
 31
0.0
  0
LINE
  5
52
330
1F
100
AcDbEntity
  8
0
  6
Continuous
 62
     7
370
    15
100
AcDbLine
 10
5.1094243065
 20
7.5601858579
 30
0.0
 11
5.1094243065
 21
7.559305153
 31
0.0
  0
LINE
  5
53
330
1F
100
AcDbEntity
  8
0
  6
Continuous
 62
     7
370
    15
100
AcDbLine
 10
5.1210493389
 20
7.5536294936
 30
0.0
 11
5.1210493389
 21
7.5601858579
 31
0.0
  0
LINE
  5
54
330
1F
100
AcDbEntity
  8
0
  6
Continuous
 62
     7
370
    15
100
AcDbLine
 10
3.7377368524
 20
7.5601858579
 30
0.0
 11
3.7377368524
 21
7.559305153
 31
0.0
  0
LINE
  5
55
330
1F
100
AcDbEntity
  8
0
  6
Continuous
 62
     7
370
    15
100
AcDbLine
 10
3.7493618114
 20
7.5536294936
 30
0.0
 11
3.7493618114
 21
7.5601858579
 31
0.0
  0
LINE
  5
56
330
1F
100
AcDbEntity
  8
0
  6
Continuous
 62
     7
370
    15
100
AcDbLine
 10
5.7242094045
 20
7.2206244647
 30
0.0
 11
5.4100179074
 21
7.2206244647
 31
0.0
  0
LINE
  5
57
330
1F
100
AcDbEntity
  8
0
  6
Continuous
 62
     7
370
    15
100
AcDbLine
 10
5.4100179074
 20
7.1943744779
 30
0.0
 11
5.7242094045
 21
7.1943744779
 31
0.0
  0
LINE
  5
58
330
1F
100
AcDbEntity
  8
0
  6
Continuous
 62
     7
370
    15
100
AcDbLine
 10
5.2217366024
 20
7.2421869656
 30
0.0
 11
5.204861624
 21
7.2421869656
 31
0.0
  0
LINE
  5
59
330
1F
100
AcDbEntity
  8
0
  6
Continuous
 62
     7
370
    15
100
AcDbLine
 10
5.204861624
 20
7.172811977
 30
0.0
 11
5.2217366024
 21
7.172811977
 31
0.0
  0
LINE
  5
5A
330
1F
100
AcDbEntity
  8
0
  6
Continuous
 62
     7
370
    15
100
AcDbLine
 10
5.202986659
 20
7.1767518748
 30
0.0
 11
5.2039783342
 21
7.178469505
 31
0.0
  0
LINE
  5
5B
330
1F
100
AcDbEntity
  8
0
  6
Continuous
 62
     7
370
    15
100
AcDbLine
 10
5.2039783342
 20
7.2365294193
 30
0.0
 11
5.202986659
 21
7.2382470494
 31
0.0
  0
LINE
  5
5C
330
1F
100
AcDbEntity
  8
0
  6
Continuous
 62
     7
370
    15
100
AcDbLine
 10
5.7242094045
 20
7.204061956
 30
0.0
 11
5.7429594945
 21
7.204061956
 31
0.0
  0
LINE
  5
5D
330
1F
100
AcDbEntity
  8
0
  6
Continuous
 62
     7
370
    15
100
AcDbLine
 10
5.7429594945
 20
7.2109369682
 30
0.0
 11
5.7242094045
 21
7.2109369682
 31
0.0
  0
LINE
  5
5E
330
1F
100
AcDbEntity
  8
0
  6
Continuous
 62
     7
370
    15
100
AcDbLine
 10
5.4100179074
 20
7.2562494598
 30
0.0
 11
5.285017918
 21
7.2562494598
 31
0.0
  0
LINE
  5
5F
330
1F
100
AcDbEntity
  8
0
  6
Continuous
 62
     7
370
    15
100
AcDbLine
 10
5.285017918
 20
7.1587494461
 30
0.0
 11
5.4100179074
 21
7.1587494461
 31
0.0
  0
LINE
  5
60
330
1F
100
AcDbEntity
  8
0
  6
Continuous
 62
     7
370
    15
100
AcDbLine
 10
5.2688516248
 20
7.2474994642
 30
0.0
 11
5.2529866547
 21
7.2474994642
 31
0.0
  0
LINE
  5
61
330
1F
100
AcDbEntity
  8
0
  6
Continuous
 62
     7
370
    15
100
AcDbLine
 10
5.2529866547
 20
7.1674994784
 30
0.0
 11
5.2688516248
 21
7.1674994784
 31
0.0
  0
LINE
  5
62
330
1F
100
AcDbEntity
  8
0
  6
Continuous
 62
     7
370
    15
100
AcDbLine
 10
5.2688516248
 20
7.1674994784
 30
0.0
 11
5.2732991667
 21
7.1752027994
 31
0.0
  0
LINE
  5
63
330
1F
100
AcDbEntity
  8
0
  6
Continuous
 62
     7
370
    15
100
AcDbLine
 10
5.2732991667
 20
7.2397961432
 30
0.0
 11
5.2688516248
 21
7.2474994642
 31
0.0
  0
LINE
  5
64
330
1F
100
AcDbEntity
  8
0
  6
Continuous
 62
     7
370
    15
100
AcDbLine
 10
5.285017918
 20
7.2465619634
 30
0.0
 11
5.2811116432
 21
7.2397961432
 31
0.0
  0
LINE
  5
65
330
1F
100
AcDbEntity
  8
0
  6
Continuous
 62
     7
370
    15
100
AcDbLine
 10
5.2811116432
 20
7.1752027994
 30
0.0
 11
5.285017918
 21
7.1684369609
 31
0.0
  0
LINE
  5
66
330
1F
100
AcDbEntity
  8
0
  6
Continuous
 62
     7
370
    15
100
AcDbLine
 10
5.2772053683
 20
7.2465619634
 30
0.0
 11
5.2732991667
 21
7.2397961432
 31
0.0
  0
LINE
  5
67
330
1F
100
AcDbEntity
  8
0
  6
Continuous
 62
     7
370
    15
100
AcDbLine
 10
5.2732991667
 20
7.1752027994
 30
0.0
 11
5.2772053683
 21
7.1684369609
 31
0.0
  0
LINE
  5
68
330
1F
100
AcDbEntity
  8
0
  6
Continuous
 62
     7
370
    15
100
AcDbLine
 10
5.2772053683
 20
7.1684369609
 30
0.0
 11
5.2811116432
 21
7.1752027994
 31
0.0
  0
LINE
  5
69
330
1F
100
AcDbEntity
  8
0
  6
Continuous
 62
     7
370
    15
100
AcDbLine
 10
5.2811116432
 20
7.2397961432
 30
0.0
 11
5.2772053683
 21
7.2465619634
 31
0.0
  0
LINE
  5
6A
330
1F
100
AcDbEntity
  8
0
  6
Continuous
 62
     7
370
    15
100
AcDbLine
 10
5.204861624
 20
7.2380593733
 30
0.0
 11
5.2039783342
 21
7.2365294193
 31
0.0
  0
LINE
  5
6B
330
1F
100
AcDbEntity
  8
0
  6
Continuous
 62
     7
370
    15
100
AcDbLine
 10
5.2039783342
 20
7.178469505
 30
0.0
 11
5.204861624
 21
7.1769395327
 31
0.0
  0
LINE
  5
6C
330
1F
100
AcDbEntity
  8
0
  6
Continuous
 62
     7
370
    15
100
AcDbLine
 10
5.4100179074
 20
7.2562494598
 30
0.0
 11
5.285017918
 21
7.2562494598
 31
0.0
  0
LINE
  5
6D
330
1F
100
AcDbEntity
  8
0
  6
Continuous
 62
     7
370
    15
100
AcDbLine
 10
5.285017918
 20
7.1587494461
 30
0.0
 11
5.4100179074
 21
7.1587494461
 31
0.0
  0
LINE
  5
6E
330
1F
100
AcDbEntity
  8
0
  6
Continuous
 62
     7
370
    15
100
AcDbLine
 10
5.2254866057
 20
7.4903014285
 30
0.0
 11
5.2493616099
 21
7.4903014285
 31
0.0
  0
LINE
  5
6F
330
1F
100
AcDbEntity
  8
0
  6
Continuous
 62
     7
370
    15
100
AcDbLine
 10
5.2493616099
 20
7.6121764273
 30
0.0
 11
5.2254866057
 21
7.6121764273
 31
0.0
  0
LINE
  5
70
330
1F
100
AcDbEntity
  8
0
  6
Continuous
 62
     7
370
    15
100
AcDbLine
 10
5.2254866057
 20
7.6121764273
 30
0.0
 11
5.2217366024
 21
7.6084264239
 31
0.0
  0
LINE
  5
71
330
1F
100
AcDbEntity
  8
0
  6
Continuous
 62
     7
370
    15
100
AcDbLine
 10
5.2217366024
 20
7.4940514273
 30
0.0
 11
5.2254866057
 21
7.4903014285
 31
0.0
  0
LINE
  5
72
330
1F
100
AcDbEntity
  8
0
  6
Continuous
 62
     7
370
    15
100
AcDbLine
 10
5.2493616099
 20
7.4903014285
 30
0.0
 11
5.2531116133
 21
7.4940514273
 31
0.0
  0
LINE
  5
73
330
1F
100
AcDbEntity
  8
0
  6
Continuous
 62
     7
370
    15
100
AcDbLine
 10
5.2531116133
 20
7.6084264239
 30
0.0
 11
5.2493616099
 21
7.6121764273
 31
0.0
  0
LINE
  5
74
330
1F
100
AcDbEntity
  8
0
  6
Continuous
 62
     7
370
    15
100
AcDbLine
 10
5.202986659
 20
7.497067251
 30
0.0
 11
5.2217366024
 21
7.497067251
 31
0.0
  0
LINE
  5
75
330
1F
100
AcDbEntity
  8
0
  6
Continuous
 62
     7
370
    15
100
AcDbLine
 10
5.2217366024
 20
7.6054106071
 30
0.0
 11
5.202986659
 21
7.6054106071
 31
0.0
  0
LINE
  5
76
330
1F
100
AcDbEntity
  8
0
  6
Continuous
 62
     7
370
    15
100
AcDbLine
 10
3.7960491221
 20
7.5556370712
 30
0.0
 11
3.7960491221
 21
7.556419923
 31
0.0
  0
LINE
  5
77
330
1F
100
AcDbEntity
  8
0
  6
Continuous
 62
     7
370
    15
100
AcDbLine
 10
3.7047991262
 20
7.556419923
 30
0.0
 11
3.7047991262
 21
7.5556370712
 31
0.0
  0
LINE
  5
78
330
1F
100
AcDbEntity
  8
0
  6
Continuous
 62
     7
370
    15
100
AcDbLine
 10
5.1677366129
 20
7.5556370712
 30
0.0
 11
5.1677366129
 21
7.5556860023
 31
0.0
  0
LINE
  5
79
330
1F
100
AcDbEntity
  8
0
  6
Continuous
 62
     7
370
    15
100
AcDbLine
 10
5.0764866537
 20
7.5556860023
 30
0.0
 11
5.0764866537
 21
7.5556370712
 31
0.0
  0
LINE
  5
7A
330
1F
100
AcDbEntity
  8
0
  6
Continuous
 62
     7
370
    15
100
AcDbLine
 10
3.9031741345
 20
8.096801413
 30
0.0
 11
3.6945491513
 21
8.096801413
 31
0.0
  0
LINE
  5
7B
330
1F
100
AcDbEntity
  8
0
  6
Continuous
 62
     7
370
    15
100
AcDbLine
 10
3.6945491513
 20
7.0056764244
 30
0.0
 11
3.9031741345
 21
7.0056764244
 31
0.0
  0
LINE
  5
7C
330
1F
100
AcDbEntity
  8
0
  6
Continuous
 62
     7
370
    15
100
AcDbLine
 10
3.9031741345
 20
7.0056764244
 30
0.0
 11
4.0772379204
 21
7.0214534688
 31
0.0
  0
LINE
  5
7D
330
1F
100
AcDbEntity
  8
0
  6
Continuous
 62
     7
370
    15
100
AcDbLine
 10
4.0772379204
 20
8.0810243686
 30
0.0
 11
3.9031741345
 21
8.096801413
 31
0.0
  0
LINE
  5
7E
330
1F
100
AcDbEntity
  8
0
  6
Continuous
 62
     7
370
    15
100
AcDbLine
 10
3.6945491513
 20
8.096801413
 30
0.0
 11
3.6695491534
 21
8.0718014151
 31
0.0
  0
LINE
  5
7F
330
1F
100
AcDbEntity
  8
0
  6
Continuous
 62
     7
370
    15
100
AcDbLine
 10
3.6695491534
 20
7.0306764223
 30
0.0
 11
3.6945491513
 21
7.0056764244
 31
0.0
  0
LINE
  5
80
330
1F
100
AcDbEntity
  8
0
  6
Continuous
 62
     7
370
    15
100
AcDbLine
 10
4.0772379204
 20
7.0214534688
 30
0.0
 11
4.092799129
 21
7.0401167699
 31
0.0
  0
LINE
  5
81
330
1F
100
AcDbEntity
  8
0
  6
Continuous
 62
     7
370
    15
100
AcDbLine
 10
4.092799129
 20
8.0623611042
 30
0.0
 11
4.0772379204
 21
8.0810243686
 31
0.0
  0
ARC
  5
82
330
1F
100
AcDbEntity
  8
0
  6
Continuous
 62
     7
370
    15
100
AcDbCircle
 10
4.1084241321
 20
8.0565514276
 30
0.0
 40
0.015625
100
AcDbArc
 50
180.0
 51
270.0
  0
ARC
  5
83
330
1F
100
AcDbEntity
  8
0
  6
Continuous
 62
     7
370
    15
100
AcDbCircle
 10
4.1084241321
 20
7.0459264276
 30
0.0
 40
0.0156249999999991
100
AcDbArc
 50
90.0
 51
180.0
  0
LINE
  5
84
330
1F
100
AcDbEntity
  8
0
  6
Continuous
 62
     7
370
    15
100
AcDbLine
 10
4.9693616412
 20
8.096801413
 30
0.0
 11
4.7952978553
 21
8.0810243686
 31
0.0
  0
LINE
  5
85
330
1F
100
AcDbEntity
  8
0
  6
Continuous
 62
     7
370
    15
100
AcDbLine
 10
4.7952978553
 20
7.0214534688
 30
0.0
 11
4.9693616412
 21
7.0056764244
 31
0.0
  0
LINE
  5
86
330
1F
100
AcDbEntity
  8
0
  6
Continuous
 62
     7
370
    15
100
AcDbLine
 10
4.9693616412
 20
7.0056764244
 30
0.0
 11
5.1779866611
 21
7.0056764244
 31
0.0
  0
LINE
  5
87
330
1F
100
AcDbEntity
  8
0
  6
Continuous
 62
     7
370
    15
100
AcDbLine
 10
5.1779866611
 20
8.096801413
 30
0.0
 11
4.9693616412
 21
8.096801413
 31
0.0
  0
LINE
  5
88
330
1F
100
AcDbEntity
  8
0
  6
Continuous
 62
     7
370
    15
100
AcDbLine
 10
5.1779866611
 20
7.0056764244
 30
0.0
 11
5.202986659
 21
7.0306764223
 31
0.0
  0
LINE
  5
89
330
1F
100
AcDbEntity
  8
0
  6
Continuous
 62
     7
370
    15
100
AcDbLine
 10
5.202986659
 20
8.0718014151
 30
0.0
 11
5.1779866611
 21
8.096801413
 31
0.0
  0
LINE
  5
8A
330
1F
100
AcDbEntity
  8
0
  6
Continuous
 62
     7
370
    15
100
AcDbLine
 10
4.7952978553
 20
8.0810243686
 30
0.0
 11
4.7797366284
 21
8.0623611042
 31
0.0
  0
LINE
  5
8B
330
1F
100
AcDbEntity
  8
0
  6
Continuous
 62
     7
370
    15
100
AcDbLine
 10
4.7797366284
 20
7.0401167699
 30
0.0
 11
4.7952978553
 21
7.0214534688
 31
0.0
  0
ARC
  5
8C
330
1F
100
AcDbEntity
  8
0
  6
Continuous
 62
     7
370
    15
100
AcDbCircle
 10
4.7641116321
 20
7.0459264276
 30
0.0
 40
0.015625
100
AcDbArc
 50
0.0
 51
90.0
  0
ARC
  5
8D
330
1F
100
AcDbEntity
  8
0
  6
Continuous
 62
     7
370
    15
100
AcDbCircle
 10
4.7641116321
 20
8.0565514276
 30
0.0
 40
0.015625
100
AcDbArc
 50
270.0
 51
0.0
  0
ARC
  5
8E
330
1F
100
AcDbEntity
  8
0
  6
Continuous
 62
     7
370
    15
100
AcDbCircle
 10
4.4362678821
 20
7.7838639276
 30
0.0
 40
0.0703124999999996
100
AcDbArc
 50
90.0509295885
 51
117.3077038716
  0
ARC
  5
8F
330
1F
100
AcDbEntity
  8
0
  6
Continuous
 62
     7
370
    15
100
AcDbCircle
 10
4.4362678821
 20
7.7838639276
 30
0.0
 40
0.0703125
100
AcDbArc
 50
62.6922961284
 51
90.0509295885
  0
LINE
  5
90
330
1F
100
AcDbEntity
  8
0
  6
Continuous
 62
     7
370
    15
100
AcDbLine
 10
4.397205382
 20
7.8554264347
 30
0.0
 11
4.3984553824
 21
7.8541764458
 31
0.0
  0
LINE
  5
91
330
1F
100
AcDbEntity
  8
0
  6
Continuous
 62
     7
370
    15
100
AcDbLine
 10
4.4740803819
 20
7.8541764458
 30
0.0
 11
4.4753303799
 21
7.8554264347
 31
0.0
  0
LINE
  5
92
330
1F
100
AcDbEntity
  8
0
  6
Continuous
 62
     7
370
    15
100
AcDbLine
 10
4.4753303799
 20
7.8554264347
 30
0.0
 11
4.4753303799
 21
7.9279393204
 31
0.0
  0
LINE
  5
93
330
1F
100
AcDbEntity
  8
0
  6
Continuous
 62
     7
370
    15
100
AcDbLine
 10
4.397205382
 20
7.9279393204
 30
0.0
 11
4.397205382
 21
7.8554264347
 31
0.0
  0
ARC
  5
94
330
1F
100
AcDbEntity
  8
0
  6
Continuous
 62
     7
370
    15
100
AcDbCircle
 10
3.7504249664
 20
7.5556376194
 30
0.0
 40
0.0456241556336736
100
AcDbArc
 50
269.5504241665
 51
359.9993116414
  0
ARC
  5
95
330
1F
100
AcDbEntity
  8
0
  6
Continuous
 62
     7
370
    15
100
AcDbCircle
 10
3.7504234002
 20
7.5556377501
 30
0.0
 40
0.0456242740435361
100
AcDbArc
 50
180.0008524623
 51
269.5523922598
  0
ARC
  5
96
330
1F
100
AcDbEntity
  8
0
  6
Continuous
 62
     7
370
    15
100
AcDbCircle
 10
3.7504241212
 20
7.5556835427
 30
0.0
 40
0.0456260584431608
100
AcDbArc
 50
89.7041372621
 51
99.1168167192
  0
LWPOLYLINE
  5
97
330
1F
100
AcDbEntity
  8
0
  6
Continuous
 62
     7
370
    15
100
AcDbPolyline
 90
        3
 70
   128
 43
0.0
 10
3.7359608129
 20
7.5992500824
 10
3.7392121553
 20
7.6002041381
 10
3.7431947693
 20
7.6010267911
  0
ARC
  5
98
330
1F
100
AcDbEntity
  8
0
  6
Continuous
 62
     7
370
    15
100
AcDbCircle
 10
3.7504164632
 20
7.5556884424
 30
0.0
 40
0.045616764469936
100
AcDbArc
 50
149.5810256883
 51
159.1170929824
  0
ARC
  5
99
330
1F
100
AcDbEntity
  8
0
  6
Continuous
 62
     7
370
    15
100
AcDbCircle
 10
3.7504209746
 20
7.5559795747
 30
0.0
 40
0.0456218483697943
100
AcDbArc
 50
180.0000050835
 51
199.9866327699
  0
LWPOLYLINE
  5
9A
330
1F
100
AcDbEntity
  8
0
  6
Continuous
 62
     7
370
    15
100
AcDbPolyline
 90
        3
 70
   128
 43
0.0
 10
3.7057694616
 20
7.5653387942
 10
3.7065173797
 20
7.5683822986
 10
3.7077962249
 20
7.5722425298
  0
LINE
  5
9B
330
1F
100
AcDbEntity
  8
0
  6
Continuous
 62
     7
370
    15
100
AcDbLine
 10
3.7075468211
 20
7.5400924175
 30
0.0
 11
3.7075468211
 21
7.5403859858
 31
0.0
  0
ARC
  5
9C
330
1F
100
AcDbEntity
  8
0
  6
Continuous
 62
     7
370
    15
100
AcDbCircle
 10
3.7504211036
 20
7.5556856591
 30
0.0
 40
0.0456218509208931
100
AcDbArc
 50
199.9861674347
 51
219.1183258214
  0
LINE
  5
9D
330
1F
100
AcDbEntity
  8
0
  6
Continuous
 62
     7
370
    15
100
AcDbLine
 10
3.7150256347
 20
7.5271953082
 30
0.0
 11
3.7150256347
 21
7.5269017388
 31
0.0
  0
ARC
  5
9E
330
1F
100
AcDbEntity
  8
0
  6
Continuous
 62
     7
370
    15
100
AcDbCircle
 10
3.7504237348
 20
7.5559810821
 30
0.0
 40
0.0456250618234291
100
AcDbArc
 50
219.1180470377
 51
259.9863700207
  0
LINE
  5
9F
330
1F
100
AcDbEntity
  8
0
  6
Continuous
 62
     7
370
    15
100
AcDbLine
 10
3.7424903374
 20
7.510757485
 30
0.0
 11
3.7424903374
 21
7.5110510534
 31
0.0
  0
ARC
  5
A0
330
1F
100
AcDbEntity
  8
0
  6
Continuous
 62
     7
370
    15
100
AcDbCircle
 10
3.7504241342
 20
7.5556885258
 30
0.0
 40
0.0456261279828282
100
AcDbArc
 50
259.986097158
 51
279.1168402106
  0
LINE
  5
A1
330
1F
100
AcDbEntity
  8
0
  6
Continuous
 62
     7
370
    15
100
AcDbLine
 10
3.7576535156
 20
7.5109323483
 30
0.0
 11
3.7576535156
 21
7.5106387799
 31
0.0
  0
ARC
  5
A2
330
1F
100
AcDbEntity
  8
0
  6
Continuous
 62
     7
370
    15
100
AcDbCircle
 10
3.7504244214
 20
7.5559813604
 30
0.0
 40
0.045625357974768
100
AcDbArc
 50
279.1166301145
 51
319.9847354772
  0
LINE
  5
A3
330
1F
100
AcDbEntity
  8
0
  6
Continuous
 62
     7
370
    15
100
AcDbLine
 10
3.7853676588
 20
7.5263510668
 30
0.0
 11
3.7853676588
 21
7.5266446351
 31
0.0
  0
ARC
  5
A4
330
1F
100
AcDbEntity
  8
0
  6
Continuous
 62
     7
370
    15
100
AcDbCircle
 10
3.7504262785
 20
7.5556861044
 30
0.0
 40
0.0456228504673211
100
AcDbArc
 50
319.9848590755
 51
339.1165888913
  0
LINE
  5
A5
330
1F
100
AcDbEntity
  8
0
  6
Continuous
 62
     7
370
    15
100
AcDbLine
 10
3.79305206
 20
7.5397166091
 30
0.0
 11
3.79305206
 21
7.5394230408
 31
0.0
  0
ARC
  5
A6
330
1F
100
AcDbEntity
  8
0
  6
Continuous
 62
     7
370
    15
100
AcDbCircle
 10
3.7504286436
 20
7.5559792174
 30
0.0
 40
0.0456204784511701
100
AcDbArc
 50
339.1160643452
 51
0.0004436228
  0
ARC
  5
A7
330
1F
100
AcDbEntity
  8
0
  6
Continuous
 62
     7
370
    15
100
AcDbCircle
 10
3.750431465
 20
7.5556894527
 30
0.0
 40
0.045616562752706
100
AcDbArc
 50
30.430663081
 51
39.1186859899
  0
LINE
  5
A8
330
1F
100
AcDbEntity
  8
0
  6
Continuous
 62
     7
370
    15
100
AcDbLine
 10
3.7858226502
 20
7.5847638273
 30
0.0
 11
3.7858226502
 21
7.584470259
 31
0.0
  0
LWPOLYLINE
  5
A9
330
1F
100
AcDbEntity
  8
0
  6
Continuous
 62
     7
370
    15
100
AcDbPolyline
 90
        3
 70
   128
 43
0.0
 10
3.780528448
 20
7.5902621871
 10
3.7831189181
 20
7.5878014101
 10
3.7858226502
 20
7.5847638273
  0
ARC
  5
AA
330
1F
100
AcDbEntity
  8
0
  6
Continuous
 62
     7
370
    15
100
AcDbCircle
 10
3.7100139296
 20
7.5797339588
 30
0.0
 40
0.007812792177107
100
AcDbArc
 50
253.5095464378
 51
303.9884535363
  0
ARC
  5
AB
330
1F
100
AcDbEntity
  8
0
  6
Continuous
 62
     7
370
    15
100
AcDbCircle
 10
3.750790936
 20
7.602851789
 30
0.0
 40
0.0078123214243795
100
AcDbArc
 50
193.5094106799
 51
241.0958096486
  0
ARC
  5
AC
330
1F
100
AcDbEntity
  8
0
  6
Continuous
 62
     7
370
    15
100
AcDbCircle
 10
3.7912010444
 20
7.5790978099
 30
0.0
 40
0.0078122261136859
100
AcDbArc
 50
133.5082169787
 51
179.9997565158
  0
ARC
  5
AD
330
1F
100
AcDbEntity
  8
0
  6
Continuous
 62
     7
370
    15
100
AcDbCircle
 10
3.7908343434
 20
7.5322253426
 30
0.0
 40
0.007812639837553
100
AcDbArc
 50
73.509124455
 51
123.8416676067
  0
ARC
  5
AE
330
1F
100
AcDbEntity
  8
0
  6
Continuous
 62
     7
370
    15
100
AcDbCircle
 10
3.750057405
 20
7.5091073822
 30
0.0
 40
0.0078122594464126
100
AcDbArc
 50
13.5092802337
 51
64.2254062177
  0
ARC
  5
AF
330
1F
100
AcDbEntity
  8
0
  6
Continuous
 62
     7
370
    15
100
AcDbCircle
 10
3.7096473536
 20
7.5328612264
 30
0.0
 40
0.0078120762914339
100
AcDbArc
 50
313.5081162699
 51
4.2249810405
  0
LWPOLYLINE
  5
B0
330
1F
100
AcDbEntity
  8
0
  6
Continuous
 62
     7
370
    15
100
AcDbPolyline
 90
        3
 70
   128
 43
0.0
 10
3.7659855527
 20
7.5606597782
 10
3.7662076035
 20
7.559845146
 10
3.7666741447
 20
7.5559795706
  0
LWPOLYLINE
  5
B1
330
1F
100
AcDbEntity
  8
0
  6
Continuous
 62
     7
370
    15
100
AcDbPolyline
 90
        3
 70
   128
 43
0.0
 10
3.7341741402
 20
7.5559795706
 10
3.7347030874
 20
7.5600917814
 10
3.7348627322
 20
7.5606597782
  0
ARC
  5
B2
330
1F
100
AcDbEntity
  8
0
  6
Continuous
 62
     7
370
    15
100
AcDbCircle
 10
3.7500574048
 20
7.5088138138
 30
0.0
 40
0.007812259658641
100
AcDbArc
 50
13.5092797493
 51
64.225405163
  0
ARC
  5
B3
330
1F
100
AcDbEntity
  8
0
  6
Continuous
 62
     7
370
    15
100
AcDbCircle
 10
3.7908343433
 20
7.5319317557
 30
0.0
 40
0.0078126577020117
100
AcDbArc
 50
73.5091623436
 51
123.4900605633
  0
LINE
  5
B4
330
1F
100
AcDbEntity
  8
0
  6
Continuous
 62
     7
370
    15
100
AcDbLine
 10
3.7174594666
 20
7.5325677229
 30
0.0
 11
3.7174382002
 21
7.5331431973
 31
0.0
  0
LWPOLYLINE
  5
B5
330
1F
100
AcDbEntity
  8
0
  6
Continuous
 62
     7
370
    15
100
AcDbPolyline
 90
        3
 70
   128
 43
0.0
 10
3.7666626315
 20
7.5558083209
 10
3.7666286053
 20
7.5564117785
 10
3.7660389387
 20
7.5596955064
  0
LWPOLYLINE
  5
B6
330
1F
100
AcDbEntity
  8
0
  6
Continuous
 62
     7
370
    15
100
AcDbPolyline
 90
        3
 70
   128
 43
0.0
 10
3.7348050196
 20
7.5596805695
 10
3.7342406527
 20
7.5566653256
 10
3.7341856534
 20
7.5558083209
  0
ARC
  5
B7
330
1F
100
AcDbEntity
  8
0
  6
Continuous
 62
     7
370
    15
100
AcDbCircle
 10
3.7912011097
 20
7.578804205
 30
0.0
 40
0.0078122976481898
100
AcDbArc
 50
133.5083793595
 51
178.769053253
  0
ARC
  5
B8
330
1F
100
AcDbEntity
  8
0
  6
Continuous
 62
     7
370
    15
100
AcDbCircle
 10
5.1221125624
 20
7.5556375131
 30
0.0
 40
0.0456240504662801
100
AcDbArc
 50
269.550245008
 51
359.9994451135
  0
ARC
  5
B9
330
1F
100
AcDbEntity
  8
0
  6
Continuous
 62
     7
370
    15
100
AcDbCircle
 10
5.1221108862
 20
7.5556377083
 30
0.0
 40
0.0456242325693311
100
AcDbArc
 50
180.0008000648
 51
269.5523518427
  0
ARC
  5
BA
330
1F
100
AcDbEntity
  8
0
  6
Continuous
 62
     7
370
    15
100
AcDbCircle
 10
5.1221113346
 20
7.5559777511
 30
0.0
 40
0.0456253807271317
100
AcDbArc
 50
110.4338363331
 51
129.1702177995
  0
ARC
  5
BB
330
1F
100
AcDbEntity
  8
0
  6
Continuous
 62
     7
370
    15
100
AcDbCircle
 10
5.1221102771
 20
7.5559797036
 30
0.0
 40
0.0456236295063289
100
AcDbArc
 50
170.4345473881
 51
199.985991472
  0
LINE
  5
BC
330
1F
100
AcDbEntity
  8
0
  6
Continuous
 62
     7
370
    15
100
AcDbLine
 10
5.0792342753
 20
7.5400924175
 30
0.0
 11
5.0792342753
 21
7.5403859858
 31
0.0
  0
ARC
  5
BD
330
1F
100
AcDbEntity
  8
0
  6
Continuous
 62
     7
370
    15
100
AcDbCircle
 10
5.1221104103
 20
7.5556867094
 30
0.0
 40
0.0456239509312673
100
AcDbArc
 50
199.9866118859
 51
219.1178813702
  0
LINE
  5
BE
330
1F
100
AcDbEntity
  8
0
  6
Continuous
 62
     7
370
    15
100
AcDbLine
 10
5.0867130889
 20
7.5271953082
 30
0.0
 11
5.0867130889
 21
7.5269017388
 31
0.0
  0
ARC
  5
BF
330
1F
100
AcDbEntity
  8
0
  6
Continuous
 62
     7
370
    15
100
AcDbCircle
 10
5.1221114515
 20
7.5559815286
 30
0.0
 40
0.0456255472321424
100
AcDbArc
 50
219.1182741476
 51
259.9861429107
  0
LINE
  5
C0
330
1F
100
AcDbEntity
  8
0
  6
Continuous
 62
     7
370
    15
100
AcDbLine
 10
5.1141777916
 20
7.510757485
 30
0.0
 11
5.1141777916
 21
7.5110510534
 31
0.0
  0
ARC
  5
C1
330
1F
100
AcDbEntity
  8
0
  6
Continuous
 62
     7
370
    15
100
AcDbCircle
 10
5.1221116273
 20
7.5556890364
 30
0.0
 40
0.0456266376285343
100
AcDbArc
 50
259.9861604838
 51
279.116781223
  0
LINE
  5
C2
330
1F
100
AcDbEntity
  8
0
  6
Continuous
 62
     7
370
    15
100
AcDbLine
 10
5.1293410431
 20
7.5109323483
 30
0.0
 11
5.1293410431
 21
7.5106387799
 31
0.0
  0
ARC
  5
C3
330
1F
100
AcDbEntity
  8
0
  6
Continuous
 62
     7
370
    15
100
AcDbCircle
 10
5.1221119667
 20
7.5559812474
 30
0.0
 40
0.0456252435278391
100
AcDbArc
 50
279.1166304629
 51
319.9848001738
  0
LINE
  5
C4
330
1F
100
AcDbEntity
  8
0
  6
Continuous
 62
     7
370
    15
100
AcDbLine
 10
5.1570551496
 20
7.5263510668
 30
0.0
 11
5.1570551496
 21
7.5266446351
 31
0.0
  0
ARC
  5
C5
330
1F
100
AcDbEntity
  8
0
  6
Continuous
 62
     7
370
    15
100
AcDbCircle
 10
5.1221133488
 20
7.5556864712
 30
0.0
 40
0.0456234084101439
100
AcDbArc
 50
319.9848458889
 51
339.116363203
  0
LINE
  5
C6
330
1F
100
AcDbEntity
  8
0
  6
Continuous
 62
     7
370
    15
100
AcDbLine
 10
5.1647395875
 20
7.5397166091
 30
0.0
 11
5.1647395875
 21
7.5394230408
 31
0.0
  0
ARC
  5
C7
330
1F
100
AcDbEntity
  8
0
  6
Continuous
 62
     7
370
    15
100
AcDbCircle
 10
5.1221131406
 20
7.5559796984
 30
0.0
 40
0.0456234812856304
100
AcDbArc
 50
339.1168566886
 51
9.5654906122
  0
ARC
  5
C8
330
1F
100
AcDbEntity
  8
0
  6
Continuous
 62
     7
370
    15
100
AcDbCircle
 10
5.1221127864
 20
7.5559790848
 30
0.0
 40
0.0456238070361353
100
AcDbArc
 50
50.8295562448
 51
69.5666707965
  0
LWPOLYLINE
  5
C9
330
1F
100
AcDbEntity
  8
0
  6
Continuous
 62
     7
370
    15
100
AcDbPolyline
 90
        3
 70
   128
 43
0.0
 10
5.1376730068
 20
7.5606597782
 10
5.1378951309
 20
7.559845146
 10
5.1383615989
 20
7.5559795706
  0
LWPOLYLINE
  5
CA
330
1F
100
AcDbEntity
  8
0
  6
Continuous
 62
     7
370
    15
100
AcDbPolyline
 90
        3
 70
   128
 43
0.0
 10
5.1058616677
 20
7.5559795706
 10
5.1063906149
 20
7.5600917814
 10
5.1065502597
 20
7.5606597782
  0
LWPOLYLINE
  5
CB
330
1F
100
AcDbEntity
  8
0
  6
Continuous
 62
     7
370
    15
100
AcDbPolyline
 90
        3
 70
   128
 43
0.0
 10
5.1383500857
 20
7.5558083393
 10
5.1383161327
 20
7.5564117785
 10
5.1376543804
 20
7.5599384615
  0
LWPOLYLINE
  5
CC
330
1F
100
AcDbEntity
  8
0
  6
Continuous
 62
     7
370
    15
100
AcDbPolyline
 90
        3
 70
   128
 43
0.0
 10
5.1064392343
 20
7.559490643
 10
5.1059281069
 20
7.5566653256
 10
5.1058731809
 20
7.5558083347
  0
CIRCLE
  5
CD
330
1F
100
AcDbEntity
  8
0
  6
Continuous
 62
     7
370
    15
100
AcDbCircle
 10
3.7504240734
 20
7.5592509756
 30
0.0
 40
0.015624880311663
  0
ARC
  5
CE
330
1F
100
AcDbEntity
  8
0
  6
Continuous
 62
     7
370
    15
100
AcDbCircle
 10
3.7504241837
 20
7.5592508708
 30
0.0
 40
0.0117501011326551
100
AcDbArc
 50
27.5535828727
 51
89.5516079518
  0
ARC
  5
CF
330
1F
100
AcDbEntity
  8
0
  6
Continuous
 62
     7
370
    15
100
AcDbCircle
 10
3.7504241328
 20
7.5592517315
 30
0.0
 40
0.0117500823321983
100
AcDbArc
 50
199.8371140279
 51
339.1892115823
  0
ARC
  5
D0
330
1F
100
AcDbEntity
  8
0
  6
Continuous
 62
     7
370
    15
100
AcDbCircle
 10
3.7504241166
 20
7.5592507805
 30
0.0
 40
0.0117501918910865
100
AcDbArc
 50
89.5512843291
 51
151.453386485
  0
ARC
  5
D1
330
1F
100
AcDbEntity
  8
0
  6
Continuous
 62
     7
370
    15
100
AcDbCircle
 10
5.1221118149
 20
7.5592511603
 30
0.0
 40
0.0117498101997036
100
AcDbArc
 50
27.5527304727
 51
89.5524603518
  0
ARC
  5
D2
330
1F
100
AcDbEntity
  8
0
  6
Continuous
 62
     7
370
    15
100
AcDbCircle
 10
5.1221116333
 20
7.5592516812
 30
0.0
 40
0.0117500637265491
100
AcDbArc
 50
199.7876651264
 51
340.2123348736
  0
ARC
  5
D3
330
1F
100
AcDbEntity
  8
0
  6
Continuous
 62
     7
370
    15
100
AcDbCircle
 10
5.1221115265
 20
7.5592509791
 30
0.0
 40
0.0117499937116951
100
AcDbArc
 50
89.551060876
 51
151.45396284
  0
CIRCLE
  5
D4
330
1F
100
AcDbEntity
  8
0
  6
Continuous
 62
     7
370
    15
100
AcDbCircle
 10
5.1221115332
 20
7.5592509519
 30
0.0
 40
0.0156249046093877
  0
CIRCLE
  5
D5
330
1F
100
AcDbEntity
  8
0
  6
Continuous
 62
     7
370
    15
100
AcDbCircle
 10
3.7572988373
 20
7.5600781246
 30
0.0
 40
0.0058124139642947
  0
CIRCLE
  5
D6
330
1F
100
AcDbEntity
  8
0
  6
Continuous
 62
     7
370
    15
100
AcDbCircle
 10
5.1289863706
 20
7.5600780941
 30
0.0
 40
0.0058124444775164
  0
CIRCLE
  5
D7
330
1F
100
AcDbEntity
  8
0
  6
Continuous
 62
     7
370
    15
100
AcDbCircle
 10
5.1152368329
 20
7.5601857343
 30
0.0
 40
0.0058124465772347
  0
CIRCLE
  5
D8
330
1F
100
AcDbEntity
  8
0
  6
Continuous
 62
     7
370
    15
100
AcDbCircle
 10
3.7435493068
 20
7.5601857346
 30
0.0
 40
0.0058124467689054
  0
LINE
  5
D9
330
1F
100
AcDbEntity
  8
0
  6
Continuous
 62
     7
370
    15
100
AcDbLine
 10
5.7242094045
 20
7.2206244647
 30
0.0
 11
5.7242094045
 21
7.1943744779
 31
0.0
  0
LINE
  5
DA
330
1F
100
AcDbEntity
  8
0
  6
Continuous
 62
     7
370
    15
100
AcDbLine
 10
5.2079866146
 20
7.1728626864
 30
0.0
 11
5.2217366024
 21
7.1728626864
 31
0.0
  0
LINE
  5
DB
330
1F
100
AcDbEntity
  8
0
  6
Continuous
 62
     7
370
    15
100
AcDbLine
 10
5.2079866146
 20
7.1728175869
 30
0.0
 11
5.2079866146
 21
7.1728626864
 31
0.0
  0
LINE
  5
DC
330
1F
100
AcDbEntity
  8
0
  6
Continuous
 62
     7
370
    15
100
AcDbLine
 10
5.2217366024
 20
7.1728175869
 30
0.0
 11
5.2079866146
 21
7.1728175869
 31
0.0
  0
LINE
  5
DD
330
1F
100
AcDbEntity
  8
0
  6
Continuous
 62
     7
370
    15
100
AcDbLine
 10
5.2079866146
 20
7.1734037335
 30
0.0
 11
5.2217366024
 21
7.1734037335
 31
0.0
  0
LINE
  5
DE
330
1F
100
AcDbEntity
  8
0
  6
Continuous
 62
     7
370
    15
100
AcDbLine
 10
5.2079866146
 20
7.1731958726
 30
0.0
 11
5.2079866146
 21
7.1734037335
 31
0.0
  0
LINE
  5
DF
330
1F
100
AcDbEntity
  8
0
  6
Continuous
 62
     7
370
    15
100
AcDbLine
 10
5.2217366024
 20
7.1731958726
 30
0.0
 11
5.2079866146
 21
7.1731958726
 31
0.0
  0
LINE
  5
E0
330
1F
100
AcDbEntity
  8
0
  6
Continuous
 62
     7
370
    15
100
AcDbLine
 10
5.2079866146
 20
7.1745281772
 30
0.0
 11
5.2217366024
 21
7.1745281772
 31
0.0
  0
LINE
  5
E1
330
1F
100
AcDbEntity
  8
0
  6
Continuous
 62
     7
370
    15
100
AcDbLine
 10
5.2079866146
 20
7.1741611114
 30
0.0
 11
5.2079866146
 21
7.1745281772
 31
0.0
  0
LINE
  5
E2
330
1F
100
AcDbEntity
  8
0
  6
Continuous
 62
     7
370
    15
100
AcDbLine
 10
5.2217366024
 20
7.1741611114
 30
0.0
 11
5.2079866146
 21
7.1741611114
 31
0.0
  0
LINE
  5
E3
330
1F
100
AcDbEntity
  8
0
  6
Continuous
 62
     7
370
    15
100
AcDbLine
 10
5.2079866146
 20
7.1762167677
 30
0.0
 11
5.2217366024
 21
7.1762167677
 31
0.0
  0
LINE
  5
E4
330
1F
100
AcDbEntity
  8
0
  6
Continuous
 62
     7
370
    15
100
AcDbLine
 10
5.2079866146
 20
7.175696767
 30
0.0
 11
5.2079866146
 21
7.1762167677
 31
0.0
  0
LINE
  5
E5
330
1F
100
AcDbEntity
  8
0
  6
Continuous
 62
     7
370
    15
100
AcDbLine
 10
5.2217366024
 20
7.175696767
 30
0.0
 11
5.2079866146
 21
7.175696767
 31
0.0
  0
LINE
  5
E6
330
1F
100
AcDbEntity
  8
0
  6
Continuous
 62
     7
370
    15
100
AcDbLine
 10
5.2079866146
 20
7.178440612
 30
0.0
 11
5.2217366024
 21
7.178440612
 31
0.0
  0
LINE
  5
E7
330
1F
100
AcDbEntity
  8
0
  6
Continuous
 62
     7
370
    15
100
AcDbLine
 10
5.2079866146
 20
7.1777765863
 30
0.0
 11
5.2079866146
 21
7.178440612
 31
0.0
  0
LINE
  5
E8
330
1F
100
AcDbEntity
  8
0
  6
Continuous
 62
     7
370
    15
100
AcDbLine
 10
5.2217366024
 20
7.1777765863
 30
0.0
 11
5.2079866146
 21
7.1777765863
 31
0.0
  0
LINE
  5
E9
330
1F
100
AcDbEntity
  8
0
  6
Continuous
 62
     7
370
    15
100
AcDbLine
 10
5.2079866146
 20
7.1811616872
 30
0.0
 11
5.2217366024
 21
7.1811616872
 31
0.0
  0
LINE
  5
EA
330
1F
100
AcDbEntity
  8
0
  6
Continuous
 62
     7
370
    15
100
AcDbLine
 10
5.2079866146
 20
7.1803649664
 30
0.0
 11
5.2079866146
 21
7.1811616872
 31
0.0
  0
LINE
  5
EB
330
1F
100
AcDbEntity
  8
0
  6
Continuous
 62
     7
370
    15
100
AcDbLine
 10
5.2217366024
 20
7.1803649664
 30
0.0
 11
5.2079866146
 21
7.1803649664
 31
0.0
  0
LINE
  5
EC
330
1F
100
AcDbEntity
  8
0
  6
Continuous
 62
     7
370
    15
100
AcDbLine
 10
5.2079866146
 20
7.1843333906
 30
0.0
 11
5.2217366024
 21
7.1843333906
 31
0.0
  0
LINE
  5
ED
330
1F
100
AcDbEntity
  8
0
  6
Continuous
 62
     7
370
    15
100
AcDbLine
 10
5.2079866146
 20
7.1834176145
 30
0.0
 11
5.2079866146
 21
7.1843333906
 31
0.0
  0
LINE
  5
EE
330
1F
100
AcDbEntity
  8
0
  6
Continuous
 62
     7
370
    15
100
AcDbLine
 10
5.2217366024
 20
7.1834176145
 30
0.0
 11
5.2079866146
 21
7.1834176145
 31
0.0
  0
LINE
  5
EF
330
1F
100
AcDbEntity
  8
0
  6
Continuous
 62
     7
370
    15
100
AcDbLine
 10
5.2079866146
 20
7.187901456
 30
0.0
 11
5.2217366024
 21
7.187901456
 31
0.0
  0
LINE
  5
F0
330
1F
100
AcDbEntity
  8
0
  6
Continuous
 62
     7
370
    15
100
AcDbLine
 10
5.2079866146
 20
7.1868823178
 30
0.0
 11
5.2079866146
 21
7.187901456
 31
0.0
  0
LINE
  5
F1
330
1F
100
AcDbEntity
  8
0
  6
Continuous
 62
     7
370
    15
100
AcDbLine
 10
5.2217366024
 20
7.1868823178
 30
0.0
 11
5.2079866146
 21
7.1868823178
 31
0.0
  0
LINE
  5
F2
330
1F
100
AcDbEntity
  8
0
  6
Continuous
 62
     7
370
    15
100
AcDbLine
 10
5.2079866146
 20
7.1918048709
 30
0.0
 11
5.2217366024
 21
7.1918048709
 31
0.0
  0
LINE
  5
F3
330
1F
100
AcDbEntity
  8
0
  6
Continuous
 62
     7
370
    15
100
AcDbLine
 10
5.2079866146
 20
7.190699787
 30
0.0
 11
5.2079866146
 21
7.1918048709
 31
0.0
  0
LINE
  5
F4
330
1F
100
AcDbEntity
  8
0
  6
Continuous
 62
     7
370
    15
100
AcDbLine
 10
5.2217366024
 20
7.190699787
 30
0.0
 11
5.2079866146
 21
7.190699787
 31
0.0
  0
LINE
  5
F5
330
1F
100
AcDbEntity
  8
0
  6
Continuous
 62
     7
370
    15
100
AcDbLine
 10
5.2079866146
 20
7.1959767927
 30
0.0
 11
5.2217366024
 21
7.1959767927
 31
0.0
  0
LINE
  5
F6
330
1F
100
AcDbEntity
  8
0
  6
Continuous
 62
     7
370
    15
100
AcDbLine
 10
5.2079866146
 20
7.1948047196
 30
0.0
 11
5.2079866146
 21
7.1959767927
 31
0.0
  0
LINE
  5
F7
330
1F
100
AcDbEntity
  8
0
  6
Continuous
 62
     7
370
    15
100
AcDbLine
 10
5.2217366024
 20
7.1948047196
 30
0.0
 11
5.2079866146
 21
7.1948047196
 31
0.0
  0
LINE
  5
F8
330
1F
100
AcDbEntity
  8
0
  6
Continuous
 62
     7
370
    15
100
AcDbLine
 10
5.2079866146
 20
7.2003459056
 30
0.0
 11
5.2217366024
 21
7.2003459056
 31
0.0
  0
LINE
  5
F9
330
1F
100
AcDbEntity
  8
0
  6
Continuous
 62
     7
370
    15
100
AcDbLine
 10
5.2079866146
 20
7.1991268263
 30
0.0
 11
5.2079866146
 21
7.2003459056
 31
0.0
  0
LINE
  5
FA
330
1F
100
AcDbEntity
  8
0
  6
Continuous
 62
     7
370
    15
100
AcDbLine
 10
5.2217366024
 20
7.1991268263
 30
0.0
 11
5.2079866146
 21
7.1991268263
 31
0.0
  0
LINE
  5
FB
330
1F
100
AcDbEntity
  8
0
  6
Continuous
 62
     7
370
    15
100
AcDbLine
 10
5.2079866146
 20
7.2048374104
 30
0.0
 11
5.2217366024
 21
7.2048374104
 31
0.0
  0
LINE
  5
FC
330
1F
100
AcDbEntity
  8
0
  6
Continuous
 62
     7
370
    15
100
AcDbLine
 10
5.2079866146
 20
7.2035922248
 30
0.0
 11
5.2079866146
 21
7.2048374104
 31
0.0
  0
LINE
  5
FD
330
1F
100
AcDbEntity
  8
0
  6
Continuous
 62
     7
370
    15
100
AcDbLine
 10
5.2217366024
 20
7.2035922248
 30
0.0
 11
5.2079866146
 21
7.2035922248
 31
0.0
  0
LINE
  5
FE
330
1F
100
AcDbEntity
  8
0
  6
Continuous
 62
     7
370
    15
100
AcDbLine
 10
5.2079866146
 20
7.2093744546
 30
0.0
 11
5.2217366024
 21
7.2093744546
 31
0.0
  0
LINE
  5
FF
330
1F
100
AcDbEntity
  8
0
  6
Continuous
 62
     7
370
    15
100
AcDbLine
 10
5.2079866146
 20
7.2081244657
 30
0.0
 11
5.2079866146
 21
7.2093744546
 31
0.0
  0
LINE
  5
100
330
1F
100
AcDbEntity
  8
0
  6
Continuous
 62
     7
370
    15
100
AcDbLine
 10
5.2217366024
 20
7.2081244657
 30
0.0
 11
5.2079866146
 21
7.2081244657
 31
0.0
  0
LINE
  5
101
330
1F
100
AcDbEntity
  8
0
  6
Continuous
 62
     7
370
    15
100
AcDbLine
 10
5.2079866146
 20
7.2138794343
 30
0.0
 11
5.2217366024
 21
7.2138794343
 31
0.0
  0
LINE
  5
102
330
1F
100
AcDbEntity
  8
0
  6
Continuous
 62
     7
370
    15
100
AcDbLine
 10
5.2079866146
 20
7.2126460002
 30
0.0
 11
5.2079866146
 21
7.2138794343
 31
0.0
  0
LINE
  5
103
330
1F
100
AcDbEntity
  8
0
  6
Continuous
 62
     7
370
    15
100
AcDbLine
 10
5.2217366024
 20
7.2126460002
 30
0.0
 11
5.2079866146
 21
7.2126460002
 31
0.0
  0
LINE
  5
104
330
1F
100
AcDbEntity
  8
0
  6
Continuous
 62
     7
370
    15
100
AcDbLine
 10
5.2079866146
 20
7.2182752401
 30
0.0
 11
5.2217366024
 21
7.2182752401
 31
0.0
  0
LINE
  5
105
330
1F
100
AcDbEntity
  8
0
  6
Continuous
 62
     7
370
    15
100
AcDbLine
 10
5.2079866146
 20
7.217079499
 30
0.0
 11
5.2079866146
 21
7.2182752401
 31
0.0
  0
LINE
  5
106
330
1F
100
AcDbEntity
  8
0
  6
Continuous
 62
     7
370
    15
100
AcDbLine
 10
5.2217366024
 20
7.217079499
 30
0.0
 11
5.2079866146
 21
7.217079499
 31
0.0
  0
LINE
  5
107
330
1F
100
AcDbEntity
  8
0
  6
Continuous
 62
     7
370
    15
100
AcDbLine
 10
5.2079866146
 20
7.2224866515
 30
0.0
 11
5.2217366024
 21
7.2224866515
 31
0.0
  0
LINE
  5
108
330
1F
100
AcDbEntity
  8
0
  6
Continuous
 62
     7
370
    15
100
AcDbLine
 10
5.2079866146
 20
7.221349063
 30
0.0
 11
5.2079866146
 21
7.2224866515
 31
0.0
  0
LINE
  5
109
330
1F
100
AcDbEntity
  8
0
  6
Continuous
 62
     7
370
    15
100
AcDbLine
 10
5.2217366024
 20
7.221349063
 30
0.0
 11
5.2079866146
 21
7.221349063
 31
0.0
  0
LINE
  5
10A
330
1F
100
AcDbEntity
  8
0
  6
Continuous
 62
     7
370
    15
100
AcDbLine
 10
5.2079866146
 20
7.2264416558
 30
0.0
 11
5.2217366024
 21
7.2264416558
 31
0.0
  0
LINE
  5
10B
330
1F
100
AcDbEntity
  8
0
  6
Continuous
 62
     7
370
    15
100
AcDbLine
 10
5.2079866146
 20
7.225381653
 30
0.0
 11
5.2079866146
 21
7.2264416558
 31
0.0
  0
LINE
  5
10C
330
1F
100
AcDbEntity
  8
0
  6
Continuous
 62
     7
370
    15
100
AcDbLine
 10
5.2217366024
 20
7.225381653
 30
0.0
 11
5.2079866146
 21
7.225381653
 31
0.0
  0
LINE
  5
10D
330
1F
100
AcDbEntity
  8
0
  6
Continuous
 62
     7
370
    15
100
AcDbLine
 10
5.2079866146
 20
7.2300725305
 30
0.0
 11
5.2217366024
 21
7.2300725305
 31
0.0
  0
LINE
  5
10E
330
1F
100
AcDbEntity
  8
0
  6
Continuous
 62
     7
370
    15
100
AcDbLine
 10
5.2079866146
 20
7.2291083
 30
0.0
 11
5.2079866146
 21
7.2300725305
 31
0.0
  0
LINE
  5
10F
330
1F
100
AcDbEntity
  8
0
  6
Continuous
 62
     7
370
    15
100
AcDbLine
 10
5.2217366024
 20
7.2291083
 30
0.0
 11
5.2079866146
 21
7.2291083
 31
0.0
  0
LINE
  5
110
330
1F
100
AcDbEntity
  8
0
  6
Continuous
 62
     7
370
    15
100
AcDbLine
 10
5.2079866146
 20
7.2333171997
 30
0.0
 11
5.2217366024
 21
7.2333171997
 31
0.0
  0
LINE
  5
111
330
1F
100
AcDbEntity
  8
0
  6
Continuous
 62
     7
370
    15
100
AcDbLine
 10
5.2079866146
 20
7.2324651862
 30
0.0
 11
5.2079866146
 21
7.2333171997
 31
0.0
  0
LINE
  5
112
330
1F
100
AcDbEntity
  8
0
  6
Continuous
 62
     7
370
    15
100
AcDbLine
 10
5.2217366024
 20
7.2324651862
 30
0.0
 11
5.2079866146
 21
7.2324651862
 31
0.0
  0
LINE
  5
113
330
1F
100
AcDbEntity
  8
0
  6
Continuous
 62
     7
370
    15
100
AcDbLine
 10
5.2079866146
 20
7.2361200957
 30
0.0
 11
5.2217366024
 21
7.2361200957
 31
0.0
  0
LINE
  5
114
330
1F
100
AcDbEntity
  8
0
  6
Continuous
 62
     7
370
    15
100
AcDbLine
 10
5.2079866146
 20
7.2353949107
 30
0.0
 11
5.2079866146
 21
7.2361200957
 31
0.0
  0
LINE
  5
115
330
1F
100
AcDbEntity
  8
0
  6
Continuous
 62
     7
370
    15
100
AcDbLine
 10
5.2217366024
 20
7.2353949107
 30
0.0
 11
5.2079866146
 21
7.2353949107
 31
0.0
  0
LINE
  5
116
330
1F
100
AcDbEntity
  8
0
  6
Continuous
 62
     7
370
    15
100
AcDbLine
 10
5.2079866146
 20
7.2384332956
 30
0.0
 11
5.2217366024
 21
7.2384332956
 31
0.0
  0
LINE
  5
117
330
1F
100
AcDbEntity
  8
0
  6
Continuous
 62
     7
370
    15
100
AcDbLine
 10
5.2079866146
 20
7.2378473324
 30
0.0
 11
5.2079866146
 21
7.2384332956
 31
0.0
  0
LINE
  5
118
330
1F
100
AcDbEntity
  8
0
  6
Continuous
 62
     7
370
    15
100
AcDbLine
 10
5.2217366024
 20
7.2378473324
 30
0.0
 11
5.2079866146
 21
7.2378473324
 31
0.0
  0
LINE
  5
119
330
1F
100
AcDbEntity
  8
0
  6
Continuous
 62
     7
370
    15
100
AcDbLine
 10
5.2079866146
 20
7.2402172183
 30
0.0
 11
5.2217366024
 21
7.2402172183
 31
0.0
  0
LINE
  5
11A
330
1F
100
AcDbEntity
  8
0
  6
Continuous
 62
     7
370
    15
100
AcDbLine
 10
5.2079866146
 20
7.239780505
 30
0.0
 11
5.2079866146
 21
7.2402172183
 31
0.0
  0
LINE
  5
11B
330
1F
100
AcDbEntity
  8
0
  6
Continuous
 62
     7
370
    15
100
AcDbLine
 10
5.2217366024
 20
7.239780505
 30
0.0
 11
5.2079866146
 21
7.239780505
 31
0.0
  0
LINE
  5
11C
330
1F
100
AcDbEntity
  8
0
  6
Continuous
 62
     7
370
    15
100
AcDbLine
 10
5.2079866146
 20
7.2414413209
 30
0.0
 11
5.2217366024
 21
7.2414413209
 31
0.0
  0
LINE
  5
11D
330
1F
100
AcDbEntity
  8
0
  6
Continuous
 62
     7
370
    15
100
AcDbLine
 10
5.2079866146
 20
7.2411613374
 30
0.0
 11
5.2079866146
 21
7.2414413209
 31
0.0
  0
LINE
  5
11E
330
1F
100
AcDbEntity
  8
0
  6
Continuous
 62
     7
370
    15
100
AcDbLine
 10
5.2217366024
 20
7.2411613374
 30
0.0
 11
5.2079866146
 21
7.2411613374
 31
0.0
  0
LINE
  5
11F
330
1F
100
AcDbEntity
  8
0
  6
Continuous
 62
     7
370
    15
100
AcDbLine
 10
5.2079866146
 20
7.2420846668
 30
0.0
 11
5.2217366024
 21
7.2420846668
 31
0.0
  0
LINE
  5
120
330
1F
100
AcDbEntity
  8
0
  6
Continuous
 62
     7
370
    15
100
AcDbLine
 10
5.2079866146
 20
7.2419661981
 30
0.0
 11
5.2079866146
 21
7.2420846668
 31
0.0
  0
LINE
  5
121
330
1F
100
AcDbEntity
  8
0
  6
Continuous
 62
     7
370
    15
100
AcDbLine
 10
5.2217366024
 20
7.2419661981
 30
0.0
 11
5.2079866146
 21
7.2419661981
 31
0.0
  0
LINE
  5
122
330
1F
100
AcDbEntity
  8
0
  6
Continuous
 62
     7
370
    15
100
AcDbLine
 10
5.204861624
 20
7.172811977
 30
0.0
 11
5.204861624
 21
7.2421869656
 31
0.0
  0
LINE
  5
123
330
1F
100
AcDbEntity
  8
0
  6
Continuous
 62
     7
370
    15
100
AcDbLine
 10
5.2217366024
 20
7.2037954291
 30
0.0
 11
5.2079866146
 21
7.2037954291
 31
0.0
  0
LINE
  5
124
330
1F
100
AcDbEntity
  8
0
  6
Continuous
 62
     7
370
    15
100
AcDbLine
 10
5.2079866146
 20
7.2136820965
 30
0.0
 11
5.2217366024
 21
7.2136820965
 31
0.0
  0
LINE
  5
125
330
1F
100
AcDbEntity
  8
0
  6
Continuous
 62
     7
370
    15
100
AcDbLine
 10
5.2217366024
 20
7.1995297884
 30
0.0
 11
5.2079866146
 21
7.1995297884
 31
0.0
  0
LINE
  5
126
330
1F
100
AcDbEntity
  8
0
  6
Continuous
 62
     7
370
    15
100
AcDbLine
 10
5.2079866146
 20
7.2178839563
 30
0.0
 11
5.2217366024
 21
7.2178839563
 31
0.0
  0
LINE
  5
127
330
1F
100
AcDbEntity
  8
0
  6
Continuous
 62
     7
370
    15
100
AcDbLine
 10
5.2217366024
 20
7.1954005094
 30
0.0
 11
5.2079866146
 21
7.1954005094
 31
0.0
  0
LINE
  5
128
330
1F
100
AcDbEntity
  8
0
  6
Continuous
 62
     7
370
    15
100
AcDbLine
 10
5.2079866146
 20
7.2219081315
 30
0.0
 11
5.2217366024
 21
7.2219081315
 31
0.0
  0
LINE
  5
129
330
1F
100
AcDbEntity
  8
0
  6
Continuous
 62
     7
370
    15
100
AcDbLine
 10
5.2217366024
 20
7.1914782114
 30
0.0
 11
5.2079866146
 21
7.1914782114
 31
0.0
  0
LINE
  5
12A
330
1F
100
AcDbEntity
  8
0
  6
Continuous
 62
     7
370
    15
100
AcDbLine
 10
5.2079866146
 20
7.2256857629
 30
0.0
 11
5.2217366024
 21
7.2256857629
 31
0.0
  0
LINE
  5
12B
330
1F
100
AcDbEntity
  8
0
  6
Continuous
 62
     7
370
    15
100
AcDbLine
 10
5.2217366024
 20
7.1878300668
 30
0.0
 11
5.2079866146
 21
7.1878300668
 31
0.0
  0
LINE
  5
12C
330
1F
100
AcDbEntity
  8
0
  6
Continuous
 62
     7
370
    15
100
AcDbLine
 10
5.2079866146
 20
7.2291522262
 30
0.0
 11
5.2217366024
 21
7.2291522262
 31
0.0
  0
LINE
  5
12D
330
1F
100
AcDbEntity
  8
0
  6
Continuous
 62
     7
370
    15
100
AcDbLine
 10
5.7429594945
 20
7.2109369682
 30
0.0
 11
5.7429594945
 21
7.204061956
 31
0.0
  0
LINE
  5
12E
330
1F
100
AcDbEntity
  8
0
  6
Continuous
 62
     7
370
    15
100
AcDbLine
 10
5.4100179074
 20
7.2392745109
 30
0.0
 11
5.4100179074
 21
7.2063039868
 31
0.0
  0
LINE
  5
12F
330
1F
100
AcDbEntity
  8
0
  6
Continuous
 62
     7
370
    15
100
AcDbLine
 10
5.4100179074
 20
7.2063039868
 30
0.0
 11
5.316267897
 21
7.2063039868
 31
0.0
  0
LINE
  5
130
330
1F
100
AcDbEntity
  8
0
  6
Continuous
 62
     7
370
    15
100
AcDbLine
 10
5.316267897
 20
7.1913685426
 30
0.0
 11
5.316267897
 21
7.2063039868
 31
0.0
  0
LINE
  5
131
330
1F
100
AcDbEntity
  8
0
  6
Continuous
 62
     7
370
    15
100
AcDbLine
 10
5.316267897
 20
7.1913685426
 30
0.0
 11
5.4100179074
 21
7.1913685426
 31
0.0
  0
LINE
  5
132
330
1F
100
AcDbEntity
  8
0
  6
Continuous
 62
     7
370
    15
100
AcDbLine
 10
5.4100179074
 20
7.1913685426
 30
0.0
 11
5.4100179074
 21
7.1646956841
 31
0.0
  0
LINE
  5
133
330
1F
100
AcDbEntity
  8
0
  6
Continuous
 62
     7
370
    15
100
AcDbLine
 10
5.4100179074
 20
7.1646956841
 30
0.0
 11
5.316267897
 21
7.1646956841
 31
0.0
  0
LINE
  5
134
330
1F
100
AcDbEntity
  8
0
  6
Continuous
 62
     7
370
    15
100
AcDbLine
 10
5.316267897
 20
7.1595934664
 30
0.0
 11
5.316267897
 21
7.1646956841
 31
0.0
  0
LINE
  5
135
330
1F
100
AcDbEntity
  8
0
  6
Continuous
 62
     7
370
    15
100
AcDbLine
 10
5.316267897
 20
7.1595934664
 30
0.0
 11
5.4100179074
 21
7.1595934664
 31
0.0
  0
LINE
  5
136
330
1F
100
AcDbEntity
  8
0
  6
Continuous
 62
     7
370
    15
100
AcDbLine
 10
5.4100179074
 20
7.1595934664
 30
0.0
 11
5.4100179074
 21
7.1587494461
 31
0.0
  0
LINE
  5
137
330
1F
100
AcDbEntity
  8
0
  6
Continuous
 62
     7
370
    15
100
AcDbLine
 10
5.4100179074
 20
7.2562494598
 30
0.0
 11
5.4100179074
 21
7.249107774
 31
0.0
  0
LINE
  5
138
330
1F
100
AcDbEntity
  8
0
  6
Continuous
 62
     7
370
    15
100
AcDbLine
 10
5.4100179074
 20
7.249107774
 30
0.0
 11
5.316267897
 21
7.249107774
 31
0.0
  0
LINE
  5
139
330
1F
100
AcDbEntity
  8
0
  6
Continuous
 62
     7
370
    15
100
AcDbLine
 10
5.316267897
 20
7.2392745109
 30
0.0
 11
5.316267897
 21
7.249107774
 31
0.0
  0
LINE
  5
13A
330
1F
100
AcDbEntity
  8
0
  6
Continuous
 62
     7
370
    15
100
AcDbLine
 10
5.316267897
 20
7.2392745109
 30
0.0
 11
5.4100179074
 21
7.2392745109
 31
0.0
  0
LINE
  5
13B
330
1F
100
AcDbEntity
  8
0
  6
Continuous
 62
     7
370
    15
100
AcDbLine
 10
5.285017918
 20
7.2562494598
 30
0.0
 11
5.285017918
 21
7.1587494461
 31
0.0
  0
LINE
  5
13C
330
1F
100
AcDbEntity
  8
0
  6
Continuous
 62
     7
370
    15
100
AcDbLine
 10
5.4100179074
 20
7.1913685426
 30
0.0
 11
5.4100179074
 21
7.2063039868
 31
0.0
  0
LINE
  5
13D
330
1F
100
AcDbEntity
  8
0
  6
Continuous
 62
     7
370
    15
100
AcDbLine
 10
5.4100179074
 20
7.2392745109
 30
0.0
 11
5.4100179074
 21
7.249107774
 31
0.0
  0
LINE
  5
13E
330
1F
100
AcDbEntity
  8
0
  6
Continuous
 62
     7
370
    15
100
AcDbLine
 10
5.4100179074
 20
7.1595934664
 30
0.0
 11
5.4100179074
 21
7.1646956841
 31
0.0
  0
LINE
  5
13F
330
1F
100
AcDbEntity
  8
0
  6
Continuous
 62
     7
370
    15
100
AcDbLine
 10
5.2217366024
 20
7.2101722754
 30
0.0
 11
5.2529866547
 21
7.2101722754
 31
0.0
  0
LINE
  5
140
330
1F
100
AcDbEntity
  8
0
  6
Continuous
 62
     7
370
    15
100
AcDbLine
 10
5.2529866547
 20
7.2101722754
 30
0.0
 11
5.2529866547
 21
7.1907387999
 31
0.0
  0
LINE
  5
141
330
1F
100
AcDbEntity
  8
0
  6
Continuous
 62
     7
370
    15
100
AcDbLine
 10
5.2529866547
 20
7.1883349243
 30
0.0
 11
5.2529866547
 21
7.1689014488
 31
0.0
  0
LINE
  5
142
330
1F
100
AcDbEntity
  8
0
  6
Continuous
 62
     7
370
    15
100
AcDbLine
 10
5.2217366024
 20
7.1689014488
 30
0.0
 11
5.2529866547
 21
7.1689014488
 31
0.0
  0
LINE
  5
143
330
1F
100
AcDbEntity
  8
0
  6
Continuous
 62
     7
370
    15
100
AcDbLine
 10
5.2217366024
 20
7.2101722754
 30
0.0
 11
5.2217366024
 21
7.1689014488
 31
0.0
  0
LINE
  5
144
330
1F
100
AcDbEntity
  8
0
  6
Continuous
 62
     7
370
    15
100
AcDbLine
 10
5.2529866547
 20
7.1907387999
 30
0.0
 11
5.2529866547
 21
7.1883349243
 31
0.0
  0
LINE
  5
145
330
1F
100
AcDbEntity
  8
0
  6
Continuous
 62
     7
370
    15
100
AcDbLine
 10
5.2529866547
 20
7.1676634498
 30
0.0
 11
5.2529866547
 21
7.1675103316
 31
0.0
  0
LINE
  5
146
330
1F
100
AcDbEntity
  8
0
  6
Continuous
 62
     7
370
    15
100
AcDbLine
 10
5.2688516248
 20
7.1740599859
 30
0.0
 11
5.2688516248
 21
7.1674994784
 31
0.0
  0
LINE
  5
147
330
1F
100
AcDbEntity
  8
0
  6
Continuous
 62
     7
370
    15
100
AcDbLine
 10
5.2688516248
 20
7.2474994642
 30
0.0
 11
5.2688516248
 21
7.1740599859
 31
0.0
  0
LINE
  5
148
330
1F
100
AcDbEntity
  8
0
  6
Continuous
 62
     7
370
    15
100
AcDbLine
 10
5.2732991667
 20
7.1804998615
 30
0.0
 11
5.2732991667
 21
7.1752027994
 31
0.0
  0
LINE
  5
149
330
1F
100
AcDbEntity
  8
0
  6
Continuous
 62
     7
370
    15
100
AcDbLine
 10
5.2732991667
 20
7.2397961432
 30
0.0
 11
5.2732991667
 21
7.1804998615
 31
0.0
  0
LINE
  5
14A
330
1F
100
AcDbEntity
  8
0
  6
Continuous
 62
     7
370
    15
100
AcDbLine
 10
5.2811116432
 20
7.1804998615
 30
0.0
 11
5.2811116432
 21
7.1752027994
 31
0.0
  0
LINE
  5
14B
330
1F
100
AcDbEntity
  8
0
  6
Continuous
 62
     7
370
    15
100
AcDbLine
 10
5.2811116432
 20
7.2397961432
 30
0.0
 11
5.2811116432
 21
7.1804998615
 31
0.0
  0
LINE
  5
14C
330
1F
100
AcDbEntity
  8
0
  6
Continuous
 62
     7
370
    15
100
AcDbLine
 10
5.2772053683
 20
7.1748437269
 30
0.0
 11
5.2772053683
 21
7.1684369609
 31
0.0
  0
LINE
  5
14D
330
1F
100
AcDbEntity
  8
0
  6
Continuous
 62
     7
370
    15
100
AcDbLine
 10
5.2772053683
 20
7.2465619634
 30
0.0
 11
5.2772053683
 21
7.1748437269
 31
0.0
  0
LINE
  5
14E
330
1F
100
AcDbEntity
  8
0
  6
Continuous
 62
     7
370
    15
100
AcDbLine
 10
5.2217366024
 20
7.2487265917
 30
0.0
 11
5.2529866547
 21
7.2487265917
 31
0.0
  0
LINE
  5
14F
330
1F
100
AcDbEntity
  8
0
  6
Continuous
 62
     7
370
    15
100
AcDbLine
 10
5.2529866547
 20
7.2487265917
 30
0.0
 11
5.2529866547
 21
7.2294494427
 31
0.0
  0
LINE
  5
150
330
1F
100
AcDbEntity
  8
0
  6
Continuous
 62
     7
370
    15
100
AcDbLine
 10
5.2529866547
 20
7.2294494427
 30
0.0
 11
5.2529866547
 21
7.2101722754
 31
0.0
  0
LINE
  5
151
330
1F
100
AcDbEntity
  8
0
  6
Continuous
 62
     7
370
    15
100
AcDbLine
 10
5.2217366024
 20
7.2487265917
 30
0.0
 11
5.2217366024
 21
7.2101722754
 31
0.0
  0
LINE
  5
152
330
1F
100
AcDbEntity
  8
0
  6
Continuous
 62
     7
370
    15
100
AcDbLine
 10
5.2529866547
 20
7.1662723325
 30
0.0
 11
5.2529866547
 21
7.1675103316
 31
0.0
  0
LINE
  5
153
330
1F
100
AcDbEntity
  8
0
  6
Continuous
 62
     7
370
    15
100
AcDbLine
 10
5.2217366024
 20
7.1662723325
 30
0.0
 11
5.2529866547
 21
7.1662723325
 31
0.0
  0
LINE
  5
154
330
1F
100
AcDbEntity
  8
0
  6
Continuous
 62
     7
370
    15
100
AcDbLine
 10
5.2529866547
 20
7.1676634498
 30
0.0
 11
5.2529866547
 21
7.1689014488
 31
0.0
  0
LINE
  5
155
330
1F
100
AcDbEntity
  8
0
  6
Continuous
 62
     7
370
    15
100
AcDbLine
 10
5.2217366024
 20
7.1662723325
 30
0.0
 11
5.2217366024
 21
7.1689014488
 31
0.0
  0
LWPOLYLINE
  5
156
330
1F
100
AcDbEntity
  8
0
  6
Continuous
 62
     7
370
    15
100
AcDbPolyline
 90
        3
 70
   128
 43
0.0
 10
5.1064867538
 20
7.5550753811
 10
5.1066930381
 20
7.5526049196
 10
5.1082012673
 20
7.5480199549
  0
LINE
  5
157
330
1F
100
AcDbEntity
  8
0
  6
Continuous
 62
     7
370
    15
100
AcDbLine
 10
5.1360219992
 20
7.5480199549
 30
0.0
 11
5.1372501717
 21
7.5512675367
 31
0.0
  0
LINE
  5
158
330
1F
100
AcDbEntity
  8
0
  6
Continuous
 62
     7
370
    15
100
AcDbLine
 10
5.1377366594
 20
7.5587637301
 30
0.0
 11
5.1379656768
 21
7.5587619335
 31
0.0
  0
LWPOLYLINE
  5
159
330
1F
100
AcDbEntity
  8
0
  6
Continuous
 62
     7
370
    15
100
AcDbPolyline
 90
        3
 70
   128
 43
0.0
 10
3.7656414767
 20
7.5515241546
 10
3.7659760195
 20
7.5535601348
 10
3.7660489853
 20
7.5550093772
  0
LWPOLYLINE
  5
15A
330
1F
100
AcDbEntity
  8
0
  6
Continuous
 62
     7
370
    15
100
AcDbPolyline
 90
        3
 70
   128
 43
0.0
 10
5.137257065
 20
7.5512286842
 10
5.1375099887
 20
7.552418293
 10
5.1377365128
 20
7.5550093772
  0
LWPOLYLINE
  5
15B
330
1F
100
AcDbEntity
  8
0
  6
Continuous
 62
     7
370
    15
100
AcDbPolyline
 90
        3
 70
   128
 43
0.0
 10
3.7347992263
 20
7.5550753719
 10
3.7350055106
 20
7.5526049196
 10
3.7365137398
 20
7.5480199434
  0
LINE
  5
15C
330
1F
100
AcDbEntity
  8
0
  6
Continuous
 62
     7
370
    15
100
AcDbLine
 10
3.7643344718
 20
7.5480199434
 30
0.0
 11
3.7655626442
 21
7.5512675367
 31
0.0
  0
LINE
  5
15D
330
1F
100
AcDbEntity
  8
0
  6
Continuous
 62
     7
370
    15
100
AcDbLine
 10
3.766049132
 20
7.5587637301
 30
0.0
 11
3.7662781493
 21
7.5587619335
 31
0.0
  0
LINE
  5
15E
330
1F
100
AcDbEntity
  8
0
  6
Continuous
 62
     7
370
    15
100
AcDbLine
 10
5.2493616099
 20
7.4903014285
 30
0.0
 11
5.2493616099
 21
7.6121764273
 31
0.0
  0
LINE
  5
15F
330
1F
100
AcDbEntity
  8
0
  6
Continuous
 62
     7
370
    15
100
AcDbLine
 10
5.2254866057
 20
7.5512389279
 30
0.0
 11
5.2254866057
 21
7.4903014285
 31
0.0
  0
LINE
  5
160
330
1F
100
AcDbEntity
  8
0
  6
Continuous
 62
     7
370
    15
100
AcDbLine
 10
5.2254866057
 20
7.6121764273
 30
0.0
 11
5.2254866057
 21
7.5512389279
 31
0.0
  0
LINE
  5
161
330
1F
100
AcDbEntity
  8
0
  6
Continuous
 62
     7
370
    15
100
AcDbLine
 10
5.2217366024
 20
7.5512389279
 30
0.0
 11
5.2217366024
 21
7.6084264239
 31
0.0
  0
LINE
  5
162
330
1F
100
AcDbEntity
  8
0
  6
Continuous
 62
     7
370
    15
100
AcDbLine
 10
5.2217366024
 20
7.4940514273
 30
0.0
 11
5.2217366024
 21
7.5512389279
 31
0.0
  0
LINE
  5
163
330
1F
100
AcDbEntity
  8
0
  6
Continuous
 62
     7
370
    15
100
AcDbLine
 10
5.2531116133
 20
7.6084264239
 30
0.0
 11
5.2531116133
 21
7.4940514273
 31
0.0
  0
LWPOLYLINE
  5
164
330
1F
100
AcDbEntity
  8
0
  6
Continuous
 62
     7
370
    15
100
AcDbPolyline
 90
        3
 70
   128
 43
0.0
 10
3.7537648405
 20
7.5646447205
 10
3.7505146714
 20
7.565137469
 10
3.7472268094
 20
7.5646869784
  0
ARC
  5
165
330
1F
100
AcDbEntity
  8
0
  6
Continuous
 62
     7
370
    15
100
AcDbCircle
 10
3.7572989268
 20
7.5535220525
 30
0.0
 40
0.0058125266430058
100
AcDbArc
 50
180.0019447572
 51
243.6341455315
  0
ARC
  5
166
330
1F
100
AcDbEntity
  8
0
  6
Continuous
 62
     7
370
    15
100
AcDbCircle
 10
3.7435496979
 20
7.5536294084
 30
0.0
 40
0.0058121135147755
100
AcDbArc
 50
295.0259657396
 51
0.0008396323
  0
ARC
  5
167
330
1F
100
AcDbEntity
  8
0
  6
Continuous
 62
     7
370
    15
100
AcDbCircle
 10
5.1221116044
 20
7.5535702844
 30
0.0
 40
0.0115673379553119
100
AcDbArc
 50
73.3134057318
 51
106.6885707481
  0
ARC
  5
168
330
1F
100
AcDbEntity
  8
0
  6
Continuous
 62
     7
370
    15
100
AcDbCircle
 10
5.1289861251
 20
7.5535218119
 30
0.0
 40
0.0058121974335432
100
AcDbArc
 50
179.9995730143
 51
243.6353521692
  0
ARC
  5
169
330
1F
100
AcDbEntity
  8
0
  6
Continuous
 62
     7
370
    15
100
AcDbCircle
 10
5.1152370145
 20
7.5536295427
 30
0.0
 40
0.0058123243688436
100
AcDbArc
 50
295.0272892542
 51
359.9995161176
  0
LWPOLYLINE
  5
16A
330
1F
100
AcDbEntity
  8
0
  6
Continuous
 62
     7
370
    15
100
AcDbPolyline
 90
        3
 70
   128
 43
0.0
 10
3.7930608599
 20
7.5393972209
 10
3.7954099561
 20
7.5480270246
 10
3.7960491221
 20
7.5556370712
  0
ARC
  5
16B
330
1F
100
AcDbEntity
  8
0
  6
Continuous
 62
     7
370
    15
100
AcDbCircle
 10
3.7504242708
 20
7.5556383749
 30
0.0
 40
0.045625144589318
100
AcDbArc
 50
180.0016371908
 51
339.1471334141
  0
LINE
  5
16C
330
1F
100
AcDbEntity
  8
0
  6
Continuous
 62
     7
370
    15
100
AcDbLine
 10
3.780528448
 20
7.5907025395
 30
0.0
 11
3.780528448
 21
7.5902621871
 31
0.0
  0
ARC
  5
16D
330
1F
100
AcDbEntity
  8
0
  6
Continuous
 62
     7
370
    15
100
AcDbCircle
 10
3.75042427
 20
7.5564178582
 30
0.0
 40
0.0456256605476712
100
AcDbArc
 50
48.7147649761
 51
89.5826690003
  0
ARC
  5
16E
330
1F
100
AcDbEntity
  8
0
  6
Continuous
 62
     7
370
    15
100
AcDbCircle
 10
3.7504240669
 20
7.5556840021
 30
0.0
 40
0.045625597525278
100
AcDbArc
 50
89.5824133042
 51
99.0236780531
  0
ARC
  5
16F
330
1F
100
AcDbEntity
  8
0
  6
Continuous
 62
     7
370
    15
100
AcDbCircle
 10
3.7504232961
 20
7.5564189855
 30
0.0
 40
0.0456243668740163
100
AcDbArc
 50
108.7129445233
 51
149.581712574
  0
LINE
  5
170
330
1F
100
AcDbEntity
  8
0
  6
Continuous
 62
     7
370
    15
100
AcDbLine
 10
3.711079027
 20
7.5787850938
 30
0.0
 11
3.711079027
 21
7.5795190145
 31
0.0
  0
ARC
  5
171
330
1F
100
AcDbEntity
  8
0
  6
Continuous
 62
     7
370
    15
100
AcDbCircle
 10
3.7504183891
 20
7.5556873569
 30
0.0
 40
0.0456189748135881
100
AcDbArc
 50
149.581074681
 51
158.7611212835
  0
ARC
  5
172
330
1F
100
AcDbEntity
  8
0
  6
Continuous
 62
     7
370
    15
100
AcDbCircle
 10
3.750421317
 20
7.5564198382
 30
0.0
 40
0.045622179767189
100
AcDbArc
 50
168.7133139702
 51
209.5834042657
  0
LINE
  5
173
330
1F
100
AcDbEntity
  8
0
  6
Continuous
 62
     7
370
    15
100
AcDbLine
 10
3.7107465375
 20
7.5331627015
 30
0.0
 11
3.7107465375
 21
7.5338966245
 31
0.0
  0
ARC
  5
174
330
1F
100
AcDbEntity
  8
0
  6
Continuous
 62
     7
370
    15
100
AcDbCircle
 10
3.7504229587
 20
7.5556868298
 30
0.0
 40
0.0456240590085866
100
AcDbArc
 50
209.5833852406
 51
228.7147027808
  0
LINE
  5
175
330
1F
100
AcDbEntity
  8
0
  6
Continuous
 62
     7
370
    15
100
AcDbLine
 10
3.7203198002
 20
7.5221373054
 30
0.0
 11
3.7203198002
 21
7.5214033847
 31
0.0
  0
ARC
  5
176
330
1F
100
AcDbEntity
  8
0
  6
Continuous
 62
     7
370
    15
100
AcDbCircle
 10
3.750424041
 20
7.5564221289
 30
0.0
 40
0.0456258088781175
100
AcDbArc
 50
228.7148236175
 51
269.5826375637
  0
LINE
  5
177
330
1F
100
AcDbEntity
  8
0
  6
Continuous
 62
     7
370
    15
100
AcDbLine
 10
3.7500916896
 20
7.5100636094
 30
0.0
 11
3.7500916896
 21
7.5107975305
 31
0.0
  0
ARC
  5
178
330
1F
100
AcDbEntity
  8
0
  6
Continuous
 62
     7
370
    15
100
AcDbCircle
 10
3.7504240593
 20
7.5556893278
 30
0.0
 40
0.0456269289166186
100
AcDbArc
 50
269.582624821
 51
288.7130871246
  0
LINE
  5
179
330
1F
100
AcDbEntity
  8
0
  6
Continuous
 62
     7
370
    15
100
AcDbLine
 10
3.7650625167
 20
7.5132082954
 30
0.0
 11
3.7650625167
 21
7.5124743742
 31
0.0
  0
ARC
  5
17A
330
1F
100
AcDbEntity
  8
0
  6
Continuous
 62
     7
370
    15
100
AcDbCircle
 10
3.7504247855
 20
7.556421109
 30
0.0
 40
0.0456246691817883
100
AcDbArc
 50
288.713085552
 51
329.5815703467
  0
LINE
  5
17B
330
1F
100
AcDbEntity
  8
0
  6
Continuous
 62
     7
370
    15
100
AcDbLine
 10
3.7897692579
 20
7.5325869063
 30
0.0
 11
3.7897692579
 21
7.5333208292
 31
0.0
  0
ARC
  5
17C
330
1F
100
AcDbEntity
  8
0
  6
Continuous
 62
     7
370
    15
100
AcDbCircle
 10
3.7504270857
 20
7.5556858795
 30
0.0
 40
0.045622024069174
100
AcDbArc
 50
329.5815226287
 51
348.7135378745
  0
LINE
  5
17D
330
1F
100
AcDbEntity
  8
0
  6
Continuous
 62
     7
370
    15
100
AcDbLine
 10
3.7951668222
 20
7.5474909114
 30
0.0
 11
3.7951668222
 21
7.5467569907
 31
0.0
  0
ARC
  5
17E
330
1F
100
AcDbEntity
  8
0
  6
Continuous
 62
     7
370
    15
100
AcDbCircle
 10
3.7504267889
 20
7.5564199288
 30
0.0
 40
0.0456223403448705
100
AcDbArc
 50
348.7134524795
 51
29.5833972778
  0
ARC
  5
17F
330
1F
100
AcDbEntity
  8
0
  6
Continuous
 62
     7
370
    15
100
AcDbCircle
 10
3.7504296131
 20
7.5556881108
 30
0.0
 40
0.0456188462038515
100
AcDbArc
 50
29.5828518976
 51
39.1185261446
  0
ARC
  5
180
330
1F
100
AcDbEntity
  8
0
  6
Continuous
 62
     7
370
    15
100
AcDbCircle
 10
3.7504266608
 20
7.5564199247
 30
0.0
 40
0.0162475530174588
100
AcDbArc
 50
339.1455143271
 51
17.6766923631
  0
ARC
  5
181
330
1F
100
AcDbEntity
  8
0
  6
Continuous
 62
     7
370
    15
100
AcDbCircle
 10
3.750424201
 20
7.556420162
 30
0.0
 40
0.0162499361901597
100
AcDbArc
 50
162.3268637891
 51
339.1478199397
  0
ARC
  5
182
330
1F
100
AcDbEntity
  8
0
  6
Continuous
 62
     7
370
    15
100
AcDbCircle
 10
3.7942287894
 20
7.5397351786
 30
0.0
 40
0.0078122530350083
100
AcDbArc
 50
83.1037417019
 51
235.1913126366
  0
ARC
  5
183
330
1F
100
AcDbEntity
  8
0
  6
Continuous
 62
     7
370
    15
100
AcDbCircle
 10
3.7578767214
 20
7.5101422865
 30
0.0
 40
0.0078125581174947
100
AcDbArc
 50
23.106795943
 51
175.1889160026
  0
ARC
  5
184
330
1F
100
AcDbEntity
  8
0
  6
Continuous
 62
     7
370
    15
100
AcDbCircle
 10
3.7140718831
 20
7.5268273321
 30
0.0
 40
0.00781235037119
100
AcDbArc
 50
323.1061122534
 51
115.1919648344
  0
ARC
  5
185
330
1F
100
AcDbEntity
  8
0
  6
Continuous
 62
     7
370
    15
100
AcDbCircle
 10
3.7066194515
 20
7.573104682
 30
0.0
 40
0.0078122644166286
100
AcDbArc
 50
263.1040775861
 51
55.1909767524
  0
ARC
  5
186
330
1F
100
AcDbEntity
  8
0
  6
Continuous
 62
     7
370
    15
100
AcDbCircle
 10
3.7429715631
 20
7.6026975616
 30
0.0
 40
0.0078125592693103
100
AcDbArc
 50
203.1068231527
 51
355.1888503233
  0
ARC
  5
187
330
1F
100
AcDbEntity
  8
0
  6
Continuous
 62
     7
370
    15
100
AcDbCircle
 10
3.7867763847
 20
7.5860125267
 30
0.0
 40
0.0078123576868147
100
AcDbArc
 50
143.1062794013
 51
295.1917812859
  0
ARC
  5
188
330
1F
100
AcDbEntity
  8
0
  6
Continuous
 62
     7
370
    15
100
AcDbCircle
 10
3.7578766079
 20
7.509408468
 30
0.0
 40
0.0078124363956014
100
AcDbArc
 50
124.4748290065
 51
175.1895961569
  0
ARC
  5
189
330
1F
100
AcDbEntity
  8
0
  6
Continuous
 62
     7
370
    15
100
AcDbCircle
 10
3.7140717913
 20
7.526093021
 30
0.0
 40
0.0078126624478623
100
AcDbArc
 50
64.475857528
 51
115.1901440785
  0
LINE
  5
18A
330
1F
100
AcDbEntity
  8
0
  6
Continuous
 62
     7
370
    15
100
AcDbLine
 10
3.7666626315
 20
7.5558083209
 30
0.0
 11
3.7661107312
 21
7.5594385173
 31
0.0
  0
LWPOLYLINE
  5
18B
330
1F
100
AcDbEntity
  8
0
  6
Continuous
 62
     7
370
    15
100
AcDbPolyline
 90
        3
 70
   128
 43
0.0
 10
3.7348050196
 20
7.5596805695
 10
3.7344935032
 20
7.5584024851
 10
3.7341856534
 20
7.5558083209
  0
ARC
  5
18C
330
1F
100
AcDbEntity
  8
0
  6
Continuous
 62
     7
370
    15
100
AcDbCircle
 10
3.7066192528
 20
7.5723705289
 30
0.0
 40
0.0078125686016435
100
AcDbArc
 50
6.5077015441
 51
55.1907535158
  0
ARC
  5
18D
330
1F
100
AcDbEntity
  8
0
  6
Continuous
 62
     7
370
    15
100
AcDbCircle
 10
5.1221116333
 20
7.555638171
 30
0.0
 40
0.0456249796162636
100
AcDbArc
 50
180.0013810553
 51
359.9986189447
  0
LINE
  5
18E
330
1F
100
AcDbEntity
  8
0
  6
Continuous
 62
     7
370
    15
100
AcDbLine
 10
5.1061823506
 20
7.5136672875
 30
0.0
 11
5.1061823506
 21
7.5129333664
 31
0.0
  0
ARC
  5
18F
330
1F
100
AcDbEntity
  8
0
  6
Continuous
 62
     7
370
    15
100
AcDbCircle
 10
5.1221115966
 20
7.5564225701
 30
0.0
 40
0.0456262541501816
100
AcDbArc
 50
249.566221247
 51
290.433778753
  0
LINE
  5
190
330
1F
100
AcDbEntity
  8
0
  6
Continuous
 62
     7
370
    15
100
AcDbLine
 10
5.1380408426
 20
7.5129333664
 30
0.0
 11
5.1380408426
 21
7.5136672875
 31
0.0
  0
ARC
  5
191
330
1F
100
AcDbEntity
  8
0
  6
Continuous
 62
     7
370
    15
100
AcDbCircle
 10
5.1221118221
 20
7.5556881121
 30
0.0
 40
0.0456256722535971
100
AcDbArc
 50
290.4337488068
 51
309.5646165003
  0
LINE
  5
192
330
1F
100
AcDbEntity
  8
0
  6
Continuous
 62
     7
370
    15
100
AcDbLine
 10
5.1511730042
 20
7.521248895
 30
0.0
 11
5.1511730042
 21
7.5205149737
 31
0.0
  0
ARC
  5
193
330
1F
100
AcDbEntity
  8
0
  6
Continuous
 62
     7
370
    15
100
AcDbCircle
 10
5.1221131629
 20
7.5564204031
 30
0.0
 40
0.0456235615044811
100
AcDbArc
 50
309.5646225009
 51
350.4337435557
  0
LINE
  5
194
330
1F
100
AcDbEntity
  8
0
  6
Continuous
 62
     7
370
    15
100
AcDbLine
 10
5.1671022869
 20
7.5481043926
 30
0.0
 11
5.1671022869
 21
7.5488383133
 31
0.0
  0
ARC
  5
195
330
1F
100
AcDbEntity
  8
0
  6
Continuous
 62
     7
370
    15
100
AcDbCircle
 10
5.1221070068
 20
7.5556863266
 30
0.0
 40
0.0456296060463392
100
AcDbArc
 50
350.4352211425
 51
359.9995928858
  0
LINE
  5
196
330
1F
100
AcDbEntity
  8
0
  6
Continuous
 62
     7
370
    15
100
AcDbLine
 10
5.1671022869
 20
7.5640015304
 30
0.0
 11
5.1671022869
 21
7.5635611734
 31
0.0
  0
ARC
  5
197
330
1F
100
AcDbEntity
  8
0
  6
Continuous
 62
     7
370
    15
100
AcDbCircle
 10
5.1221131851
 20
7.5564194477
 30
0.0
 40
0.0456235383574465
100
AcDbArc
 50
9.566252395
 51
50.4353897916
  0
LINE
  5
198
330
1F
100
AcDbEntity
  8
0
  6
Continuous
 62
     7
370
    15
100
AcDbLine
 10
5.1380408426
 20
7.5991725516
 30
0.0
 11
5.1380408426
 21
7.5987321992
 31
0.0
  0
ARC
  5
199
330
1F
100
AcDbEntity
  8
0
  6
Continuous
 62
     7
370
    15
100
AcDbCircle
 10
5.1221115966
 20
7.5564173974
 30
0.0
 40
0.0456261338391116
100
AcDbArc
 50
69.5661649584
 51
110.4338350416
  0
LINE
  5
19A
330
1F
100
AcDbEntity
  8
0
  6
Continuous
 62
     7
370
    15
100
AcDbLine
 10
5.1061823506
 20
7.5987321992
 30
0.0
 11
5.1061823506
 21
7.5991725516
 31
0.0
  0
ARC
  5
19B
330
1F
100
AcDbEntity
  8
0
  6
Continuous
 62
     7
370
    15
100
AcDbCircle
 10
5.1221100814
 20
7.5564194477
 30
0.0
 40
0.0456235383574458
100
AcDbArc
 50
129.5646102084
 51
170.433747605
  0
LINE
  5
19C
330
1F
100
AcDbEntity
  8
0
  6
Continuous
 62
     7
370
    15
100
AcDbLine
 10
5.0771209797
 20
7.5635611734
 30
0.0
 11
5.0771209797
 21
7.5640015304
 31
0.0
  0
ARC
  5
19D
330
1F
100
AcDbEntity
  8
0
  6
Continuous
 62
     7
370
    15
100
AcDbCircle
 10
5.1221162597
 20
7.5556863266
 30
0.0
 40
0.0456296060462949
100
AcDbArc
 50
180.0004071142
 51
189.5647788575
  0
LINE
  5
19E
330
1F
100
AcDbEntity
  8
0
  6
Continuous
 62
     7
370
    15
100
AcDbLine
 10
5.0771209797
 20
7.5488383133
 30
0.0
 11
5.0771209797
 21
7.5481043926
 31
0.0
  0
ARC
  5
19F
330
1F
100
AcDbEntity
  8
0
  6
Continuous
 62
     7
370
    15
100
AcDbCircle
 10
5.1221101037
 20
7.5564204031
 30
0.0
 40
0.0456235615044818
100
AcDbArc
 50
189.5662564443
 51
230.4353774991
  0
LINE
  5
1A0
330
1F
100
AcDbEntity
  8
0
  6
Continuous
 62
     7
370
    15
100
AcDbLine
 10
5.0930502623
 20
7.5205149737
 30
0.0
 11
5.0930502623
 21
7.521248895
 31
0.0
  0
ARC
  5
1A1
330
1F
100
AcDbEntity
  8
0
  6
Continuous
 62
     7
370
    15
100
AcDbCircle
 10
5.1221114051
 20
7.5556878898
 30
0.0
 40
0.0456254758212176
100
AcDbArc
 50
230.4352438281
 51
249.5661137829
  0
ARC
  5
1A2
330
1F
100
AcDbEntity
  8
0
  6
Continuous
 62
     7
370
    15
100
AcDbCircle
 10
5.1221115966
 20
7.55642011
 30
0.0
 40
0.0162498962302957
100
AcDbArc
 50
162.3266262622
 51
17.6733737378
  0
ARC
  5
1A3
330
1F
100
AcDbEntity
  8
0
  6
Continuous
 62
     7
370
    15
100
AcDbCircle
 10
5.0752369178
 20
7.5564199219
 30
0.0
 40
0.0078122005647672
100
AcDbArc
 50
283.9555558458
 51
76.0444441542
  0
ARC
  5
1A4
330
1F
100
AcDbEntity
  8
0
  6
Continuous
 62
     7
370
    15
100
AcDbCircle
 10
5.0986741199
 20
7.5970137076
 30
0.0
 40
0.0078124347413441
100
AcDbArc
 50
223.9570953463
 51
16.0415479801
  0
ARC
  5
1A5
330
1F
100
AcDbEntity
  8
0
  6
Continuous
 62
     7
370
    15
100
AcDbCircle
 10
5.1455491445
 20
7.5970137764
 30
0.0
 40
0.0078124840816455
100
AcDbArc
 50
163.9590809636
 51
316.0425527919
  0
ARC
  5
1A6
330
1F
100
AcDbEntity
  8
0
  6
Continuous
 62
     7
370
    15
100
AcDbCircle
 10
5.1689863488
 20
7.5564199219
 30
0.0
 40
0.0078122005647672
100
AcDbArc
 50
103.9555558458
 51
256.0444441542
  0
ARC
  5
1A7
330
1F
100
AcDbEntity
  8
0
  6
Continuous
 62
     7
370
    15
100
AcDbCircle
 10
5.1455491422
 20
7.5158260667
 30
0.0
 40
0.0078124829802289
100
AcDbArc
 50
43.9574147095
 51
196.0409515349
  0
ARC
  5
1A8
330
1F
100
AcDbEntity
  8
0
  6
Continuous
 62
     7
370
    15
100
AcDbCircle
 10
5.0986741221
 20
7.5158261355
 30
0.0
 40
0.0078124336399782
100
AcDbArc
 50
343.9584195214
 51
136.0429371522
  0
LWPOLYLINE
  5
1A9
330
1F
100
AcDbEntity
  8
0
  6
Continuous
 62
     7
370
    15
100
AcDbPolyline
 90
        3
 70
   128
 43
0.0
 10
5.1383500857
 20
7.5558083209
 10
5.1381399881
 20
7.5578713013
 10
5.1377676057
 20
7.5595500148
  0
LINE
  5
1AA
330
1F
100
AcDbEntity
  8
0
  6
Continuous
 62
     7
370
    15
100
AcDbLine
 10
5.1064550008
 20
7.5595477965
 30
0.0
 11
5.1058731809
 21
7.5558083209
 31
0.0
  0
LINE
  5
1AB
330
1F
100
AcDbEntity
  8
0
  6
Continuous
 62
     7
370
    15
100
AcDbLine
 10
3.9031741345
 20
8.0258308929
 30
0.0
 11
3.9031741345
 21
7.0056764244
 31
0.0
  0
LINE
  5
1AC
330
1F
100
AcDbEntity
  8
0
  6
Continuous
 62
     7
370
    15
100
AcDbLine
 10
3.9031741345
 20
8.096801413
 30
0.0
 11
3.9031741345
 21
8.0258308929
 31
0.0
  0
LINE
  5
1AD
330
1F
100
AcDbEntity
  8
0
  6
Continuous
 62
     7
370
    15
100
AcDbLine
 10
3.6945491513
 20
8.096801413
 30
0.0
 11
3.6945491513
 21
7.0056764244
 31
0.0
  0
LINE
  5
1AE
330
1F
100
AcDbEntity
  8
0
  6
Continuous
 62
     7
370
    15
100
AcDbLine
 10
4.0772379204
 20
7.0214534688
 30
0.0
 11
4.0772379204
 21
8.0810243686
 31
0.0
  0
LINE
  5
1AF
330
1F
100
AcDbEntity
  8
0
  6
Continuous
 62
     7
370
    15
100
AcDbLine
 10
3.6695491534
 20
7.0306764223
 30
0.0
 11
3.6695491534
 21
8.0718014151
 31
0.0
  0
LINE
  5
1B0
330
1F
100
AcDbEntity
  8
0
  6
Continuous
 62
     7
370
    15
100
AcDbLine
 10
4.092799129
 20
8.0623611042
 30
0.0
 11
4.092799129
 21
7.0401167699
 31
0.0
  0
SPLINE
  5
1B1
330
1F
100
AcDbEntity
  8
0
  6
Continuous
 62
     7
370
    15
100
AcDbSpline
210
0.0
220
0.0
230
1.0
 70
     8
 71
     3
 72
    19
 73
    15
 74
     0
 42
0.00000001
 43
0.00000001
 12
1.0
 22
0.0
 32
0.0
 13
1.0
 23
0.0
 33
0.0
 40
0.0
 40
0.0
 40
0.0
 40
0.0
 40
0.080620364406146
 40
0.1611482088014097
 40
0.2447508608788446
 40
0.3392604985348706
 40
0.4244975920113114
 40
0.4945384941087752
 40
0.5647035891661226
 40
0.633824563280801
 40
0.7162135010190173
 40
0.8149529841325697
 40
0.9139585010947542
 40
0.9999999999999999
 40
0.9999999999999999
 40
0.9999999999999999
 40
0.9999999999999999
 10
4.092799128975495
 20
7.547678475261414
 30
0.0
 10
4.092833367255049
 20
7.547522878856403
 30
0.0
 10
4.092901804522276
 20
7.547211864608975
 30
0.0
 10
4.093484597081631
 20
7.547684311879186
 30
0.0
 10
4.094365543529234
 20
7.548807235448202
 30
0.0
 10
4.095388959459985
 20
7.550563207831231
 30
0.0
 10
4.096192075266884
 20
7.552712209849048
 30
0.0
 10
4.096500161795147
 20
7.554946096604306
 30
0.0
 10
4.096288324977362
 20
7.557048570073829
 30
0.0
 10
4.095660835973056
 20
7.559044158357009
 30
0.0
 10
4.094721787307909
 20
7.560918034154918
 30
0.0
 10
4.093684831615293
 20
7.562416565031229
 30
0.0
 10
4.092923562796357
 20
7.563172938249937
 30
0.0
 10
4.092838623354186
 20
7.562857051190711
 30
0.0
 10
4.092799128975495
 20
7.562710172863961
 30
0.0
  0
LINE
  5
1B2
330
1F
100
AcDbEntity
  8
0
  6
Continuous
 62
     7
370
    15
100
AcDbLine
 10
4.9693616412
 20
7.0809179019
 30
0.0
 11
4.9693616412
 21
8.096801413
 31
0.0
  0
LINE
  5
1B3
330
1F
100
AcDbEntity
  8
0
  6
Continuous
 62
     7
370
    15
100
AcDbLine
 10
4.9693616412
 20
7.0056764244
 30
0.0
 11
4.9693616412
 21
7.0809179019
 31
0.0
  0
LINE
  5
1B4
330
1F
100
AcDbEntity
  8
0
  6
Continuous
 62
     7
370
    15
100
AcDbLine
 10
4.7952978553
 20
8.0810243686
 30
0.0
 11
4.7952978553
 21
7.0214534688
 31
0.0
  0
LINE
  5
1B5
330
1F
100
AcDbEntity
  8
0
  6
Continuous
 62
     7
370
    15
100
AcDbLine
 10
5.1779866611
 20
7.0056764244
 30
0.0
 11
5.1779866611
 21
8.096801413
 31
0.0
  0
LINE
  5
1B6
330
1F
100
AcDbEntity
  8
0
  6
Continuous
 62
     7
370
    15
100
AcDbLine
 10
5.202986659
 20
8.0718014151
 30
0.0
 11
5.202986659
 21
7.0306764223
 31
0.0
  0
LINE
  5
1B7
330
1F
100
AcDbEntity
  8
0
  6
Continuous
 62
     7
370
    15
100
AcDbLine
 10
4.7797366284
 20
7.0401324264
 30
0.0
 11
4.7797366284
 21
7.1011324784
 31
0.0
  0
LINE
  5
1B8
330
1F
100
AcDbEntity
  8
0
  6
Continuous
 62
     7
370
    15
100
AcDbLine
 10
4.7797366284
 20
7.1463383628
 30
0.0
 11
4.7797366284
 21
8.0623611042
 31
0.0
  0
LINE
  5
1B9
330
1F
100
AcDbEntity
  8
0
  6
Continuous
 62
     7
370
    15
100
AcDbLine
 10
4.7797366284
 20
7.0401167699
 30
0.0
 11
4.7797366284
 21
7.0401324264
 31
0.0
  0
SPLINE
  5
1BA
330
1F
100
AcDbEntity
  8
0
  6
Continuous
 62
     7
370
    15
100
AcDbSpline
210
0.0
220
0.0
230
1.0
 70
     8
 71
     3
 72
    19
 73
    15
 74
     0
 42
0.00000001
 43
0.00000001
 12
1.0
 22
0.0
 32
0.0
 13
1.0
 23
0.0
 33
0.0
 40
0.0
 40
0.0
 40
0.0
 40
0.0
 40
0.080619199660418
 40
0.161147227878758
 40
0.2447509619471013
 40
0.3392604813858327
 40
0.4244971370890321
 40
0.4945379958794546
 40
0.5647029492901471
 40
0.6338240193625728
 40
0.7162126143433256
 40
0.81495140468459
 40
0.9139574238980845
 40
1.0
 40
1.0
 40
1.0
 40
1.0
 10
4.779736628414883
 20
7.562710172863961
 30
0.0
 10
4.779702397421406
 20
7.562853319659006
 30
0.0
 10
4.77963397414594
 20
7.563139451365824
 30
0.0
 10
4.779051169650728
 20
7.562629692217474
 30
0.0
 10
4.778170249997382
 20
7.561472927438693
 30
0.0
 10
4.777146782520602
 20
7.559690205218893
 30
0.0
 10
4.776343714052374
 20
7.557524850613656
 30
0.0
 10
4.776035587420596
 20
7.55528537865424
 30
0.0
 10
4.77624743565478
 20
7.553186713559776
 30
0.0
 10
4.776874918057127
 20
7.551203557110179
 30
0.0
 10
4.77781397016593
 20
7.549351880997619
 30
0.0
 10
4.778850924611153
 20
7.54788728016916
 30
0.0
 10
4.779612224930727
 20
7.547173748418476
 30
0.0
 10
4.779697143557457
 20
7.54751827824147
 30
0.0
 10
4.779736628414883
 20
7.547678475261414
 30
0.0
  0
CIRCLE
  5
1BB
330
1F
100
AcDbEntity
  8
0
  6
Continuous
 62
     7
370
    15
100
AcDbCircle
 10
4.4362678821
 20
7.8901139276
 30
0.0
 40
0.0608726291492561
  0
CIRCLE
  5
1BC
330
1F
100
AcDbEntity
  8
0
  6
Continuous
 62
     7
370
    15
100
AcDbCircle
 10
4.4362678821
 20
7.8901139276
 30
0.0
 40
0.0685578333233918
  0
CIRCLE
  5
1BD
330
1F
100
AcDbEntity
  8
0
  6
Continuous
 62
     7
370
    15
100
AcDbCircle
 10
4.4362678821
 20
7.8901139276
 30
0.0
 40
0.0543750000000003
  0
CIRCLE
  5
1BE
330
1F
100
AcDbEntity
  8
0
  6
Continuous
 62
     7
370
    15
100
AcDbCircle
 10
4.4362678821
 20
7.8901139276
 30
0.0
 40
0.0703125
  0
CIRCLE
  5
1BF
330
1F
100
AcDbEntity
  8
0
  6
Continuous
 62
     7
370
    15
100
AcDbCircle
 10
4.4362678821
 20
7.8901139276
 30
0.0
 40
0.074062500000001
  0
CIRCLE
  5
1C0
330
1F
100
AcDbEntity
  8
0
  6
Continuous
 62
     7
370
    15
100
AcDbCircle
 10
4.4362678821
 20
7.8901139276
 30
0.0
 40
0.0794312500000007
  0
CIRCLE
  5
1C1
330
1F
100
AcDbEntity
  8
0
  6
Continuous
 62
     7
370
    15
100
AcDbCircle
 10
4.4362678821
 20
7.8901139276
 30
0.0
 40
0.08984375
  0
LINE
  5
1C2
330
1F
100
AcDbEntity
  8
0
  6
Continuous
 62
     7
370
    15
100
AcDbLine
 10
4.3418928831
 20
7.8356264801
 30
0.0
 11
4.3418928831
 21
7.9446013412
 31
0.0
  0
LINE
  5
1C3
330
1F
100
AcDbEntity
  8
0
  6
Continuous
 62
     7
370
    15
100
AcDbLine
 10
4.3418928831
 20
7.9446013412
 30
0.0
 11
4.4362678833
 21
7.9990888084
 31
0.0
  0
LINE
  5
1C4
330
1F
100
AcDbEntity
  8
0
  6
Continuous
 62
     7
370
    15
100
AcDbLine
 10
4.4362678833
 20
7.7811390679
 30
0.0
 11
4.3418928831
 21
7.8356264801
 31
0.0
  0
LINE
  5
1C5
330
1F
100
AcDbEntity
  8
0
  6
Continuous
 62
     7
370
    15
100
AcDbLine
 10
4.5306428835
 20
7.9446013412
 30
0.0
 11
4.5306428835
 21
7.8356264801
 31
0.0
  0
LINE
  5
1C6
330
1F
100
AcDbEntity
  8
0
  6
Continuous
 62
     7
370
    15
100
AcDbLine
 10
4.4362678833
 20
7.9990888084
 30
0.0
 11
4.5306428835
 21
7.9446013412
 31
0.0
  0
LINE
  5
1C7
330
1F
100
AcDbEntity
  8
0
  6
Continuous
 62
     7
370
    15
100
AcDbLine
 10
4.5306428835
 20
7.8356264801
 30
0.0
 11
4.4362678833
 21
7.7811390679
 31
0.0
  0
LWPOLYLINE
  5
1C8
330
1F
100
AcDbEntity
  8
0
  6
Continuous
 62
     7
370
    15
100
AcDbPolyline
 90
        3
 70
   128
 43
0.0
 10
4.5317053795
 20
7.8901139107
 10
4.5308164706
 20
7.9031093439
 10
4.5306428835
 20
7.9043151866
  0
ARC
  5
1C9
330
1F
100
AcDbEntity
  8
0
  6
Continuous
 62
     7
370
    15
100
AcDbCircle
 10
4.4362678821
 20
7.8901139276
 30
0.0
 40
0.0954374999999995
100
AcDbArc
 50
51.442511743
 51
68.557488257
  0
ARC
  5
1CA
330
1F
100
AcDbEntity
  8
0
  6
Continuous
 62
     7
370
    15
100
AcDbCircle
 10
4.4362678821
 20
7.8901139276
 30
0.0
 40
0.0954374999999992
100
AcDbArc
 50
111.4425117431
 51
128.557488257
  0
ARC
  5
1CB
330
1F
100
AcDbEntity
  8
0
  6
Continuous
 62
     7
370
    15
100
AcDbCircle
 10
4.4362678821
 20
7.8901139276
 30
0.0
 40
0.0954374999999997
100
AcDbArc
 50
171.4425117431
 51
188.557488257
  0
ARC
  5
1CC
330
1F
100
AcDbEntity
  8
0
  6
Continuous
 62
     7
370
    15
100
AcDbCircle
 10
4.4362678821
 20
7.8901139276
 30
0.0
 40
0.0954375000000005
100
AcDbArc
 50
231.7755258311
 51
248.5574882569
  0
ARC
  5
1CD
330
1F
100
AcDbEntity
  8
0
  6
Continuous
 62
     7
370
    15
100
AcDbCircle
 10
4.4362678821
 20
7.8901139276
 30
0.0
 40
0.0954375000000015
100
AcDbArc
 50
291.4425117431
 51
308.2244741689
  0
LWPOLYLINE
  5
1CE
330
1F
100
AcDbEntity
  8
0
  6
Continuous
 62
     7
370
    15
100
AcDbPolyline
 90
        3
 70
   128
 43
0.0
 10
4.5306428835
 20
7.8759126714
 10
4.5308164706
 20
7.8771185141
 10
4.5317053795
 20
7.8901139107
  0
CIRCLE
  5
1CF
330
1F
100
AcDbEntity
  8
0
  6
Continuous
 62
     7
370
    15
100
AcDbCircle
 10
4.4362678821
 20
7.2123639276
 30
0.0
 40
0.0608726291492561
  0
CIRCLE
  5
1D0
330
1F
100
AcDbEntity
  8
0
  6
Continuous
 62
     7
370
    15
100
AcDbCircle
 10
4.4362678821
 20
7.2123639276
 30
0.0
 40
0.0543750000000003
  0
CIRCLE
  5
1D1
330
1F
100
AcDbEntity
  8
0
  6
Continuous
 62
     7
370
    15
100
AcDbCircle
 10
4.4362678821
 20
7.2123639276
 30
0.0
 40
0.0685578333233918
  0
CIRCLE
  5
1D2
330
1F
100
AcDbEntity
  8
0
  6
Continuous
 62
     7
370
    15
100
AcDbCircle
 10
4.4362678821
 20
7.2123639276
 30
0.0
 40
0.0703125
  0
CIRCLE
  5
1D3
330
1F
100
AcDbEntity
  8
0
  6
Continuous
 62
     7
370
    15
100
AcDbCircle
 10
4.4362678821
 20
7.2123639276
 30
0.0
 40
0.074062500000001
  0
CIRCLE
  5
1D4
330
1F
100
AcDbEntity
  8
0
  6
Continuous
 62
     7
370
    15
100
AcDbCircle
 10
4.4362678821
 20
7.2123639276
 30
0.0
 40
0.0794312500000007
  0
CIRCLE
  5
1D5
330
1F
100
AcDbEntity
  8
0
  6
Continuous
 62
     7
370
    15
100
AcDbCircle
 10
4.4362678821
 20
7.2123639276
 30
0.0
 40
0.08984375
  0
LINE
  5
1D6
330
1F
100
AcDbEntity
  8
0
  6
Continuous
 62
     7
370
    15
100
AcDbLine
 10
4.4362678833
 20
7.3213387879
 30
0.0
 11
4.5306428835
 21
7.2668513573
 31
0.0
  0
LINE
  5
1D7
330
1F
100
AcDbEntity
  8
0
  6
Continuous
 62
     7
370
    15
100
AcDbLine
 10
4.5306428835
 20
7.2668513573
 30
0.0
 11
4.5306428835
 21
7.1578764962
 31
0.0
  0
LINE
  5
1D8
330
1F
100
AcDbEntity
  8
0
  6
Continuous
 62
     7
370
    15
100
AcDbLine
 10
4.3418928831
 20
7.2668513573
 30
0.0
 11
4.4362678833
 21
7.3213387879
 31
0.0
  0
LINE
  5
1D9
330
1F
100
AcDbEntity
  8
0
  6
Continuous
 62
     7
370
    15
100
AcDbLine
 10
4.5306428835
 20
7.1578764962
 30
0.0
 11
4.4362678833
 21
7.1033890656
 31
0.0
  0
LINE
  5
1DA
330
1F
100
AcDbEntity
  8
0
  6
Continuous
 62
     7
370
    15
100
AcDbLine
 10
4.4362678833
 20
7.1033890656
 30
0.0
 11
4.3418928831
 21
7.1578764962
 31
0.0
  0
LINE
  5
1DB
330
1F
100
AcDbEntity
  8
0
  6
Continuous
 62
     7
370
    15
100
AcDbLine
 10
4.3418928831
 20
7.1578764962
 30
0.0
 11
4.3418928831
 21
7.2668513573
 31
0.0
  0
LWPOLYLINE
  5
1DC
330
1F
100
AcDbEntity
  8
0
  6
Continuous
 62
     7
370
    15
100
AcDbPolyline
 90
        3
 70
   128
 43
0.0
 10
4.5317053795
 20
7.2123639268
 10
4.5308164706
 20
7.2253593233
 10
4.5306428835
 20
7.2265651844
  0
ARC
  5
1DD
330
1F
100
AcDbEntity
  8
0
  6
Continuous
 62
     7
370
    15
100
AcDbCircle
 10
4.4362678821
 20
7.2123639276
 30
0.0
 40
0.0954375000000003
100
AcDbArc
 50
51.442511743
 51
68.557488257
  0
ARC
  5
1DE
330
1F
100
AcDbEntity
  8
0
  6
Continuous
 62
     7
370
    15
100
AcDbCircle
 10
4.4362678821
 20
7.2123639276
 30
0.0
 40
0.0954375000000003
100
AcDbArc
 50
111.442511743
 51
128.557488257
  0
ARC
  5
1DF
330
1F
100
AcDbEntity
  8
0
  6
Continuous
 62
     7
370
    15
100
AcDbCircle
 10
4.4362678821
 20
7.2123639276
 30
0.0
 40
0.0954374999999996
100
AcDbArc
 50
171.4425117431
 51
188.557488257
  0
ARC
  5
1E0
330
1F
100
AcDbEntity
  8
0
  6
Continuous
 62
     7
370
    15
100
AcDbCircle
 10
4.4362678821
 20
7.2123639276
 30
0.0
 40
0.0954374999999998
100
AcDbArc
 50
231.4425117431
 51
248.5574882569
  0
ARC
  5
1E1
330
1F
100
AcDbEntity
  8
0
  6
Continuous
 62
     7
370
    15
100
AcDbCircle
 10
4.4362678821
 20
7.2123639276
 30
0.0
 40
0.0954375000000006
100
AcDbArc
 50
291.4425117431
 51
308.5574882569
  0
LWPOLYLINE
  5
1E2
330
1F
100
AcDbEntity
  8
0
  6
Continuous
 62
     7
370
    15
100
AcDbPolyline
 90
        3
 70
   128
 43
0.0
 10
4.5306428835
 20
7.1981626508
 10
4.5308164706
 20
7.1993685302
 10
4.5317053795
 20
7.2123639268
  0
ARC
  5
1E3
330
1F
100
AcDbEntity
  8
0
  6
Continuous
 62
     7
370
    15
100
AcDbCircle
 10
4.7669922821
 20
7.1248306436
 30
0.0
 40
0.0250000000000001
100
AcDbArc
 50
319.9748186344
 51
139.9748186343
  0
LINE
  5
1E4
330
1F
100
AcDbEntity
  8
0
  6
Continuous
 62
     7
370
    15
100
AcDbLine
 10
4.6967917566
 20
7.002370816
 30
0.0
 11
4.7861363178
 21
7.1087525304
 31
0.0
  0
ARC
  5
1E5
330
1F
100
AcDbEntity
  8
0
  6
Continuous
 62
     7
370
    15
100
AcDbCircle
 10
4.6320151648
 20
7.0567733438
 30
0.0
 40
0.0845910310529063
100
AcDbArc
 50
294.071526989
 51
319.9748186344
  0
ARC
  5
1E6
330
1F
100
AcDbEntity
  8
0
  6
Continuous
 62
     7
370
    15
100
AcDbCircle
 10
4.6550941425
 20
7.0571923452
 30
0.0
 40
0.0234375000000006
100
AcDbArc
 50
299.1706795883
 51
2.8082467004
  0
LINE
  5
1E7
330
1F
100
AcDbEntity
  8
0
  6
Continuous
 62
     7
370
    15
100
AcDbLine
 10
4.7478482535
 20
7.1409087522
 30
0.0
 11
4.6785034962
 21
7.0583406261
 31
0.0
  0
CIRCLE
  5
1E8
330
1F
100
AcDbEntity
  8
0
  6
Continuous
 62
     7
370
    15
100
AcDbCircle
 10
4.7669922821
 20
7.1248306436
 30
0.0
 40
0.0120625000000004
  0
LINE
  5
1E9
330
1F
100
AcDbEntity
  8
0
  6
Continuous
 62
     7
370
    15
100
AcDbLine
 10
4.2060178877
 20
7.0434264117
 30
0.0
 11
4.2060178877
 21
6.949676438
 31
0.0
  0
LINE
  5
1EA
330
1F
100
AcDbEntity
  8
0
  6
Continuous
 62
     7
370
    15
100
AcDbLine
 10
4.2060178877
 20
7.0434264117
 30
0.0
 11
4.666517888
 21
7.0434264117
 31
0.0
  0
LINE
  5
1EB
330
1F
100
AcDbEntity
  8
0
  6
Continuous
 62
     7
370
    15
100
AcDbLine
 10
4.666517888
 20
7.0434264117
 30
0.0
 11
4.666517888
 21
6.949676438
 31
0.0
  0
LINE
  5
1EC
330
1F
100
AcDbEntity
  8
0
  6
Continuous
 62
     7
370
    15
100
AcDbLine
 10
4.2060178877
 20
6.949676438
 30
0.0
 11
4.666517888
 21
6.949676438
 31
0.0
  0
CIRCLE
  5
1ED
330
1F
100
AcDbEntity
  8
0
  6
Continuous
 62
     7
370
    15
100
AcDbCircle
 10
4.6430178821
 20
7.0044264276
 30
0.0
 40
0.0120624999999999
  0
CIRCLE
  5
1EE
330
1F
100
AcDbEntity
  8
0
  6
Continuous
 62
     7
370
    15
100
AcDbCircle
 10
4.6430178821
 20
7.0044264276
 30
0.0
 40
0.0117500000000001
  0
LINE
  5
1EF
330
1F
100
AcDbEntity
  8
0
  6
Continuous
 62
     7
370
    15
100
AcDbLine
 10
4.4362678833
 20
7.8554264347
 30
0.0
 11
4.4753303799
 21
7.8554264347
 31
0.0
  0
LINE
  5
1F0
330
1F
100
AcDbEntity
  8
0
  6
Continuous
 62
     7
370
    15
100
AcDbLine
 10
4.397205382
 20
7.8554264347
 30
0.0
 11
4.4362678833
 21
7.8554264347
 31
0.0
  0
LINE
  5
1F1
330
1F
100
AcDbEntity
  8
0
  6
Continuous
 62
     7
370
    15
100
AcDbLine
 10
4.4362678833
 20
7.8541764458
 30
0.0
 11
4.3984553824
 21
7.8541764458
 31
0.0
  0
LINE
  5
1F2
330
1F
100
AcDbEntity
  8
0
  6
Continuous
 62
     7
370
    15
100
AcDbLine
 10
4.4740803819
 20
7.8541764458
 30
0.0
 11
4.4362678833
 21
7.8541764458
 31
0.0
  0
LINE
  5
1F3
330
1F
100
AcDbEntity
  8
0
  6
Continuous
 62
     7
370
    15
100
AcDbLine
 10
4.1084241368
 20
8.0590514258
 30
0.0
 11
4.7641116389
 21
8.0590514258
 31
0.0
  0
LINE
  5
1F4
330
1F
100
AcDbEntity
  8
0
  6
Continuous
 62
     7
370
    15
100
AcDbLine
 10
4.7641116389
 20
8.0590514258
 30
0.0
 11
4.7641116389
 21
8.0278014101
 31
0.0
  0
LINE
  5
1F5
330
1F
100
AcDbEntity
  8
0
  6
Continuous
 62
     7
370
    15
100
AcDbLine
 10
4.7641116389
 20
8.0278014101
 30
0.0
 11
4.1084241368
 21
8.0278014101
 31
0.0
  0
LINE
  5
1F6
330
1F
100
AcDbEntity
  8
0
  6
Continuous
 62
     7
370
    15
100
AcDbLine
 10
4.1084241368
 20
8.0278014101
 30
0.0
 11
4.1084241368
 21
8.0590514258
 31
0.0
  0
LINE
  5
1F7
330
1F
100
AcDbEntity
  8
0
  6
Continuous
 62
     7
370
    15
100
AcDbLine
 10
4.1084241368
 20
7.0434264117
 30
0.0
 11
4.2060178877
 21
7.0434264117
 31
0.0
  0
LINE
  5
1F8
330
1F
100
AcDbEntity
  8
0
  6
Continuous
 62
     7
370
    15
100
AcDbLine
 10
4.1084241368
 20
7.0434264117
 30
0.0
 11
4.1084241368
 21
8.0278014101
 31
0.0
  0
LINE
  5
1F9
330
1F
100
AcDbEntity
  8
0
  6
Continuous
 62
     7
370
    15
100
AcDbLine
 10
4.7641116389
 20
7.1974412425
 30
0.0
 11
4.6393928797
 21
7.0434264117
 31
0.0
  0
LINE
  5
1FA
330
1F
100
AcDbEntity
  8
0
  6
Continuous
 62
     7
370
    15
100
AcDbLine
 10
4.7641116389
 20
7.1974412425
 30
0.0
 11
4.7641116389
 21
8.0278014101
 31
0.0
  0
LINE
  5
1FB
330
1F
100
AcDbEntity
  8
0
  6
Continuous
 62
     7
370
    15
100
AcDbLine
 10
4.666517888
 20
7.0434264117
 30
0.0
 11
4.6740629575
 21
7.0434264117
 31
0.0
  0
LINE
  5
1FC
330
1F
100
AcDbEntity
  8
0
  6
Continuous
 62
     7
370
    15
100
AcDbLine
 10
4.7312722516
 20
7.0434264117
 30
0.0
 11
4.7641116389
 21
7.0434264117
 31
0.0
  0
LINE
  5
1FD
330
1F
100
AcDbEntity
  8
0
  6
Continuous
 62
     7
370
    15
100
AcDbLine
 10
4.7641116389
 20
7.0434264117
 30
0.0
 11
4.7641116389
 21
7.0825279533
 31
0.0
  0
LINE
  5
1FE
330
1F
100
AcDbEntity
  8
0
  6
Continuous
 62
     7
370
    15
100
AcDbLine
 10
4.7641116389
 20
7.1131171699
 30
0.0
 11
4.7641116389
 21
7.1365441126
 31
0.0
  0
LINE
  5
1FF
330
1F
100
AcDbEntity
  8
0
  6
Continuous
 62
     7
370
    15
100
AcDbLine
 10
4.7641116389
 20
7.1496641377
 30
0.0
 11
4.7641116389
 21
7.1974412425
 31
0.0
  0
LINE
  5
200
330
1F
100
AcDbEntity
  8
0
  6
Continuous
 62
     7
370
    15
100
AcDbLine
 10
4.3821412943
 20
7.2071722801
 30
0.0
 11
4.3821412943
 21
7.2175555735
 31
0.0
  0
LINE
  5
201
330
1F
100
AcDbEntity
  8
0
  6
Continuous
 62
     7
370
    15
100
AcDbLine
 10
4.4903944676
 20
7.2175555735
 30
0.0
 11
4.4903944676
 21
7.2071722801
 31
0.0
  0
ENDSEC
  0
SECTION
  2
OBJECTS
  0
DICTIONARY
  5
C
330
0
100
AcDbDictionary
281
     1
  3
ACAD_GROUP
350
D
  3
ACAD_LAYOUT
350
1A
  3
ACAD_MLINESTYLE
350
17
  3
ACAD_PLOTSETTINGS
350
19
  3
ACAD_PLOTSTYLENAME
350
E
  0
DICTIONARY
  5
D
102
{ACAD_REACTORS
330
C
102
}
330
C
100
AcDbDictionary
281
     1
  0
DICTIONARY
  5
1A
102
{ACAD_REACTORS
330
C
102
}
330
C
100
AcDbDictionary
281
     1
  3
Layout1
350
1E
  3
Layout2
350
26
  3
Model
350
22
  0
DICTIONARY
  5
17
102
{ACAD_REACTORS
330
C
102
}
330
C
100
AcDbDictionary
281
     1
  3
Standard
350
18
  0
DICTIONARY
  5
19
102
{ACAD_REACTORS
330
C
102
}
330
C
100
AcDbDictionary
281
     1
  0
ACDBDICTIONARYWDFLT
  5
E
102
{ACAD_REACTORS
330
C
102
}
330
C
100
AcDbDictionary
281
     1
  3
Normal
350
F
100
AcDbDictionaryWithDefault
340
F
  0
LAYOUT
  5
1E
102
{ACAD_REACTORS
330
1A
102
}
330
1A
100
AcDbPlotSettings
  1

  2
none_device
  4

  6

 40
0.0
 41
0.0
 42
0.0
 43
0.0
 44
0.0
 45
0.0
 46
0.0
 47
0.0
 48
0.0
 49
0.0
140
0.0
141
0.0
142
1.0
143
1.0
 70
   688
 72
     0
 73
     0
 74
     5
  7

 75
    16
147
1.0
148
0.0
149
0.0
100
AcDbLayout
  1
Layout1
 70
     1
 71
     1
 10
0.0
 20
0.0
 11
12.0
 21
9.0
 12
0.0
 22
0.0
 32
0.0
 14
1.0000000000E+20
 24
1.0000000000E+20
 34
1.0000000000E+20
 15
-1.0000000000E+20
 25
-1.0000000000E+20
 35
-1.0000000000E+20
146
0.0
 13
0.0
 23
0.0
 33
0.0
 16
1.0
 26
0.0
 36
0.0
 17
0.0
 27
1.0
 37
0.0
 76
     0
330
1B
  0
LAYOUT
  5
26
102
{ACAD_REACTORS
330
1A
102
}
330
1A
100
AcDbPlotSettings
  1

  2
none_device
  4

  6

 40
0.0
 41
0.0
 42
0.0
 43
0.0
 44
0.0
 45
0.0
 46
0.0
 47
0.0
 48
0.0
 49
0.0
140
0.0
141
0.0
142
1.0
143
1.0
 70
   688
 72
     0
 73
     0
 74
     5
  7

 75
    16
147
1.0
148
0.0
149
0.0
100
AcDbLayout
  1
Layout2
 70
     1
 71
     2
 10
0.0
 20
0.0
 11
0.0
 21
0.0
 12
0.0
 22
0.0
 32
0.0
 14
0.0
 24
0.0
 34
0.0
 15
0.0
 25
0.0
 35
0.0
146
0.0
 13
0.0
 23
0.0
 33
0.0
 16
1.0
 26
0.0
 36
0.0
 17
0.0
 27
1.0
 37
0.0
 76
     0
330
23
  0
LAYOUT
  5
22
102
{ACAD_REACTORS
330
1A
102
}
330
1A
100
AcDbPlotSettings
  1

  2
none_device
  4

  6

 40
0.0
 41
0.0
 42
0.0
 43
0.0
 44
0.0
 45
0.0
 46
0.0
 47
0.0
 48
0.0
 49
0.0
140
0.0
141
0.0
142
1.0
143
1.0
 70
  1712
 72
     0
 73
     0
 74
     0
  7

 75
     0
147
1.0
148
0.0
149
0.0
100
AcDbLayout
  1
Model
 70
     1
 71
     0
 10
0.0
 20
0.0
 11
8.5
 21
11.0
 12
0.0
 22
0.0
 32
0.0
 14
0.0
 24
0.0
 34
0.0
 15
8.5
 25
11.0
 35
0.0
146
0.0
 13
0.0
 23
0.0
 33
0.0
 16
1.0
 26
0.0
 36
0.0
 17
0.0
 27
1.0
 37
0.0
 76
     0
330
1F
331
29
  0
MLINESTYLE
  5
18
102
{ACAD_REACTORS
330
17
102
}
330
17
100
AcDbMlineStyle
  2
Standard
 70
     0
  3

 62
   256
 51
90.0
 52
90.0
 71
     2
 49
0.5
 62
   256
  6
BYLAYER
 49
-0.5
 62
   256
  6
BYLAYER
  0
ACDBPLACEHOLDER
  5
F
102
{ACAD_REACTORS
330
E
102
}
330
E
  0
ENDSEC
  0
EOF
