  0
SECTION
  2
HEADER
  9
$ACADVER
  1
AC1015
  9
$ACADMAINTVER
 70
     6
  9
$DWGCODEPAGE
  3
ANSI_1252
  9
$INSBASE
 10
0.0
 20
0.0
 30
0.0
  9
$EXTMIN
 10
0.0
 20
0.0
 30
0.0
  9
$EXTMAX
 10
8.5
 20
11.0
 30
0.0
  9
$LIMMIN
 10
0.0
 20
0.0
  9
$LIMMAX
 10
8.5
 20
11.0
  9
$ORTHOMODE
 70
     0
  9
$REGENMODE
 70
     1
  9
$FILLMODE
 70
     1
  9
$QTEXTMODE
 70
     0
  9
$MIRRTEXT
 70
     1
  9
$LTSCALE
 40
1.0
  9
$ATTMODE
 70
     1
  9
$TEXTSIZE
 40
0.125
  9
$TRACEWID
 40
0.05
  9
$TEXTSTYLE
  7
Standard
  9
$CLAYER
  8
0
  9
$CELTYPE
  6
ByLayer
  9
$CECOLOR
 62
   256
  9
$CELTSCALE
 40
1.0
  9
$DISPSILH
 70
     0
  9
$DIMSCALE
 40
1.0
  9
$DIMASZ
 40
0.13
  9
$DIMEXO
 40
0.05
  9
$DIMDLI
 40
0.38
  9
$DIMRND
 40
0.0
  9
$DIMDLE
 40
0.0
  9
$DIMEXE
 40
0.125
  9
$DIMTP
 40
0.0
  9
$DIMTM
 40
0.0
  9
$DIMTXT
 40
0.1527777778
  9
$DIMCEN
 40
0.09
  9
$DIMTSZ
 40
0.0
  9
$DIMTOL
 70
     0
  9
$DIMLIM
 70
     0
  9
$DIMTIH
 70
     1
  9
$DIMTOH
 70
     1
  9
$DIMSE1
 70
     0
  9
$DIMSE2
 70
     0
  9
$DIMTAD
 70
     1
  9
$DIMZIN
 70
     0
  9
$DIMBLK
  1

  9
$DIMASO
 70
     1
  9
$DIMSHO
 70
     1
  9
$DIMPOST
  1

  9
$DIMAPOST
  1

  9
$DIMALT
 70
     0
  9
$DIMALTD
 70
     2
  9
$DIMALTF
 40
25.4
  9
$DIMLFAC
 40
8.0
  9
$DIMTOFL
 70
     0
  9
$DIMTVP
 40
0.0
  9
$DIMTIX
 70
     0
  9
$DIMSOXD
 70
     0
  9
$DIMSAH
 70
     0
  9
$DIMBLK1
  1

  9
$DIMBLK2
  1

  9
$DIMSTYLE
  2
Standard
  9
$DIMCLRD
 70
     0
  9
$DIMCLRE
 70
     0
  9
$DIMCLRT
 70
     0
  9
$DIMTFAC
 40
1.0
  9
$DIMGAP
 40
0.06
  9
$DIMJUST
 70
     0
  9
$DIMSD1
 70
     0
  9
$DIMSD2
 70
     0
  9
$DIMTOLJ
 70
     1
  9
$DIMTZIN
 70
     0
  9
$DIMALTZ
 70
     0
  9
$DIMALTTZ
 70
     0
  9
$DIMUPT
 70
     0
  9
$DIMDEC
 70
     2
  9
$DIMTDEC
 70
     2
  9
$DIMALTU
 70
     2
  9
$DIMALTTD
 70
     2
  9
$DIMTXSTY
  7
Standard
  9
$DIMAUNIT
 70
     0
  9
$DIMADEC
 70
     2
  9
$DIMALTRND
 40
0.0
  9
$DIMAZIN
 70
     0
  9
$DIMDSEP
 70
    46
  9
$DIMATFIT
 70
     3
  9
$DIMFRAC
 70
     0
  9
$DIMLDRBLK
  1

  9
$DIMLUNIT
 70
     2
  9
$DIMLWD
 70
    -2
  9
$DIMLWE
 70
    -2
  9
$DIMTMOVE
 70
     0
  9
$LUNITS
 70
     2
  9
$LUPREC
 70
     3
  9
$SKETCHINC
 40
0.1
  9
$FILLETRAD
 40
0.5
  9
$AUNITS
 70
     0
  9
$AUPREC
 70
     2
  9
$MENU
  1
.
  9
$ELEVATION
 40
0.0
  9
$PELEVATION
 40
0.0
  9
$THICKNESS
 40
0.0
  9
$LIMCHECK
 70
     0
  9
$CHAMFERA
 40
0.5
  9
$CHAMFERB
 40
0.5
  9
$CHAMFERC
 40
1.0
  9
$CHAMFERD
 40
0.0
  9
$SKPOLY
 70
     0
  9
$TDCREATE
 40
2456051.482523218
  9
$TDUCREATE
 40
2456051.732523218
  9
$TDUPDATE
 40
2456051.482523495
  9
$TDUUPDATE
 40
2456051.732523495
  9
$TDINDWG
 40
0.0000000116
  9
$TDUSRTIMER
 40
0.0000000116
  9
$USRTIMER
 70
     1
  9
$ANGBASE
 50
0.0
  9
$ANGDIR
 70
     0
  9
$PDMODE
 70
     0
  9
$PDSIZE
 40
-1.0
  9
$PLINEWID
 40
0.0
  9
$SPLFRAME
 70
     0
  9
$SPLINETYPE
 70
     6
  9
$SPLINESEGS
 70
     8
  9
$HANDSEED
  5
191
  9
$SURFTAB1
 70
     6
  9
$SURFTAB2
 70
     6
  9
$SURFTYPE
 70
     6
  9
$SURFU
 70
     6
  9
$SURFV
 70
     6
  9
$UCSBASE
  2

  9
$UCSNAME
  2

  9
$UCSORG
 10
0.0
 20
0.0
 30
0.0
  9
$UCSXDIR
 10
1.0
 20
0.0
 30
0.0
  9
$UCSYDIR
 10
0.0
 20
1.0
 30
0.0
  9
$UCSORTHOREF
  2

  9
$UCSORTHOVIEW
 70
     0
  9
$UCSORGTOP
 10
0.0
 20
0.0
 30
0.0
  9
$UCSORGBOTTOM
 10
0.0
 20
0.0
 30
0.0
  9
$UCSORGLEFT
 10
0.0
 20
0.0
 30
0.0
  9
$UCSORGRIGHT
 10
0.0
 20
0.0
 30
0.0
  9
$UCSORGFRONT
 10
0.0
 20
0.0
 30
0.0
  9
$UCSORGBACK
 10
0.0
 20
0.0
 30
0.0
  9
$PUCSBASE
  2

  9
$PUCSNAME
  2

  9
$PUCSORG
 10
0.0
 20
0.0
 30
0.0
  9
$PUCSXDIR
 10
1.0
 20
0.0
 30
0.0
  9
$PUCSYDIR
 10
0.0
 20
1.0
 30
0.0
  9
$PUCSORTHOREF
  2

  9
$PUCSORTHOVIEW
 70
     0
  9
$PUCSORGTOP
 10
0.0
 20
0.0
 30
0.0
  9
$PUCSORGBOTTOM
 10
0.0
 20
0.0
 30
0.0
  9
$PUCSORGLEFT
 10
0.0
 20
0.0
 30
0.0
  9
$PUCSORGRIGHT
 10
0.0
 20
0.0
 30
0.0
  9
$PUCSORGFRONT
 10
0.0
 20
0.0
 30
0.0
  9
$PUCSORGBACK
 10
0.0
 20
0.0
 30
0.0
  9
$USERI1
 70
     0
  9
$USERI2
 70
     0
  9
$USERI3
 70
     0
  9
$USERI4
 70
     0
  9
$USERI5
 70
     0
  9
$USERR1
 40
0.0
  9
$USERR2
 40
0.0
  9
$USERR3
 40
0.0
  9
$USERR4
 40
0.0
  9
$USERR5
 40
0.0
  9
$WORLDVIEW
 70
     1
  9
$SHADEDGE
 70
     3
  9
$SHADEDIF
 70
    70
  9
$TILEMODE
 70
     1
  9
$MAXACTVP
 70
    64
  9
$PINSBASE
 10
0.0
 20
0.0
 30
0.0
  9
$PLIMCHECK
 70
     0
  9
$PEXTMIN
 10
1.0000000000E+20
 20
1.0000000000E+20
 30
1.0000000000E+20
  9
$PEXTMAX
 10
-1.0000000000E+20
 20
-1.0000000000E+20
 30
-1.0000000000E+20
  9
$PLIMMIN
 10
0.0
 20
0.0
  9
$PLIMMAX
 10
12.0
 20
9.0
  9
$UNITMODE
 70
     0
  9
$VISRETAIN
 70
     1
  9
$PLINEGEN
 70
     0
  9
$PSLTSCALE
 70
     1
  9
$TREEDEPTH
 70
  3020
  9
$CMLSTYLE
  2
Standard
  9
$CMLJUST
 70
     0
  9
$CMLSCALE
 40
1.0
  9
$PROXYGRAPHICS
 70
     1
  9
$MEASUREMENT
 70
     0
  9
$CELWEIGHT
370
    -1
  9
$ENDCAPS
280
     0
  9
$JOINSTYLE
280
     0
  9
$LWDISPLAY
290
     1
  9
$INSUNITS
 70
     1
  9
$HYPERLINKBASE
  1

  9
$STYLESHEET
  1

  9
$XEDIT
290
     1
  9
$CEPSNTYPE
380
     0
  9
$PSTYLEMODE
290
     1
  9
$FINGERPRINTGUID
  2
{CA94E1DF-44D4-4700-9798-B5DB3B80467A}
  9
$VERSIONGUID
  2
{FAEB1C32-E019-11D5-929B-00C0DF256EC4}
  9
$EXTNAMES
290
     1
  9
$PSVPSCALE
 40
0.0
  9
$OLESTARTUP
290
     0
  0
ENDSEC
  0
SECTION
  2
CLASSES
  0
CLASS
  1
ACDBDICTIONARYWDFLT
  2
AcDbDictionaryWithDefault
  3
ObjectDBX Classes
 90
        0
280
     0
281
     0
  0
CLASS
  1
VISUALSTYLE
  2
AcDbVisualStyle
  3
ObjectDBX Classes
 90
     4095
280
     0
281
     0
  0
CLASS
  1
MATERIAL
  2
AcDbMaterial
  3
ObjectDBX Classes
 90
     1153
280
     0
281
     0
  0
CLASS
  1
ACDBPLACEHOLDER
  2
AcDbPlaceHolder
  3
ObjectDBX Classes
 90
        0
280
     0
281
     0
  0
CLASS
  1
LAYOUT
  2
AcDbLayout
  3
ObjectDBX Classes
 90
        0
280
     0
281
     0
  0
ENDSEC
  0
SECTION
  2
TABLES
  0
TABLE
  2
VPORT
  5
8
330
0
100
AcDbSymbolTable
 70
     1
  0
VPORT
  5
29
330
8
100
AcDbSymbolTableRecord
100
AcDbViewportTableRecord
  2
*Active
 70
     0
 10
0.0
 20
0.0
 11
1.0
 21
1.0
 12
4.25
 22
5.5
 13
0.0
 23
0.0
 14
0.5
 24
0.5
 15
0.5
 25
0.5
 16
0.0
 26
0.0
 36
1.0
 17
0.0
 27
0.0
 37
0.0
 40
11.0
 41
0.7727272727
 42
50.0
 43
0.0
 44
0.0
 50
0.0
 51
0.0
 71
     0
 72
  2000
 73
     1
 74
     3
 75
     0
 76
     0
 77
     0
 78
     0
281
     0
 65
     1
110
0.0
120
0.0
130
0.0
111
1.0
121
0.0
131
0.0
112
0.0
122
1.0
132
0.0
 79
     0
146
0.0
  0
ENDTAB
  0
TABLE
  2
LTYPE
  5
5
330
0
100
AcDbSymbolTable
 70
     6
  0
LTYPE
  5
14
330
5
100
AcDbSymbolTableRecord
100
AcDbLinetypeTableRecord
  2
ByBlock
 70
     0
  3

 72
    65
 73
     0
 40
0.0
  0
LTYPE
  5
15
330
5
100
AcDbSymbolTableRecord
100
AcDbLinetypeTableRecord
  2
ByLayer
 70
     0
  3

 72
    65
 73
     0
 40
0.0
  0
LTYPE
  5
16
330
5
100
AcDbSymbolTableRecord
100
AcDbLinetypeTableRecord
  2
Continuous
 70
     0
  3
Solid line
 72
    65
 73
     0
 40
0.0
  0
LTYPE
  5
3F
330
5
100
AcDbSymbolTableRecord
100
AcDbLinetypeTableRecord
  2
HIDDEN
 70
     0
  3
Hidden __ __ __ __ __ __ __ __ __ __ __ __ __ __
 72
    65
 73
     2
 40
0.075
 49
0.05
 74
     0
 49
-0.025
 74
     0
  0
LTYPE
  5
40
330
5
100
AcDbSymbolTableRecord
100
AcDbLinetypeTableRecord
  2
PHANTOM
 70
     0
  3
Phantom ______  __  __  ______  __  __  ______
 72
    65
 73
     6
 40
0.5
 49
0.25
 74
     0
 49
-0.05
 74
     0
 49
0.05
 74
     0
 49
-0.05
 74
     0
 49
0.05
 74
     0
 49
-0.05
 74
     0
  0
LTYPE
  5
41
330
5
100
AcDbSymbolTableRecord
100
AcDbLinetypeTableRecord
  2
CENTER
 70
     0
  3
Center ____ _ ____ _ ____ _ ____ _ ____ _ ____
 72
    65
 73
     4
 40
0.4
 49
0.25
 74
     0
 49
-0.05
 74
     0
 49
0.05
 74
     0
 49
-0.05
 74
     0
  0
LTYPE
  5
42
330
5
100
AcDbSymbolTableRecord
100
AcDbLinetypeTableRecord
  2
CENTERX2
 70
     0
  3
Center (2x) ________  __  ________  __  _____
 72
    65
 73
     4
 40
0.8
 49
0.5
 74
     0
 49
-0.1
 74
     0
 49
0.1
 74
     0
 49
-0.1
 74
     0
  0
LTYPE
  5
43
330
5
100
AcDbSymbolTableRecord
100
AcDbLinetypeTableRecord
  2
DOT2
 70
     0
  3
Dot (.5x) ........................................
 72
    65
 73
     2
 40
0.025
 49
0.0
 74
     0
 49
-0.025
 74
     0
  0
ENDTAB
  0
TABLE
  2
LAYER
  5
2
330
0
100
AcDbSymbolTable
 70
     1
  0
LAYER
  5
10
330
2
100
AcDbSymbolTableRecord
100
AcDbLayerTableRecord
  2
0
 70
     0
 62
     7
  6
Continuous
370
    -3
390
F
  0
ENDTAB
  0
TABLE
  2
STYLE
  5
3
330
0
100
AcDbSymbolTable
 70
     1
  0
STYLE
  5
11
330
3
100
AcDbSymbolTableRecord
100
AcDbTextStyleTableRecord
  2
Standard
 70
     0
 40
0.0
 41
1.0
 50
0.0
 71
     0
 42
0.125
  3
txt
  4

  0
ENDTAB
  0
TABLE
  2
VIEW
  5
6
330
0
100
AcDbSymbolTable
 70
     0
  0
ENDTAB
  0
TABLE
  2
UCS
  5
7
330
0
100
AcDbSymbolTable
 70
     0
  0
ENDTAB
  0
TABLE
  2
APPID
  5
9
330
0
100
AcDbSymbolTable
 70
     1
  0
APPID
  5
12
330
9
100
AcDbSymbolTableRecord
100
AcDbRegAppTableRecord
  2
ACAD
 70
     0
  0
ENDTAB
  0
TABLE
  2
DIMSTYLE
  5
A
330
0
100
AcDbSymbolTable
 70
     1
100
AcDbDimStyleTable
  0
DIMSTYLE
105
27
330
A
100
AcDbSymbolTableRecord
100
AcDbDimStyleTableRecord
  2
Standard
 70
     0
178
     0
340
11
  0
ENDTAB
  0
TABLE
  2
BLOCK_RECORD
  5
1
330
0
100
AcDbSymbolTable
 70
     1
  0
BLOCK_RECORD
  5
1F
330
1
100
AcDbSymbolTableRecord
100
AcDbBlockTableRecord
  2
*Model_Space
340
22
  0
BLOCK_RECORD
  5
1B
330
1
100
AcDbSymbolTableRecord
100
AcDbBlockTableRecord
  2
*Paper_Space
340
1E
  0
BLOCK_RECORD
  5
23
330
1
100
AcDbSymbolTableRecord
100
AcDbBlockTableRecord
  2
*Paper_Space0
340
26
  0
ENDTAB
  0
ENDSEC
  0
SECTION
  2
BLOCKS
  0
BLOCK
  5
20
330
1F
100
AcDbEntity
  8
0
100
AcDbBlockBegin
  2
*Model_Space
 70
     0
 10
0.0
 20
0.0
 30
0.0
  3
*Model_Space
  1

  0
ENDBLK
  5
21
330
1F
100
AcDbEntity
  8
0
100
AcDbBlockEnd
  0
BLOCK
  5
1C
330
1B
100
AcDbEntity
 67
     1
  8
0
100
AcDbBlockBegin
  2
*Paper_Space
 70
     0
 10
0.0
 20
0.0
 30
0.0
  3
*Paper_Space
  1

  0
ENDBLK
  5
1D
330
1B
100
AcDbEntity
 67
     1
  8
0
100
AcDbBlockEnd
  0
BLOCK
  5
24
330
23
100
AcDbEntity
  8
0
100
AcDbBlockBegin
  2
*Paper_Space0
 70
     0
 10
0.0
 20
0.0
 30
0.0
  3
*Paper_Space0
  1

  0
ENDBLK
  5
25
330
23
100
AcDbEntity
  8
0
100
AcDbBlockEnd
  0
ENDSEC
  0
SECTION
  2
ENTITIES
  0
LINE
  5
44
330
1F
100
AcDbEntity
  8
0
  6
Continuous
 62
     7
100
AcDbLine
 10
4.2930589138
 20
8.0633300005
 30
0.0
 11
4.3450861432
 21
8.0723348346
 31
0.0
  0
LINE
  5
45
330
1F
100
AcDbEntity
  8
0
  6
Continuous
 62
     7
100
AcDbLine
 10
3.2513239728
 20
8.0635867929
 30
0.0
 11
3.3040919175
 21
8.0654485301
 31
0.0
  0
LINE
  5
46
330
1F
100
AcDbEntity
  8
0
  6
Continuous
 62
     7
370
    15
100
AcDbLine
 10
4.422770116
 20
7.819159208
 30
0.0
 11
4.4229202276
 21
7.8191793561
 31
0.0
  0
LINE
  5
47
330
1F
100
AcDbEntity
  8
0
  6
Continuous
 62
     7
370
    15
100
AcDbLine
 10
4.4229202276
 20
7.8840125705
 30
0.0
 11
4.422770116
 21
7.8840327186
 31
0.0
  0
LINE
  5
48
330
1F
100
AcDbEntity
  8
0
  6
Continuous
 62
     7
370
    15
100
AcDbLine
 10
4.5640425107
 20
7.8757942354
 30
0.0
 11
4.5595697423
 21
7.8757942354
 31
0.0
  0
LINE
  5
49
330
1F
100
AcDbEntity
  8
0
  6
Continuous
 62
     7
370
    15
100
AcDbLine
 10
4.5595697423
 20
7.8273976911
 30
0.0
 11
4.5640425107
 21
7.8273976911
 31
0.0
  0
ARC
  5
4A
330
1F
100
AcDbEntity
  8
0
  6
Continuous
 62
     7
370
    15
100
AcDbCircle
 10
4.564042503
 20
7.8695442281
 30
0.0
 40
0.0062500000000005
100
AcDbArc
 50
45.0
 51
90.0
  0
ARC
  5
4B
330
1F
100
AcDbEntity
  8
0
  6
Continuous
 62
     7
370
    15
100
AcDbCircle
 10
4.564042503
 20
7.8336476987
 30
0.0
 40
0.0062500000000005
100
AcDbArc
 50
270.0
 51
315.0
  0
LINE
  5
4C
330
1F
100
AcDbEntity
  8
0
  6
Continuous
 62
     7
370
    15
100
AcDbLine
 10
4.5684618929
 20
7.82922829
 30
0.0
 11
4.5685063324
 21
7.8292726928
 31
0.0
  0
LINE
  5
4D
330
1F
100
AcDbEntity
  8
0
  6
Continuous
 62
     7
370
    15
100
AcDbLine
 10
4.5685063324
 20
7.8739192337
 30
0.0
 11
4.5684618929
 21
7.8739636365
 31
0.0
  0
LINE
  5
4E
330
1F
100
AcDbEntity
  8
0
  6
Continuous
 62
     7
370
    15
100
AcDbLine
 10
4.8841042
 20
7.8647209566
 30
0.0
 11
4.5685063324
 21
7.8647209566
 31
0.0
  0
LINE
  5
4F
330
1F
100
AcDbEntity
  8
0
  6
Continuous
 62
     7
370
    15
100
AcDbLine
 10
4.5685063324
 20
7.8384709699
 30
0.0
 11
4.8841042
 21
7.8384709699
 31
0.0
  0
LINE
  5
50
330
1F
100
AcDbEntity
  8
0
  6
Continuous
 62
     7
370
    15
100
AcDbLine
 10
4.3712885107
 20
7.8862834576
 30
0.0
 11
4.3647563462
 21
7.8862834576
 31
0.0
  0
LINE
  5
51
330
1F
100
AcDbEntity
  8
0
  6
Continuous
 62
     7
370
    15
100
AcDbLine
 10
4.3647563462
 20
7.816908469
 30
0.0
 11
4.3712885107
 21
7.816908469
 31
0.0
  0
LINE
  5
52
330
1F
100
AcDbEntity
  8
0
  6
Continuous
 62
     7
370
    15
100
AcDbLine
 10
4.8841042
 20
7.8481584663
 30
0.0
 11
4.9028541434
 21
7.8481584663
 31
0.0
  0
LINE
  5
53
330
1F
100
AcDbEntity
  8
0
  6
Continuous
 62
     7
370
    15
100
AcDbLine
 10
4.9028541434
 20
7.8550334602
 30
0.0
 11
4.8841042
 21
7.8550334602
 31
0.0
  0
LINE
  5
54
330
1F
100
AcDbEntity
  8
0
  6
Continuous
 62
     7
370
    15
100
AcDbLine
 10
4.465819732
 20
7.9003459701
 30
0.0
 11
4.434569753
 21
7.9003459701
 31
0.0
  0
LINE
  5
55
330
1F
100
AcDbEntity
  8
0
  6
Continuous
 62
     7
370
    15
100
AcDbLine
 10
4.434569753
 20
7.8028459564
 30
0.0
 11
4.465819732
 21
7.8028459564
 31
0.0
  0
LINE
  5
56
330
1F
100
AcDbEntity
  8
0
  6
Continuous
 62
     7
370
    15
100
AcDbLine
 10
4.4184034598
 20
7.8115959703
 30
0.0
 11
4.422770116
 21
7.819159208
 31
0.0
  0
LINE
  5
57
330
1F
100
AcDbEntity
  8
0
  6
Continuous
 62
     7
370
    15
100
AcDbLine
 10
4.422770116
 20
7.8840327186
 30
0.0
 11
4.4184034598
 21
7.8915959562
 31
0.0
  0
LINE
  5
58
330
1F
100
AcDbEntity
  8
0
  6
Continuous
 62
     7
370
    15
100
AcDbLine
 10
4.4184034598
 20
7.8915959562
 30
0.0
 11
4.4025384897
 21
7.8915959562
 31
0.0
  0
LINE
  5
59
330
1F
100
AcDbEntity
  8
0
  6
Continuous
 62
     7
370
    15
100
AcDbLine
 10
4.4025384897
 20
7.8115959703
 30
0.0
 11
4.4184034598
 21
7.8115959703
 31
0.0
  0
LINE
  5
5A
330
1F
100
AcDbEntity
  8
0
  6
Continuous
 62
     7
370
    15
100
AcDbLine
 10
4.434569753
 20
7.8906584553
 30
0.0
 11
4.4306634781
 21
7.8838926352
 31
0.0
  0
LINE
  5
5B
330
1F
100
AcDbEntity
  8
0
  6
Continuous
 62
     7
370
    15
100
AcDbLine
 10
4.4306634781
 20
7.8192992914
 30
0.0
 11
4.434569753
 21
7.8125334712
 31
0.0
  0
LINE
  5
5C
330
1F
100
AcDbEntity
  8
0
  6
Continuous
 62
     7
370
    15
100
AcDbLine
 10
4.4267572766
 20
7.8906584553
 30
0.0
 11
4.4229202276
 21
7.8840125705
 31
0.0
  0
LINE
  5
5D
330
1F
100
AcDbEntity
  8
0
  6
Continuous
 62
     7
370
    15
100
AcDbLine
 10
4.4229202276
 20
7.8191793561
 30
0.0
 11
4.4267572766
 21
7.8125334712
 31
0.0
  0
LINE
  5
5E
330
1F
100
AcDbEntity
  8
0
  6
Continuous
 62
     7
370
    15
100
AcDbLine
 10
4.4267572766
 20
7.8125334712
 30
0.0
 11
4.4306634781
 21
7.8192992914
 31
0.0
  0
LINE
  5
5F
330
1F
100
AcDbEntity
  8
0
  6
Continuous
 62
     7
370
    15
100
AcDbLine
 10
4.4306634781
 20
7.8838926352
 30
0.0
 11
4.4267572766
 21
7.8906584553
 31
0.0
  0
LINE
  5
60
330
1F
100
AcDbEntity
  8
0
  6
Continuous
 62
     7
370
    15
100
AcDbLine
 10
4.465819732
 20
7.9003459701
 30
0.0
 11
4.434569753
 21
7.9003459701
 31
0.0
  0
LINE
  5
61
330
1F
100
AcDbEntity
  8
0
  6
Continuous
 62
     7
370
    15
100
AcDbLine
 10
4.434569753
 20
7.8028459564
 30
0.0
 11
4.465819732
 21
7.8028459564
 31
0.0
  0
LINE
  5
62
330
1F
100
AcDbEntity
  8
0
  6
Continuous
 62
     7
370
    15
100
AcDbLine
 10
4.3451313262
 20
8.066150082
 30
0.0
 11
4.3451313262
 21
8.0663979289
 31
0.0
  0
LINE
  5
63
330
1F
100
AcDbEntity
  8
0
  6
Continuous
 62
     7
370
    15
100
AcDbLine
 10
4.2538813303
 20
8.0663979289
 30
0.0
 11
4.2538813303
 21
8.066150082
 31
0.0
  0
LINE
  5
64
330
1F
100
AcDbEntity
  8
0
  6
Continuous
 62
     7
370
    15
100
AcDbLine
 10
3.2122382068
 20
8.0616024157
 30
0.0
 11
3.2122382068
 21
8.0612817815
 31
0.0
  0
LINE
  5
65
330
1F
100
AcDbEntity
  8
0
  6
Continuous
 62
     7
370
    15
100
AcDbLine
 10
3.3034882027
 20
8.0612817815
 30
0.0
 11
3.3034882027
 21
8.0615628606
 31
0.0
  0
LINE
  5
66
330
1F
100
AcDbEntity
  8
0
  6
Continuous
 62
     7
370
    15
100
AcDbLine
 10
3.2734881759
 20
8.058206188
 30
0.0
 11
3.2734881759
 21
8.0615628606
 31
0.0
  0
LINE
  5
67
330
1F
100
AcDbEntity
  8
0
  6
Continuous
 62
     7
370
    15
100
AcDbLine
 10
3.2422381969
 20
8.0615628606
 30
0.0
 11
3.2422381969
 21
8.058206188
 31
0.0
  0
LINE
  5
68
330
1F
100
AcDbEntity
  8
0
  6
Continuous
 62
     7
370
    15
100
AcDbLine
 10
4.2838813204
 20
8.068765535
 30
0.0
 11
4.2838813204
 21
8.0657875172
 31
0.0
  0
LINE
  5
69
330
1F
100
AcDbEntity
  8
0
  6
Continuous
 62
     7
370
    15
100
AcDbLine
 10
4.3151313361
 20
8.0656997085
 30
0.0
 11
4.3151313361
 21
8.068765535
 31
0.0
  0
LINE
  5
6A
330
1F
100
AcDbEntity
  8
0
  6
Continuous
 62
     7
370
    15
100
AcDbLine
 10
3.2705464066
 20
8.0576206986
 30
0.0
 11
3.2705464066
 21
8.0584485983
 31
0.0
  0
LINE
  5
6B
330
1F
100
AcDbEntity
  8
0
  6
Continuous
 62
     7
370
    15
100
AcDbLine
 10
3.2589214109
 20
8.061860464
 30
0.0
 11
3.2589214109
 21
8.0576206986
 31
0.0
  0
LINE
  5
6C
330
1F
100
AcDbEntity
  8
0
  6
Continuous
 62
     7
370
    15
100
AcDbLine
 10
4.3004681022
 20
8.0705753429
 30
0.0
 11
4.3004681022
 21
8.0658308434
 31
0.0
  0
LINE
  5
6D
330
1F
100
AcDbEntity
  8
0
  6
Continuous
 62
     7
370
    15
100
AcDbLine
 10
4.3120931345
 20
8.0699380217
 30
0.0
 11
4.3120931345
 21
8.0705753429
 31
0.0
  0
LINE
  5
6E
330
1F
100
AcDbEntity
  8
0
  6
Continuous
 62
     7
370
    15
100
AcDbLine
 10
4.2869195587
 20
8.0682303685
 30
0.0
 11
4.2869195587
 21
8.0675930476
 31
0.0
  0
LINE
  5
6F
330
1F
100
AcDbEntity
  8
0
  6
Continuous
 62
     7
370
    15
100
AcDbLine
 10
4.2985445544
 20
8.063485869
 30
0.0
 11
4.2985445544
 21
8.0682303685
 31
0.0
  0
LINE
  5
70
330
1F
100
AcDbEntity
  8
0
  6
Continuous
 62
     7
370
    15
100
AcDbLine
 10
3.256804962
 20
8.0571358786
 30
0.0
 11
3.256804962
 21
8.0613756436
 31
0.0
  0
LINE
  5
71
330
1F
100
AcDbEntity
  8
0
  6
Continuous
 62
     7
370
    15
100
AcDbLine
 10
3.2451799663
 20
8.0579637778
 30
0.0
 11
3.2451799663
 21
8.0571358786
 31
0.0
  0
LINE
  5
72
330
1F
100
AcDbEntity
  8
0
  6
Continuous
 62
     7
370
    15
100
AcDbLine
 10
3.1253631904
 20
8.1187800534
 30
0.0
 11
3.1216131871
 21
8.1150300546
 31
0.0
  0
LINE
  5
73
330
1F
100
AcDbEntity
  8
0
  6
Continuous
 62
     7
370
    15
100
AcDbLine
 10
3.1216131871
 20
8.0131550523
 30
0.0
 11
3.1253631904
 21
8.0094050536
 31
0.0
  0
LINE
  5
74
330
1F
100
AcDbEntity
  8
0
  6
Continuous
 62
     7
370
    15
100
AcDbLine
 10
3.1693631955
 20
8.0094050536
 30
0.0
 11
3.1731131988
 21
8.0131550523
 31
0.0
  0
LINE
  5
75
330
1F
100
AcDbEntity
  8
0
  6
Continuous
 62
     7
370
    15
100
AcDbLine
 10
3.1731131988
 20
8.1150300546
 30
0.0
 11
3.1693631955
 21
8.1187800534
 31
0.0
  0
LINE
  5
76
330
1F
100
AcDbEntity
  8
0
  6
Continuous
 62
     7
370
    15
100
AcDbLine
 10
3.1926131869
 20
8.1133132678
 30
0.0
 11
3.1918631789
 21
8.1120142286
 31
0.0
  0
LINE
  5
77
330
1F
100
AcDbEntity
  8
0
  6
Continuous
 62
     7
370
    15
100
AcDbLine
 10
3.1918631789
 20
8.0161708783
 30
0.0
 11
3.1926131869
 21
8.0148718392
 31
0.0
  0
LINE
  5
78
330
1F
100
AcDbEntity
  8
0
  6
Continuous
 62
     7
370
    15
100
AcDbLine
 10
3.1693631955
 20
8.1187800534
 30
0.0
 11
3.1253631904
 21
8.1187800534
 31
0.0
  0
LINE
  5
79
330
1F
100
AcDbEntity
  8
0
  6
Continuous
 62
     7
370
    15
100
AcDbLine
 10
3.1253631904
 20
8.0094050536
 30
0.0
 11
3.1693631955
 21
8.0094050536
 31
0.0
  0
LINE
  5
7A
330
1F
100
AcDbEntity
  8
0
  6
Continuous
 62
     7
370
    15
100
AcDbLine
 10
3.1918631789
 20
8.1120142286
 30
0.0
 11
3.1731131988
 21
8.1120142286
 31
0.0
  0
LINE
  5
7B
330
1F
100
AcDbEntity
  8
0
  6
Continuous
 62
     7
370
    15
100
AcDbLine
 10
3.1731131988
 20
8.0161708783
 30
0.0
 11
3.1918631789
 21
8.0161708783
 31
0.0
  0
LINE
  5
7C
330
1F
100
AcDbEntity
  8
0
  6
Continuous
 62
     7
370
    15
100
AcDbLine
 10
4.3880063376
 20
8.1187800534
 30
0.0
 11
4.3842563342
 21
8.1150300546
 31
0.0
  0
LINE
  5
7D
330
1F
100
AcDbEntity
  8
0
  6
Continuous
 62
     7
370
    15
100
AcDbLine
 10
4.3842563342
 20
8.0131550523
 30
0.0
 11
4.3880063376
 21
8.0094050536
 31
0.0
  0
LINE
  5
7E
330
1F
100
AcDbEntity
  8
0
  6
Continuous
 62
     7
370
    15
100
AcDbLine
 10
4.3647563462
 20
8.0148718392
 30
0.0
 11
4.3655063542
 21
8.0161708783
 31
0.0
  0
LINE
  5
7F
330
1F
100
AcDbEntity
  8
0
  6
Continuous
 62
     7
370
    15
100
AcDbLine
 10
4.3655063542
 20
8.1120142286
 30
0.0
 11
4.3647563462
 21
8.1133132678
 31
0.0
  0
LINE
  5
80
330
1F
100
AcDbEntity
  8
0
  6
Continuous
 62
     7
370
    15
100
AcDbLine
 10
4.4320063426
 20
8.0094050536
 30
0.0
 11
4.435756346
 21
8.0131550523
 31
0.0
  0
LINE
  5
81
330
1F
100
AcDbEntity
  8
0
  6
Continuous
 62
     7
370
    15
100
AcDbLine
 10
4.435756346
 20
8.1150300546
 30
0.0
 11
4.4320063426
 21
8.1187800534
 31
0.0
  0
LINE
  5
82
330
1F
100
AcDbEntity
  8
0
  6
Continuous
 62
     7
370
    15
100
AcDbLine
 10
4.3880063376
 20
8.0094050536
 30
0.0
 11
4.4320063426
 21
8.0094050536
 31
0.0
  0
LINE
  5
83
330
1F
100
AcDbEntity
  8
0
  6
Continuous
 62
     7
370
    15
100
AcDbLine
 10
4.4320063426
 20
8.1187800534
 30
0.0
 11
4.3880063376
 21
8.1187800534
 31
0.0
  0
LINE
  5
84
330
1F
100
AcDbEntity
  8
0
  6
Continuous
 62
     7
370
    15
100
AcDbLine
 10
4.3655063542
 20
8.0161708783
 30
0.0
 11
4.3842563342
 21
8.0161708783
 31
0.0
  0
LINE
  5
85
330
1F
100
AcDbEntity
  8
0
  6
Continuous
 62
     7
370
    15
100
AcDbLine
 10
4.3842563342
 20
8.1120142286
 30
0.0
 11
4.3655063542
 21
8.1120142286
 31
0.0
  0
ARC
  5
86
330
1F
100
AcDbEntity
  8
0
  6
Continuous
 62
     7
370
    15
100
AcDbCircle
 10
3.4766131892
 20
8.3922175535
 30
0.0
 40
0.0156250000000004
100
AcDbArc
 50
0.0
 51
90.0
  0
ARC
  5
87
330
1F
100
AcDbEntity
  8
0
  6
Continuous
 62
     7
370
    15
100
AcDbCircle
 10
3.4766131892
 20
7.7359675535
 30
0.0
 40
0.0156250000000004
100
AcDbArc
 50
270.0
 51
0.0
  0
LINE
  5
88
330
1F
100
AcDbEntity
  8
0
  6
Continuous
 62
     7
370
    15
100
AcDbLine
 10
3.2176131847
 20
8.4078425425
 30
0.0
 11
3.1926131869
 21
8.3828425446
 31
0.0
  0
LINE
  5
89
330
1F
100
AcDbEntity
  8
0
  6
Continuous
 62
     7
370
    15
100
AcDbLine
 10
3.1926131869
 20
7.7453425624
 30
0.0
 11
3.2176131847
 21
7.7203425645
 31
0.0
  0
LINE
  5
8A
330
1F
100
AcDbEntity
  8
0
  6
Continuous
 62
     7
370
    15
100
AcDbLine
 10
3.4766131861
 20
8.4078425425
 30
0.0
 11
3.2176131847
 21
8.4078425425
 31
0.0
  0
LINE
  5
8B
330
1F
100
AcDbEntity
  8
0
  6
Continuous
 62
     7
370
    15
100
AcDbLine
 10
3.2176131847
 20
7.7203425645
 30
0.0
 11
3.4766131861
 21
7.7203425645
 31
0.0
  0
LINE
  5
8C
330
1F
100
AcDbEntity
  8
0
  6
Continuous
 62
     7
370
    15
100
AcDbLine
 10
4.3397563483
 20
7.7203425645
 30
0.0
 11
4.3647563462
 21
7.7453425624
 31
0.0
  0
LINE
  5
8D
330
1F
100
AcDbEntity
  8
0
  6
Continuous
 62
     7
370
    15
100
AcDbLine
 10
4.3647563462
 20
8.3828425446
 30
0.0
 11
4.3397563483
 21
8.4078425425
 31
0.0
  0
ARC
  5
8E
330
1F
100
AcDbEntity
  8
0
  6
Continuous
 62
     7
370
    15
100
AcDbCircle
 10
4.0807563378
 20
7.7359675535
 30
0.0
 40
0.015625
100
AcDbArc
 50
180.0
 51
270.0
  0
ARC
  5
8F
330
1F
100
AcDbEntity
  8
0
  6
Continuous
 62
     7
370
    15
100
AcDbCircle
 10
4.0807563378
 20
8.3922175535
 30
0.0
 40
0.0156250000000018
100
AcDbArc
 50
90.0
 51
180.0
  0
LINE
  5
90
330
1F
100
AcDbEntity
  8
0
  6
Continuous
 62
     7
370
    15
100
AcDbLine
 10
4.0807563286
 20
7.7203425645
 30
0.0
 11
4.3397563483
 21
7.7203425645
 31
0.0
  0
LINE
  5
91
330
1F
100
AcDbEntity
  8
0
  6
Continuous
 62
     7
370
    15
100
AcDbLine
 10
4.3397563483
 20
8.4078425425
 30
0.0
 11
4.0807563286
 21
8.4078425425
 31
0.0
  0
ARC
  5
92
330
1F
100
AcDbEntity
  8
0
  6
Continuous
 62
     7
370
    15
100
AcDbCircle
 10
3.7787381892
 20
8.2063425535
 30
0.0
 40
0.0468750000000005
100
AcDbArc
 50
44.4635352696
 51
135.5364647304
  0
LINE
  5
93
330
1F
100
AcDbEntity
  8
0
  6
Continuous
 62
     7
370
    15
100
AcDbLine
 10
3.6687381858
 20
8.3889675672
 30
0.0
 11
3.6688631902
 21
8.3888425353
 31
0.0
  0
LINE
  5
94
330
1F
100
AcDbEntity
  8
0
  6
Continuous
 62
     7
370
    15
100
AcDbLine
 10
3.8886131883
 20
8.3888425353
 30
0.0
 11
3.8887381927
 21
8.3889675672
 31
0.0
  0
LINE
  5
95
330
1F
100
AcDbEntity
  8
0
  6
Continuous
 62
     7
370
    15
100
AcDbLine
 10
3.7397381902
 20
8.2615513824
 30
0.0
 11
3.7397381902
 21
8.2571337235
 31
0.0
  0
LINE
  5
96
330
1F
100
AcDbEntity
  8
0
  6
Continuous
 62
     7
370
    15
100
AcDbLine
 10
3.8177381883
 20
8.2571337235
 30
0.0
 11
3.8177381883
 21
8.2615513824
 31
0.0
  0
LINE
  5
97
330
1F
100
AcDbEntity
  8
0
  6
Continuous
 62
     7
370
    15
100
AcDbLine
 10
4.0539881929
 20
7.7646550576
 30
0.0
 11
4.0612050628
 21
7.7771550565
 31
0.0
  0
LINE
  5
98
330
1F
100
AcDbEntity
  8
0
  6
Continuous
 62
     7
370
    15
100
AcDbLine
 10
4.0612050628
 20
8.3510300504
 30
0.0
 11
4.0539881929
 21
8.3635300494
 31
0.0
  0
LINE
  5
99
330
1F
100
AcDbEntity
  8
0
  6
Continuous
 62
     7
370
    15
100
AcDbLine
 10
3.5034881856
 20
8.3635300494
 30
0.0
 11
3.5033813402
 21
8.3635300494
 31
0.0
  0
LINE
  5
9A
330
1F
100
AcDbEntity
  8
0
  6
Continuous
 62
     7
370
    15
100
AcDbLine
 10
3.5033813402
 20
7.7646550576
 30
0.0
 11
3.5034881856
 21
7.7646550576
 31
0.0
  0
LINE
  5
9B
330
1F
100
AcDbEntity
  8
0
  6
Continuous
 62
     7
370
    15
100
AcDbLine
 10
3.5033813402
 20
8.3635300494
 30
0.0
 11
3.4961644519
 21
8.3510300504
 31
0.0
  0
LINE
  5
9C
330
1F
100
AcDbEntity
  8
0
  6
Continuous
 62
     7
370
    15
100
AcDbLine
 10
3.4961644519
 20
7.7771550565
 30
0.0
 11
3.5033813402
 21
7.7646550576
 31
0.0
  0
LINE
  5
9D
330
1F
100
AcDbEntity
  8
0
  6
Continuous
 62
     7
370
    15
100
AcDbLine
 10
4.0651313391
 20
8.3510300504
 30
0.0
 11
4.0612050628
 21
8.3510300504
 31
0.0
  0
LINE
  5
9E
330
1F
100
AcDbEntity
  8
0
  6
Continuous
 62
     7
370
    15
100
AcDbLine
 10
4.0612050628
 20
7.7771550565
 30
0.0
 11
4.0651313391
 21
7.7771550565
 31
0.0
  0
LINE
  5
9F
330
1F
100
AcDbEntity
  8
0
  6
Continuous
 62
     7
370
    15
100
AcDbLine
 10
3.4961644519
 20
8.3510300504
 30
0.0
 11
3.4922381939
 21
8.3510300504
 31
0.0
  0
LINE
  5
A0
330
1F
100
AcDbEntity
  8
0
  6
Continuous
 62
     7
370
    15
100
AcDbLine
 10
3.4922381939
 20
7.7771550565
 30
0.0
 11
3.4961644519
 21
7.7771550565
 31
0.0
  0
LINE
  5
A1
330
1F
100
AcDbEntity
  8
0
  6
Continuous
 62
     7
370
    15
100
AcDbLine
 10
4.5685063324
 20
7.8739192337
 30
0.0
 11
4.5685063324
 21
7.8292726928
 31
0.0
  0
LINE
  5
A2
330
1F
100
AcDbEntity
  8
0
  6
Continuous
 62
     7
370
    15
100
AcDbLine
 10
4.8841042
 20
7.8647209566
 30
0.0
 11
4.8841042
 21
7.8384709699
 31
0.0
  0
LINE
  5
A3
330
1F
100
AcDbEntity
  8
0
  6
Continuous
 62
     7
370
    15
100
AcDbLine
 10
4.9028541434
 20
7.8550334602
 30
0.0
 11
4.9028541434
 21
7.8481584663
 31
0.0
  0
LINE
  5
A4
330
1F
100
AcDbEntity
  8
0
  6
Continuous
 62
     7
370
    15
100
AcDbLine
 10
3.8724881904
 20
7.7393425717
 30
0.0
 11
3.8724881904
 21
7.7643425512
 31
0.0
  0
LINE
  5
A5
330
1F
100
AcDbEntity
  8
0
  6
Continuous
 62
     7
370
    15
100
AcDbLine
 10
3.8724881904
 20
7.7643425512
 30
0.0
 11
4.0031131939
 21
7.7643425512
 31
0.0
  0
LINE
  5
A6
330
1F
100
AcDbEntity
  8
0
  6
Continuous
 62
     7
370
    15
100
AcDbLine
 10
4.0031131939
 20
7.7643425512
 30
0.0
 11
4.0031131939
 21
7.6862175487
 31
0.0
  0
LINE
  5
A7
330
1F
100
AcDbEntity
  8
0
  6
Continuous
 62
     7
370
    15
100
AcDbLine
 10
3.5543631846
 20
7.6862175487
 30
0.0
 11
4.0031131939
 21
7.6862175487
 31
0.0
  0
LINE
  5
A8
330
1F
100
AcDbEntity
  8
0
  6
Continuous
 62
     7
370
    15
100
AcDbLine
 10
3.5543631846
 20
7.7643425512
 30
0.0
 11
3.5543631846
 21
7.6862175487
 31
0.0
  0
LINE
  5
A9
330
1F
100
AcDbEntity
  8
0
  6
Continuous
 62
     7
370
    15
100
AcDbLine
 10
3.5543631846
 20
7.7643425512
 30
0.0
 11
3.6849881881
 21
7.7643425512
 31
0.0
  0
LINE
  5
AA
330
1F
100
AcDbEntity
  8
0
  6
Continuous
 62
     7
370
    15
100
AcDbLine
 10
3.6849881881
 20
7.7393425717
 30
0.0
 11
3.6849881881
 21
7.7643425512
 31
0.0
  0
LINE
  5
AB
330
1F
100
AcDbEntity
  8
0
  6
Continuous
 62
     7
370
    15
100
AcDbLine
 10
3.6849881881
 20
7.7393425717
 30
0.0
 11
3.8724881904
 21
7.7393425717
 31
0.0
  0
CIRCLE
  5
AC
330
1F
100
AcDbEntity
  8
0
  6
Continuous
 62
     7
370
    15
100
AcDbCircle
 10
3.9796131892
 20
7.7253425535
 30
0.0
 40
0.0120625000000003
  0
LINE
  5
AD
330
1F
100
AcDbEntity
  8
0
  6
Continuous
 62
     7
370
    15
100
AcDbLine
 10
3.71623819
 20
7.7393425717
 30
0.0
 11
3.71623819
 21
7.7643425512
 31
0.0
  0
LINE
  5
AE
330
1F
100
AcDbEntity
  8
0
  6
Continuous
 62
     7
370
    15
100
AcDbLine
 10
3.6884263175
 20
7.7643425512
 30
0.0
 11
3.6849881881
 21
7.7643425512
 31
0.0
  0
LINE
  5
AF
330
1F
100
AcDbEntity
  8
0
  6
Continuous
 62
     7
370
    15
100
AcDbLine
 10
3.8412381885
 20
7.7393425717
 30
0.0
 11
3.8412381885
 21
7.7643425512
 31
0.0
  0
LINE
  5
B0
330
1F
100
AcDbEntity
  8
0
  6
Continuous
 62
     7
370
    15
100
AcDbLine
 10
3.8724881904
 20
7.7643425512
 30
0.0
 11
3.8690500609
 21
7.7643425512
 31
0.0
  0
LINE
  5
B1
330
1F
100
AcDbEntity
  8
0
  6
Continuous
 62
     7
370
    15
100
AcDbLine
 10
4.434569753
 20
7.9003459701
 30
0.0
 11
4.434569753
 21
7.8028459564
 31
0.0
  0
LINE
  5
B2
330
1F
100
AcDbEntity
  8
0
  6
Continuous
 62
     7
370
    15
100
AcDbLine
 10
4.5595697423
 20
7.8743773601
 30
0.0
 11
4.5595697423
 21
7.8396186966
 31
0.0
  0
LINE
  5
B3
330
1F
100
AcDbEntity
  8
0
  6
Continuous
 62
     7
370
    15
100
AcDbLine
 10
4.5595697423
 20
7.8396186966
 30
0.0
 11
4.465819732
 21
7.8396186966
 31
0.0
  0
LINE
  5
B4
330
1F
100
AcDbEntity
  8
0
  6
Continuous
 62
     7
370
    15
100
AcDbLine
 10
4.465819732
 20
7.8256613612
 30
0.0
 11
4.465819732
 21
7.8396186966
 31
0.0
  0
LINE
  5
B5
330
1F
100
AcDbEntity
  8
0
  6
Continuous
 62
     7
370
    15
100
AcDbLine
 10
4.465819732
 20
7.8256613612
 30
0.0
 11
4.5595697423
 21
7.8256613612
 31
0.0
  0
LINE
  5
B6
330
1F
100
AcDbEntity
  8
0
  6
Continuous
 62
     7
370
    15
100
AcDbLine
 10
4.5595697423
 20
7.8256613612
 30
0.0
 11
4.5595697423
 21
7.8046826419
 31
0.0
  0
LINE
  5
B7
330
1F
100
AcDbEntity
  8
0
  6
Continuous
 62
     7
370
    15
100
AcDbLine
 10
4.5595697423
 20
7.8046826419
 30
0.0
 11
4.465819732
 21
7.8046826419
 31
0.0
  0
LINE
  5
B8
330
1F
100
AcDbEntity
  8
0
  6
Continuous
 62
     7
370
    15
100
AcDbLine
 10
4.465819732
 20
7.8028459564
 30
0.0
 11
4.465819732
 21
7.8046826419
 31
0.0
  0
LINE
  5
B9
330
1F
100
AcDbEntity
  8
0
  6
Continuous
 62
     7
370
    15
100
AcDbLine
 10
4.465819732
 20
7.8028799644
 30
0.0
 11
4.5595697423
 21
7.8028799644
 31
0.0
  0
LINE
  5
BA
330
1F
100
AcDbEntity
  8
0
  6
Continuous
 62
     7
370
    15
100
AcDbLine
 10
4.465819732
 20
7.9003119622
 30
0.0
 11
4.465819732
 21
7.9003459701
 31
0.0
  0
LINE
  5
BB
330
1F
100
AcDbEntity
  8
0
  6
Continuous
 62
     7
370
    15
100
AcDbLine
 10
4.465819732
 20
7.9003119622
 30
0.0
 11
4.5595697423
 21
7.9003119622
 31
0.0
  0
LINE
  5
BC
330
1F
100
AcDbEntity
  8
0
  6
Continuous
 62
     7
370
    15
100
AcDbLine
 10
4.5595697423
 20
7.9003119622
 30
0.0
 11
4.5595697423
 21
7.886532018
 31
0.0
  0
LINE
  5
BD
330
1F
100
AcDbEntity
  8
0
  6
Continuous
 62
     7
370
    15
100
AcDbLine
 10
4.5595697423
 20
7.886532018
 30
0.0
 11
4.465819732
 21
7.886532018
 31
0.0
  0
LINE
  5
BE
330
1F
100
AcDbEntity
  8
0
  6
Continuous
 62
     7
370
    15
100
AcDbLine
 10
4.465819732
 20
7.8743773601
 30
0.0
 11
4.465819732
 21
7.886532018
 31
0.0
  0
LINE
  5
BF
330
1F
100
AcDbEntity
  8
0
  6
Continuous
 62
     7
370
    15
100
AcDbLine
 10
4.465819732
 20
7.8743773601
 30
0.0
 11
4.5595697423
 21
7.8743773601
 31
0.0
  0
LINE
  5
C0
330
1F
100
AcDbEntity
  8
0
  6
Continuous
 62
     7
370
    15
100
AcDbLine
 10
4.5595697423
 20
7.8256613612
 30
0.0
 11
4.5595697423
 21
7.8396186966
 31
0.0
  0
LINE
  5
C1
330
1F
100
AcDbEntity
  8
0
  6
Continuous
 62
     7
370
    15
100
AcDbLine
 10
4.5595697423
 20
7.8743773601
 30
0.0
 11
4.5595697423
 21
7.886532018
 31
0.0
  0
LINE
  5
C2
330
1F
100
AcDbEntity
  8
0
  6
Continuous
 62
     7
370
    15
100
AcDbLine
 10
4.5595697423
 20
7.8028799644
 30
0.0
 11
4.5595697423
 21
7.8046826419
 31
0.0
  0
LINE
  5
C3
330
1F
100
AcDbEntity
  8
0
  6
Continuous
 62
     7
370
    15
100
AcDbLine
 10
4.3712885107
 20
7.8439767363
 30
0.0
 11
4.4025384897
 21
7.8439767363
 31
0.0
  0
LINE
  5
C4
330
1F
100
AcDbEntity
  8
0
  6
Continuous
 62
     7
370
    15
100
AcDbLine
 10
4.4025384897
 20
7.8439767363
 30
0.0
 11
4.4025384897
 21
7.8271958068
 31
0.0
  0
LINE
  5
C5
330
1F
100
AcDbEntity
  8
0
  6
Continuous
 62
     7
370
    15
100
AcDbLine
 10
4.4025384897
 20
7.8251200208
 30
0.0
 11
4.4025384897
 21
7.808339073
 31
0.0
  0
LINE
  5
C6
330
1F
100
AcDbEntity
  8
0
  6
Continuous
 62
     7
370
    15
100
AcDbLine
 10
4.3712885107
 20
7.808339073
 30
0.0
 11
4.4025384897
 21
7.808339073
 31
0.0
  0
LINE
  5
C7
330
1F
100
AcDbEntity
  8
0
  6
Continuous
 62
     7
370
    15
100
AcDbLine
 10
4.3712885107
 20
7.8439767363
 30
0.0
 11
4.3712885107
 21
7.808339073
 31
0.0
  0
LINE
  5
C8
330
1F
100
AcDbEntity
  8
0
  6
Continuous
 62
     7
370
    15
100
AcDbLine
 10
4.4184034598
 20
7.8141202762
 30
0.0
 11
4.4184034598
 21
7.8115959703
 31
0.0
  0
LINE
  5
C9
330
1F
100
AcDbEntity
  8
0
  6
Continuous
 62
     7
370
    15
100
AcDbLine
 10
4.4184034598
 20
7.8915959562
 30
0.0
 11
4.4184034598
 21
7.8141202762
 31
0.0
  0
LINE
  5
CA
330
1F
100
AcDbEntity
  8
0
  6
Continuous
 62
     7
370
    15
100
AcDbLine
 10
4.4228510017
 20
7.8213374578
 30
0.0
 11
4.4228510017
 21
7.8192992914
 31
0.0
  0
LINE
  5
CB
330
1F
100
AcDbEntity
  8
0
  6
Continuous
 62
     7
370
    15
100
AcDbLine
 10
4.4228510017
 20
7.8838926352
 30
0.0
 11
4.4228510017
 21
7.8213374578
 31
0.0
  0
LINE
  5
CC
330
1F
100
AcDbEntity
  8
0
  6
Continuous
 62
     7
370
    15
100
AcDbLine
 10
4.4025384897
 20
7.8271958068
 30
0.0
 11
4.4025384897
 21
7.8251200208
 31
0.0
  0
LINE
  5
CD
330
1F
100
AcDbEntity
  8
0
  6
Continuous
 62
     7
370
    15
100
AcDbLine
 10
4.4025384897
 20
7.8912420719
 30
0.0
 11
4.4025384897
 21
7.8907954221
 31
0.0
  0
LINE
  5
CE
330
1F
100
AcDbEntity
  8
0
  6
Continuous
 62
     7
370
    15
100
AcDbLine
 10
4.4306634781
 20
7.8213374578
 30
0.0
 11
4.4306634781
 21
7.8192992914
 31
0.0
  0
LINE
  5
CF
330
1F
100
AcDbEntity
  8
0
  6
Continuous
 62
     7
370
    15
100
AcDbLine
 10
4.4306634781
 20
7.8838926352
 30
0.0
 11
4.4306634781
 21
7.8213374578
 31
0.0
  0
LINE
  5
D0
330
1F
100
AcDbEntity
  8
0
  6
Continuous
 62
     7
370
    15
100
AcDbLine
 10
4.4267572766
 20
7.814998616
 30
0.0
 11
4.4267572766
 21
7.8125334712
 31
0.0
  0
LINE
  5
D1
330
1F
100
AcDbEntity
  8
0
  6
Continuous
 62
     7
370
    15
100
AcDbLine
 10
4.4267572766
 20
7.8906584553
 30
0.0
 11
4.4267572766
 21
7.814998616
 31
0.0
  0
LINE
  5
D2
330
1F
100
AcDbEntity
  8
0
  6
Continuous
 62
     7
370
    15
100
AcDbLine
 10
4.3712885107
 20
7.8871846405
 30
0.0
 11
4.4025384897
 21
7.8871846405
 31
0.0
  0
LINE
  5
D3
330
1F
100
AcDbEntity
  8
0
  6
Continuous
 62
     7
370
    15
100
AcDbLine
 10
4.4025384897
 20
7.8871846405
 30
0.0
 11
4.4025384897
 21
7.8655806884
 31
0.0
  0
LINE
  5
D4
330
1F
100
AcDbEntity
  8
0
  6
Continuous
 62
     7
370
    15
100
AcDbLine
 10
4.4025384897
 20
7.8655806884
 30
0.0
 11
4.4025384897
 21
7.8439767363
 31
0.0
  0
LINE
  5
D5
330
1F
100
AcDbEntity
  8
0
  6
Continuous
 62
     7
370
    15
100
AcDbLine
 10
4.3712885107
 20
7.8871846405
 30
0.0
 11
4.3712885107
 21
7.8439767363
 31
0.0
  0
LINE
  5
D6
330
1F
100
AcDbEntity
  8
0
  6
Continuous
 62
     7
370
    15
100
AcDbLine
 10
4.3712885107
 20
7.8948528536
 30
0.0
 11
4.4025384897
 21
7.8948528536
 31
0.0
  0
LINE
  5
D7
330
1F
100
AcDbEntity
  8
0
  6
Continuous
 62
     7
370
    15
100
AcDbLine
 10
4.4025384897
 20
7.8948528536
 30
0.0
 11
4.4025384897
 21
7.8912420719
 31
0.0
  0
LINE
  5
D8
330
1F
100
AcDbEntity
  8
0
  6
Continuous
 62
     7
370
    15
100
AcDbLine
 10
4.4025384897
 20
7.8907954221
 30
0.0
 11
4.4025384897
 21
7.8871846405
 31
0.0
  0
LINE
  5
D9
330
1F
100
AcDbEntity
  8
0
  6
Continuous
 62
     7
370
    15
100
AcDbLine
 10
4.3712885107
 20
7.8948528536
 30
0.0
 11
4.3712885107
 21
7.8871846405
 31
0.0
  0
ARC
  5
DA
330
1F
100
AcDbEntity
  8
0
  6
Continuous
 62
     7
370
    15
100
AcDbCircle
 10
4.2995069613
 20
8.0661502692
 30
0.0
 40
0.0456243649195582
100
AcDbArc
 50
279.8189235894
 51
359.9997648931
  0
ARC
  5
DB
330
1F
100
AcDbEntity
  8
0
  6
Continuous
 62
     7
370
    15
100
AcDbCircle
 10
4.2995061327
 20
8.0661505698
 30
0.0
 40
0.0456248023968671
100
AcDbArc
 50
180.0006125685
 51
279.8198844838
  0
ARC
  5
DC
330
1F
100
AcDbEntity
  8
0
  6
Continuous
 62
     7
370
    15
100
AcDbCircle
 10
4.2995063062
 20
8.0661843537
 30
0.0
 40
0.0456254044454886
100
AcDbArc
 50
90.2538881307
 51
109.384980923
  0
ARC
  5
DD
330
1F
100
AcDbEntity
  8
0
  6
Continuous
 62
     7
370
    15
100
AcDbCircle
 10
4.2995060001
 20
8.0663972591
 30
0.0
 40
0.0456248634736714
100
AcDbArc
 50
109.3848125406
 51
150.2534087549
  0
LINE
  5
DE
330
1F
100
AcDbEntity
  8
0
  6
Continuous
 62
     7
370
    15
100
AcDbLine
 10
4.2598932009
 20
8.0888222707
 30
0.0
 11
4.2598932009
 21
8.0890347126
 31
0.0
  0
ARC
  5
DF
330
1F
100
AcDbEntity
  8
0
  6
Continuous
 62
     7
370
    15
100
AcDbCircle
 10
4.299506415
 20
8.0661849276
 30
0.0
 40
0.0456251689085609
100
AcDbArc
 50
150.2537876291
 51
169.3847122917
  0
ARC
  5
E0
330
1F
100
AcDbEntity
  8
0
  6
Continuous
 62
     7
370
    15
100
AcDbCircle
 10
4.2995051734
 20
8.0663979665
 30
0.0
 40
0.0456238381595498
100
AcDbArc
 50
169.3851648317
 51
210.2543200427
  0
LINE
  5
E1
330
1F
100
AcDbEntity
  8
0
  6
Continuous
 62
     7
370
    15
100
AcDbLine
 10
4.2600954152
 20
8.0431984507
 30
0.0
 11
4.2600954152
 21
8.0434108926
 31
0.0
  0
ARC
  5
E2
330
1F
100
AcDbEntity
  8
0
  6
Continuous
 62
     7
370
    15
100
AcDbCircle
 10
4.2995061009
 20
8.0661862158
 30
0.0
 40
0.045624987536853
100
AcDbArc
 50
210.2544830183
 51
229.3855667278
  0
LINE
  5
E3
330
1F
100
AcDbEntity
  8
0
  6
Continuous
 62
     7
370
    15
100
AcDbLine
 10
4.2698058097
 20
8.0317643922
 30
0.0
 11
4.2698058097
 21
8.0315519525
 31
0.0
  0
ARC
  5
E4
330
1F
100
AcDbEntity
  8
0
  6
Continuous
 62
     7
370
    15
100
AcDbCircle
 10
4.2995062888
 20
8.0663991361
 30
0.0
 40
0.045625474762609
100
AcDbArc
 50
229.3857805366
 51
270.2540111428
  0
LINE
  5
E5
330
1F
100
AcDbEntity
  8
0
  6
Continuous
 62
     7
370
    15
100
AcDbLine
 10
4.2997085609
 20
8.0205616701
 30
0.0
 11
4.2997085609
 21
8.0207741097
 31
0.0
  0
ARC
  5
E6
330
1F
100
AcDbEntity
  8
0
  6
Continuous
 62
     7
370
    15
100
AcDbCircle
 10
4.2995063157
 20
8.0661871154
 30
0.0
 40
0.0456258935663472
100
AcDbArc
 50
270.2539750728
 51
289.3848598527
  0
LINE
  5
E7
330
1F
100
AcDbEntity
  8
0
  6
Continuous
 62
     7
370
    15
100
AcDbLine
 10
4.3146500917
 20
8.0233601753
 30
0.0
 11
4.3146500917
 21
8.0231477357
 31
0.0
  0
ARC
  5
E8
330
1F
100
AcDbEntity
  8
0
  6
Continuous
 62
     7
370
    15
100
AcDbCircle
 10
4.2995067552
 20
8.066398445
 30
0.0
 40
0.0456247005585714
100
AcDbArc
 50
289.3848017774
 51
330.2535166352
  0
LINE
  5
E9
330
1F
100
AcDbEntity
  8
0
  6
Continuous
 62
     7
370
    15
100
AcDbLine
 10
4.3391194557
 20
8.043548705
 30
0.0
 11
4.3391194557
 21
8.0437611469
 31
0.0
  0
ARC
  5
EA
330
1F
100
AcDbEntity
  8
0
  6
Continuous
 62
     7
370
    15
100
AcDbCircle
 10
4.2995080616
 20
8.0661853778
 30
0.0
 40
0.0456232560843988
100
AcDbArc
 50
330.253384432
 51
349.3851214634
  0
LINE
  5
EB
330
1F
100
AcDbEntity
  8
0
  6
Continuous
 62
     7
370
    15
100
AcDbLine
 10
4.3443505919
 20
8.0579937135
 30
0.0
 11
4.3443505919
 21
8.0577812733
 31
0.0
  0
ARC
  5
EC
330
1F
100
AcDbEntity
  8
0
  6
Continuous
 62
     7
370
    15
100
AcDbCircle
 10
4.2995077163
 20
8.0663979329
 30
0.0
 40
0.0456236166147942
100
AcDbArc
 50
349.385059508
 51
30.254424312
  0
ARC
  5
ED
330
1F
100
AcDbEntity
  8
0
  6
Continuous
 62
     7
370
    15
100
AcDbCircle
 10
4.299507111
 20
8.0661852297
 30
0.0
 40
0.0456242711395538
100
AcDbArc
 50
30.2543247421
 51
49.385713914
  0
LINE
  5
EE
330
1F
100
AcDbEntity
  8
0
  6
Continuous
 62
     7
370
    15
100
AcDbLine
 10
4.3292068468
 20
8.1010314651
 30
0.0
 11
4.3292068468
 21
8.1008190255
 31
0.0
  0
ARC
  5
EF
330
1F
100
AcDbEntity
  8
0
  6
Continuous
 62
     7
370
    15
100
AcDbCircle
 10
4.299506372
 20
8.0663967416
 30
0.0
 40
0.0456254564674517
100
AcDbArc
 50
49.3857678906
 51
90.2539705554
  0
ARC
  5
F0
330
1F
100
AcDbEntity
  8
0
  6
Continuous
 62
     7
370
    15
100
AcDbCircle
 10
4.2555090475
 20
8.0825684665
 30
0.0
 40
0.0078123709421672
100
AcDbArc
 50
263.7760100344
 51
55.8624958609
  0
ARC
  5
F1
330
1F
100
AcDbEntity
  8
0
  6
Continuous
 62
     7
370
    15
100
AcDbCircle
 10
4.2915119801
 20
8.1125855906
 30
0.0
 40
0.0078125253554195
100
AcDbArc
 50
203.7775835364
 51
355.8612855174
  0
ARC
  5
F2
330
1F
100
AcDbEntity
  8
0
  6
Continuous
 62
     7
370
    15
100
AcDbCircle
 10
4.3355093268
 20
8.0964149037
 30
0.0
 40
0.0078124191124765
100
AcDbArc
 50
143.7772538274
 51
295.8627959187
  0
ARC
  5
F3
330
1F
100
AcDbEntity
  8
0
  6
Continuous
 62
     7
370
    15
100
AcDbCircle
 10
4.3435036226
 20
8.0502273871
 30
0.0
 40
0.0078123736491203
100
AcDbArc
 50
83.7761122023
 51
235.8623892122
  0
ARC
  5
F4
330
1F
100
AcDbEntity
  8
0
  6
Continuous
 62
     7
370
    15
100
AcDbCircle
 10
4.3075007099
 20
8.0202102822
 30
0.0
 40
0.0078125211361024
100
AcDbArc
 50
23.7774538583
 51
175.8613810671
  0
ARC
  5
F5
330
1F
100
AcDbEntity
  8
0
  6
Continuous
 62
     7
370
    15
100
AcDbCircle
 10
4.263503342
 20
8.0363809651
 30
0.0
 40
0.0078124160960749
100
AcDbArc
 50
323.7771325126
 51
115.8629061435
  0
ARC
  5
F6
330
1F
100
AcDbEntity
  8
0
  6
Continuous
 62
     7
370
    15
100
AcDbCircle
 10
4.2995063466
 20
8.0663980191
 30
0.0
 40
0.0162499365331546
100
AcDbArc
 50
160.6255763541
 51
19.3744236459
  0
ARC
  5
F7
330
1F
100
AcDbEntity
  8
0
  6
Continuous
 62
     7
370
    15
100
AcDbCircle
 10
4.3075007099
 20
8.0199978426
 30
0.0
 40
0.0078125211361024
100
AcDbArc
 50
23.7774538583
 51
175.8613810671
  0
ARC
  5
F8
330
1F
100
AcDbEntity
  8
0
  6
Continuous
 62
     7
370
    15
100
AcDbCircle
 10
4.2635033205
 20
8.0361684435
 30
0.0
 40
0.0078124784391234
100
AcDbArc
 50
0.0005535372
 51
115.8625091364
  0
ARC
  5
F9
330
1F
100
AcDbEntity
  8
0
  6
Continuous
 62
     7
370
    15
100
AcDbCircle
 10
4.3435034593
 20
8.0500151152
 30
0.0
 40
0.0078122240228725
100
AcDbArc
 50
83.7747879407
 51
180.0013343825
  0
LWPOLYLINE
  5
FA
330
1F
100
AcDbEntity
  8
0
  6
Continuous
 62
     7
370
    15
100
AcDbPolyline
 90
        3
 70
   128
 43
0.0
 10
4.3157563489
 20
8.0658314216
 10
4.3152347349
 20
8.069915523
 10
4.3150119508
 20
8.0706932409
  0
LWPOLYLINE
  5
FB
330
1F
100
AcDbEntity
  8
0
  6
Continuous
 62
     7
370
    15
100
AcDbPolyline
 90
        3
 70
   128
 43
0.0
 10
4.2840007057
 20
8.0706932409
 10
4.2837297789
 20
8.0697253249
 10
4.2832563443
 20
8.0658314216
  0
ARC
  5
FC
330
1F
100
AcDbEntity
  8
0
  6
Continuous
 62
     7
370
    15
100
AcDbCircle
 10
4.2555090866
 20
8.0823559976
 30
0.0
 40
0.0078123713338219
100
AcDbArc
 50
0.0003368675
 51
55.8628440315
  0
LWPOLYLINE
  5
FD
330
1F
100
AcDbEntity
  8
0
  6
Continuous
 62
     7
370
    15
100
AcDbPolyline
 90
        3
 70
   128
 43
0.0
 10
4.3292068468
 20
8.1008190255
 10
4.3280467636
 20
8.0985142519
 10
4.3276968576
 20
8.0962024567
  0
ARC
  5
FE
330
1F
100
AcDbEntity
  8
0
  6
Continuous
 62
     7
370
    15
100
AcDbCircle
 10
3.257863179
 20
8.0615555288
 30
0.0
 40
0.0456259854079285
100
AcDbArc
 50
82.4552416722
 51
101.5860678034
  0
LINE
  5
FF
330
1F
100
AcDbEntity
  8
0
  6
Continuous
 62
     7
370
    15
100
AcDbLine
 10
3.248699669
 20
8.1059758805
 30
0.0
 11
3.248699669
 21
8.1062518444
 31
0.0
  0
ARC
  5
100
330
1F
100
AcDbEntity
  8
0
  6
Continuous
 62
     7
370
    15
100
AcDbCircle
 10
3.2578628847
 20
8.0612803083
 30
0.0
 40
0.0456251980677283
100
AcDbArc
 50
101.5858931345
 51
142.4541190989
  0
LINE
  5
101
330
1F
100
AcDbEntity
  8
0
  6
Continuous
 62
     7
370
    15
100
AcDbLine
 10
3.2216882343
 20
8.0893601118
 30
0.0
 11
3.2216882343
 21
8.0890841456
 31
0.0
  0
ARC
  5
102
330
1F
100
AcDbEntity
  8
0
  6
Continuous
 62
     7
370
    15
100
AcDbCircle
 10
3.2578622622
 20
8.0615570435
 30
0.0
 40
0.0456242358373085
100
AcDbArc
 50
142.4544085209
 51
161.5856007985
  0
LINE
  5
103
330
1F
100
AcDbEntity
  8
0
  6
Continuous
 62
     7
370
    15
100
AcDbLine
 10
3.2145741398
 20
8.0756932028
 30
0.0
 11
3.2145741398
 21
8.075969169
 31
0.0
  0
ARC
  5
104
330
1F
100
AcDbEntity
  8
0
  6
Continuous
 62
     7
370
    15
100
AcDbCircle
 10
3.257860742
 20
8.0612818176
 30
0.0
 40
0.0456225596310228
100
AcDbArc
 50
161.5858797458
 51
202.4557449028
  0
ARC
  5
105
330
1F
100
AcDbEntity
  8
0
  6
Continuous
 62
     7
370
    15
100
AcDbCircle
 10
3.2578615882
 20
8.0615580372
 30
0.0
 40
0.045623438532389
100
AcDbArc
 50
202.4556331255
 51
221.5871850714
  0
LINE
  5
106
330
1F
100
AcDbEntity
  8
0
  6
Continuous
 62
     7
370
    15
100
AcDbLine
 10
3.223737694
 20
8.0309991058
 30
0.0
 11
3.223737694
 21
8.031275072
 31
0.0
  0
ARC
  5
107
330
1F
100
AcDbEntity
  8
0
  6
Continuous
 62
     7
370
    15
100
AcDbCircle
 10
3.257862865
 20
8.0612831868
 30
0.0
 40
0.0456251340888174
100
AcDbArc
 50
221.5871688294
 51
262.4555166133
  0
ARC
  5
108
330
1F
100
AcDbEntity
  8
0
  6
Continuous
 62
     7
370
    15
100
AcDbCircle
 10
3.2578631867
 20
8.0615601679
 30
0.0
 40
0.0456261846768563
100
AcDbArc
 50
262.4552838409
 51
281.5860256347
  0
ARC
  5
109
330
1F
100
AcDbEntity
  8
0
  6
Continuous
 62
     7
370
    15
100
AcDbCircle
 10
3.2578635223
 20
8.0612832079
 30
0.0
 40
0.0456251414512045
100
AcDbArc
 50
281.5858639647
 51
322.4541412799
  0
LINE
  5
10A
330
1F
100
AcDbEntity
  8
0
  6
Continuous
 62
     7
370
    15
100
AcDbLine
 10
3.2940381385
 20
8.0337553852
 30
0.0
 11
3.2940381385
 21
8.033479419
 31
0.0
  0
ARC
  5
10B
330
1F
100
AcDbEntity
  8
0
  6
Continuous
 62
     7
370
    15
100
AcDbCircle
 10
3.2578647954
 20
8.0615580909
 30
0.0
 40
0.0456234720060158
100
AcDbArc
 50
322.4542454813
 51
341.5857597755
  0
ARC
  5
10C
330
1F
100
AcDbEntity
  8
0
  6
Continuous
 62
     7
370
    15
100
AcDbCircle
 10
3.2578653036
 20
8.0612817823
 30
0.0
 40
0.0456228816856771
100
AcDbArc
 50
341.585966245
 51
22.4555267428
  0
LINE
  5
10D
330
1F
100
AcDbEntity
  8
0
  6
Continuous
 62
     7
370
    15
100
AcDbLine
 10
3.3000288893
 20
8.0789841471
 30
0.0
 11
3.3000288893
 21
8.0787081809
 31
0.0
  0
ARC
  5
10E
330
1F
100
AcDbEntity
  8
0
  6
Continuous
 62
     7
370
    15
100
AcDbCircle
 10
3.2578631476
 20
8.0615564162
 30
0.0
 40
0.0456253830207364
100
AcDbArc
 50
22.4560388069
 51
41.5867702073
  0
LINE
  5
10F
330
1F
100
AcDbEntity
  8
0
  6
Continuous
 62
     7
370
    15
100
AcDbLine
 10
3.2919887155
 20
8.0915644565
 30
0.0
 11
3.2919887155
 21
8.091840425
 31
0.0
  0
ARC
  5
110
330
1F
100
AcDbEntity
  8
0
  6
Continuous
 62
     7
370
    15
100
AcDbCircle
 10
3.2578634233
 20
8.0612801327
 30
0.0
 40
0.0456253859103539
100
AcDbArc
 50
41.5872958901
 51
82.4554514255
  0
LINE
  5
111
330
1F
100
AcDbEntity
  8
0
  6
Continuous
 62
     7
370
    15
100
AcDbLine
 10
3.2638539006
 20
8.1067865115
 30
0.0
 11
3.2638539006
 21
8.1065105431
 31
0.0
  0
ARC
  5
112
330
1F
100
AcDbEntity
  8
0
  6
Continuous
 62
     7
370
    15
100
AcDbCircle
 10
3.216467193
 20
8.0832726905
 30
0.0
 40
0.0078123161329088
100
AcDbArc
 50
255.9766969244
 51
48.0633123951
  0
ARC
  5
113
330
1F
100
AcDbEntity
  8
0
  6
Continuous
 62
     7
370
    15
100
AcDbCircle
 10
3.2562103371
 20
8.1081265736
 30
0.0
 40
0.0078125294767404
100
AcDbArc
 50
195.9791584754
 51
348.062116386
  0
ARC
  5
114
330
1F
100
AcDbEntity
  8
0
  6
Continuous
 62
     7
370
    15
100
AcDbCircle
 10
3.2976063617
 20
8.0861354148
 30
0.0
 40
0.0078123263573903
100
AcDbArc
 50
135.978138126
 51
288.064680071
  0
ARC
  5
115
330
1F
100
AcDbEntity
  8
0
  6
Continuous
 62
     7
370
    15
100
AcDbCircle
 10
3.2992591879
 20
8.0392908692
 30
0.0
 40
0.0078123178543327
100
AcDbArc
 50
75.9767610772
 51
228.0632441797
  0
ARC
  5
116
330
1F
100
AcDbEntity
  8
0
  6
Continuous
 62
     7
370
    15
100
AcDbCircle
 10
3.2595160364
 20
8.0144369889
 30
0.0
 40
0.0078125300719199
100
AcDbArc
 50
15.9791908868
 51
168.0621185888
  0
ARC
  5
117
330
1F
100
AcDbEntity
  8
0
  6
Continuous
 62
     7
370
    15
100
AcDbCircle
 10
3.2181200179
 20
8.0364281289
 30
0.0
 40
0.0078123348563967
100
AcDbArc
 50
315.9783889298
 51
108.0644292671
  0
ARC
  5
118
330
1F
100
AcDbEntity
  8
0
  6
Continuous
 62
     7
370
    15
100
AcDbCircle
 10
3.2578634859
 20
8.0612817067
 30
0.0
 40
0.016249645247846
100
AcDbArc
 50
342.9066407242
 51
92.021798308
  0
ARC
  5
119
330
1F
100
AcDbEntity
  8
0
  6
Continuous
 62
     7
370
    15
100
AcDbCircle
 10
3.2578628345
 20
8.0612817277
 30
0.0
 40
0.0162496012751562
100
AcDbArc
 50
92.0195055234
 51
197.093484487
  0
ARC
  5
11A
330
1F
100
AcDbEntity
  8
0
  6
Continuous
 62
     7
370
    15
100
AcDbCircle
 10
3.2562103365
 20
8.1084025409
 30
0.0
 40
0.0078125298292281
100
AcDbArc
 50
195.9791837261
 51
348.0621257495
  0
ARC
  5
11B
330
1F
100
AcDbEntity
  8
0
  6
Continuous
 62
     7
370
    15
100
AcDbCircle
 10
3.2976064503
 20
8.0864115954
 30
0.0
 40
0.0078125027406102
100
AcDbArc
 50
180.0014082172
 51
288.0635748199
  0
ARC
  5
11C
330
1F
100
AcDbEntity
  8
0
  6
Continuous
 62
     7
370
    15
100
AcDbCircle
 10
3.2164671308
 20
8.0835488139
 30
0.0
 40
0.0078124535996733
100
AcDbArc
 50
255.977419121
 51
359.9989813382
  0
ARC
  5
11D
330
1F
100
AcDbEntity
  8
0
  6
Continuous
 62
     7
370
    15
100
AcDbCircle
 10
3.2992591718
 20
8.0395669379
 30
0.0
 40
0.0078123833425714
100
AcDbArc
 50
180.000866779
 51
228.0638343789
  0
ARC
  5
11E
330
1F
100
AcDbEntity
  8
0
  6
Continuous
 62
     7
370
    15
100
AcDbCircle
 10
3.2181199278
 20
8.0367042358
 30
0.0
 40
0.0078124974903196
100
AcDbArc
 50
315.9781058533
 51
359.998957108
  0
ARC
  5
11F
330
1F
100
AcDbEntity
  8
0
  6
Continuous
 62
     7
370
    15
100
AcDbCircle
 10
4.2995063368
 20
8.0657877312
 30
0.0
 40
0.0156250163792056
100
AcDbArc
 50
180.0007849154
 51
355.9323274107
  0
LINE
  5
120
330
1F
100
AcDbEntity
  8
0
  6
Continuous
 62
     7
370
    15
100
AcDbLine
 10
4.3151313361
 20
8.0656997085
 30
0.0
 11
4.3150973832
 21
8.0646699404
 31
0.0
  0
ARC
  5
121
330
1F
100
AcDbEntity
  8
0
  6
Continuous
 62
     7
370
    15
100
AcDbCircle
 10
3.2578634939
 20
8.0582062423
 30
0.0
 40
0.0117496380849361
100
AcDbArc
 50
22.3048714447
 51
92.0221668112
  0
ARC
  5
122
330
1F
100
AcDbEntity
  8
0
  6
Continuous
 62
     7
370
    15
100
AcDbCircle
 10
3.2578631984
 20
8.058206612
 30
0.0
 40
0.0117501279091911
100
AcDbArc
 50
209.7831939033
 51
334.6702332049
  0
ARC
  5
123
330
1F
100
AcDbEntity
  8
0
  6
Continuous
 62
     7
370
    15
100
AcDbCircle
 10
3.2578630241
 20
8.0582059844
 30
0.0
 40
0.0117498792818807
100
AcDbArc
 50
92.0198327784
 51
161.7356078664
  0
CIRCLE
  5
124
330
1F
100
AcDbEntity
  8
0
  6
Continuous
 62
     7
370
    15
100
AcDbCircle
 10
3.2578630648
 20
8.0582058982
 30
0.0
 40
0.0156248624817176
  0
ARC
  5
125
330
1F
100
AcDbEntity
  8
0
  6
Continuous
 62
     7
370
    15
100
AcDbCircle
 10
4.2995063532
 20
8.0687652613
 30
0.0
 40
0.0117500879337114
100
AcDbArc
 50
36.3345583956
 51
99.8195475265
  0
ARC
  5
126
330
1F
100
AcDbEntity
  8
0
  6
Continuous
 62
     7
370
    15
100
AcDbCircle
 10
4.2995063311
 20
8.0687657496
 30
0.0
 40
0.0117500524872484
100
AcDbArc
 50
210.1044807073
 51
349.5826075912
  0
ARC
  5
127
330
1F
100
AcDbEntity
  8
0
  6
Continuous
 62
     7
370
    15
100
AcDbCircle
 10
4.2995062959
 20
8.068765325
 30
0.0
 40
0.0117500153809915
100
AcDbArc
 50
99.8193253778
 51
164.9333538136
  0
CIRCLE
  5
128
330
1F
100
AcDbEntity
  8
0
  6
Continuous
 62
     7
370
    15
100
AcDbCircle
 10
4.2995062341
 20
8.0687653625
 30
0.0
 40
0.0156249091156626
  0
LWPOLYLINE
  5
129
330
1F
100
AcDbEntity
  8
0
  6
Continuous
 62
     7
370
    15
100
AcDbPolyline
 90
        3
 70
   128
 43
0.0
 10
4.2975024264
 20
8.0760944025
 10
4.3020855968
 20
8.075979958
 10
4.3033771652
 20
8.0756106545
  0
LWPOLYLINE
  5
12A
330
1F
100
AcDbEntity
  8
0
  6
Continuous
 62
     7
370
    15
100
AcDbPolyline
 90
        3
 70
   128
 43
0.0
 10
4.2926264761
 20
8.0740418171
 10
4.2932243192
 20
8.0744462503
 10
4.2975024264
 20
8.0760944025
  0
CIRCLE
  5
12B
330
1F
100
AcDbEntity
  8
0
  6
Continuous
 62
     7
370
    15
100
AcDbCircle
 10
3.2647338476
 20
8.0576206008
 30
0.0
 40
0.0058124382322111
  0
CIRCLE
  5
12C
330
1F
100
AcDbEntity
  8
0
  6
Continuous
 62
     7
370
    15
100
AcDbCircle
 10
4.306280566
 20
8.0705752858
 30
0.0
 40
0.0058124580384116
  0
CIRCLE
  5
12D
330
1F
100
AcDbEntity
  8
0
  6
Continuous
 62
     7
370
    15
100
AcDbCircle
 10
4.2927320263
 20
8.0682302978
 30
0.0
 40
0.0058124718029328
  0
CIRCLE
  5
12E
330
1F
100
AcDbEntity
  8
0
  6
Continuous
 62
     7
370
    15
100
AcDbCircle
 10
3.2509924004
 20
8.0571357908
 30
0.0
 40
0.0058124278842824
  0
ARC
  5
12F
330
1F
100
AcDbEntity
  8
0
  6
Continuous
 62
     7
370
    15
100
AcDbCircle
 10
4.299506326
 20
8.0646581034
 30
0.0
 40
0.0115625714682619
100
AcDbArc
 50
70.7617832491
 51
125.7435862276
  0
ARC
  5
130
330
1F
100
AcDbEntity
  8
0
  6
Continuous
 62
     7
370
    15
100
AcDbCircle
 10
4.3062805871
 20
8.0658309129
 30
0.0
 40
0.0058124849776461
100
AcDbArc
 50
180.0006859117
 51
282.0246943156
  0
ARC
  5
131
330
1F
100
AcDbEntity
  8
0
  6
Continuous
 62
     7
370
    15
100
AcDbCircle
 10
4.2927322726
 20
8.0634858061
 30
0.0
 40
0.005812281808301
100
AcDbArc
 50
290.1373967919
 51
0.0006202127
  0
LINE
  5
132
330
1F
100
AcDbEntity
  8
0
  6
Continuous
 62
     7
370
    15
100
AcDbLine
 10
3.2541131831
 20
8.0770927418
 30
0.0
 11
3.2541131831
 21
8.0767307761
 31
0.0
  0
LINE
  5
133
330
1F
100
AcDbEntity
  8
0
  6
Continuous
 62
     7
370
    15
100
AcDbLine
 10
3.2541131831
 20
8.069341415
 30
0.0
 11
3.2541131831
 21
8.0662240135
 31
0.0
  0
LINE
  5
134
330
1F
100
AcDbEntity
  8
0
  6
Continuous
 62
     7
370
    15
100
AcDbLine
 10
3.2541131831
 20
8.0522323152
 30
0.0
 11
3.2541131831
 21
8.0504276336
 31
0.0
  0
LINE
  5
135
330
1F
100
AcDbEntity
  8
0
  6
Continuous
 62
     7
370
    15
100
AcDbLine
 10
3.2616131898
 20
8.0770927418
 30
0.0
 11
3.2616131898
 21
8.0767307761
 31
0.0
  0
LINE
  5
136
330
1F
100
AcDbEntity
  8
0
  6
Continuous
 62
     7
370
    15
100
AcDbLine
 10
3.2616131898
 20
8.069341415
 30
0.0
 11
3.2616131898
 21
8.0667088337
 31
0.0
  0
LINE
  5
137
330
1F
100
AcDbEntity
  8
0
  6
Continuous
 62
     7
370
    15
100
AcDbLine
 10
3.2616131898
 20
8.0527171357
 30
0.0
 11
3.2616131898
 21
8.0504276336
 31
0.0
  0
CIRCLE
  5
138
330
1F
100
AcDbEntity
  8
0
  6
Continuous
 62
     7
370
    15
100
AcDbCircle
 10
3.7787381892
 20
7.8688425535
 30
0.0
 40
0.0543750000000003
  0
CIRCLE
  5
139
330
1F
100
AcDbEntity
  8
0
  6
Continuous
 62
     7
370
    15
100
AcDbCircle
 10
3.7787381892
 20
7.8688425535
 30
0.0
 40
0.0608726291492561
  0
CIRCLE
  5
13A
330
1F
100
AcDbEntity
  8
0
  6
Continuous
 62
     7
370
    15
100
AcDbCircle
 10
3.7787381892
 20
7.8688425535
 30
0.0
 40
0.0685578333233923
  0
CIRCLE
  5
13B
330
1F
100
AcDbEntity
  8
0
  6
Continuous
 62
     7
370
    15
100
AcDbCircle
 10
3.7787381892
 20
7.8688425535
 30
0.0
 40
0.0703125
  0
CIRCLE
  5
13C
330
1F
100
AcDbEntity
  8
0
  6
Continuous
 62
     7
370
    15
100
AcDbCircle
 10
3.7787381892
 20
7.8688425535
 30
0.0
 40
0.0390625
  0
CIRCLE
  5
13D
330
1F
100
AcDbEntity
  8
0
  6
Continuous
 62
     7
370
    15
100
AcDbCircle
 10
3.7787381892
 20
7.8688425535
 30
0.0
 40
0.0740625000000001
  0
CIRCLE
  5
13E
330
1F
100
AcDbEntity
  8
0
  6
Continuous
 62
     7
370
    15
100
AcDbCircle
 10
3.7787381892
 20
7.8688425535
 30
0.0
 40
0.0794312500000003
  0
CIRCLE
  5
13F
330
1F
100
AcDbEntity
  8
0
  6
Continuous
 62
     7
370
    15
100
AcDbCircle
 10
3.7787381892
 20
7.8688425535
 30
0.0
 40
0.0889375000000001
  0
LINE
  5
140
330
1F
100
AcDbEntity
  8
0
  6
Continuous
 62
     7
370
    15
100
AcDbLine
 10
3.6858529706
 20
7.9241901105
 30
0.0
 11
3.7772484053
 21
7.9769572892
 31
0.0
  0
ARC
  5
141
330
1F
100
AcDbEntity
  8
0
  6
Continuous
 62
     7
370
    15
100
AcDbCircle
 10
3.7787381892
 20
7.8688425535
 30
0.0
 40
0.1081249999999996
100
AcDbArc
 50
89.2105337794
 51
90.7894662206
  0
LINE
  5
142
330
1F
100
AcDbEntity
  8
0
  6
Continuous
 62
     7
370
    15
100
AcDbLine
 10
3.7802279732
 20
7.9769572892
 30
0.0
 11
3.8716234079
 21
7.9241901105
 31
0.0
  0
LINE
  5
143
330
1F
100
AcDbEntity
  8
0
  6
Continuous
 62
     7
370
    15
100
AcDbLine
 10
3.8731131848
 20
7.9216097328
 30
0.0
 11
3.8731131848
 21
7.8160753753
 31
0.0
  0
ARC
  5
144
330
1F
100
AcDbEntity
  8
0
  6
Continuous
 62
     7
370
    15
100
AcDbCircle
 10
3.7787381892
 20
7.8688425535
 30
0.0
 40
0.1081250000000004
100
AcDbArc
 50
329.2105337794
 51
330.7894662206
  0
LINE
  5
145
330
1F
100
AcDbEntity
  8
0
  6
Continuous
 62
     7
370
    15
100
AcDbLine
 10
3.8716234079
 20
7.8134949884
 30
0.0
 11
3.7802279732
 21
7.7607278096
 31
0.0
  0
ARC
  5
146
330
1F
100
AcDbEntity
  8
0
  6
Continuous
 62
     7
370
    15
100
AcDbCircle
 10
3.7787381892
 20
7.8688425535
 30
0.0
 40
0.1081250000000004
100
AcDbArc
 50
269.2105337794
 51
270.7894662206
  0
LINE
  5
147
330
1F
100
AcDbEntity
  8
0
  6
Continuous
 62
     7
370
    15
100
AcDbLine
 10
3.7772484053
 20
7.7607278096
 30
0.0
 11
3.6858529706
 21
7.8134949884
 31
0.0
  0
ARC
  5
148
330
1F
100
AcDbEntity
  8
0
  6
Continuous
 62
     7
370
    15
100
AcDbCircle
 10
3.7787381892
 20
7.8688425535
 30
0.0
 40
0.1081250000000008
100
AcDbArc
 50
209.2105337794
 51
210.7894662206
  0
LINE
  5
149
330
1F
100
AcDbEntity
  8
0
  6
Continuous
 62
     7
370
    15
100
AcDbLine
 10
3.6843631936
 20
7.8160753753
 30
0.0
 11
3.6843631936
 21
7.9216097328
 31
0.0
  0
ARC
  5
14A
330
1F
100
AcDbEntity
  8
0
  6
Continuous
 62
     7
370
    15
100
AcDbCircle
 10
3.7787381892
 20
7.8688425535
 30
0.0
 40
0.1081250000000004
100
AcDbArc
 50
149.2105337794
 51
150.7894662206
  0
ARC
  5
14B
330
1F
100
AcDbEntity
  8
0
  6
Continuous
 62
     7
370
    15
100
AcDbCircle
 10
3.7787381892
 20
7.8688425535
 30
0.0
 40
0.1081250000000007
100
AcDbArc
 50
29.2105337794
 51
30.7894662206
  0
CIRCLE
  5
14C
330
1F
100
AcDbEntity
  8
0
  6
Continuous
 62
     7
370
    15
100
AcDbCircle
 10
3.7787381892
 20
8.2593425535
 30
0.0
 40
0.0608726291492561
  0
CIRCLE
  5
14D
330
1F
100
AcDbEntity
  8
0
  6
Continuous
 62
     7
370
    15
100
AcDbCircle
 10
3.7787381892
 20
8.2593425535
 30
0.0
 40
0.0685578333233923
  0
CIRCLE
  5
14E
330
1F
100
AcDbEntity
  8
0
  6
Continuous
 62
     7
370
    15
100
AcDbCircle
 10
3.7787381892
 20
8.2593425535
 30
0.0
 40
0.0543750000000003
  0
CIRCLE
  5
14F
330
1F
100
AcDbEntity
  8
0
  6
Continuous
 62
     7
370
    15
100
AcDbCircle
 10
3.7787381892
 20
8.2593425535
 30
0.0
 40
0.0703125
  0
CIRCLE
  5
150
330
1F
100
AcDbEntity
  8
0
  6
Continuous
 62
     7
370
    15
100
AcDbCircle
 10
3.7787381892
 20
8.2593425535
 30
0.0
 40
0.0390625
  0
CIRCLE
  5
151
330
1F
100
AcDbEntity
  8
0
  6
Continuous
 62
     7
370
    15
100
AcDbCircle
 10
3.7787381892
 20
8.2593425535
 30
0.0
 40
0.0740625000000001
  0
CIRCLE
  5
152
330
1F
100
AcDbEntity
  8
0
  6
Continuous
 62
     7
370
    15
100
AcDbCircle
 10
3.7787381892
 20
8.2593425535
 30
0.0
 40
0.0794312500000003
  0
CIRCLE
  5
153
330
1F
100
AcDbEntity
  8
0
  6
Continuous
 62
     7
370
    15
100
AcDbCircle
 10
3.7787381892
 20
8.2593425535
 30
0.0
 40
0.0889375000000001
  0
LINE
  5
154
330
1F
100
AcDbEntity
  8
0
  6
Continuous
 62
     7
370
    15
100
AcDbLine
 10
3.6858529706
 20
8.3146901186
 30
0.0
 11
3.7772484053
 21
8.3674572973
 31
0.0
  0
ARC
  5
155
330
1F
100
AcDbEntity
  8
0
  6
Continuous
 62
     7
370
    15
100
AcDbCircle
 10
3.7787381892
 20
8.2593425535
 30
0.0
 40
0.1081249999999987
100
AcDbArc
 50
89.2105337794
 51
90.7894662206
  0
LINE
  5
156
330
1F
100
AcDbEntity
  8
0
  6
Continuous
 62
     7
370
    15
100
AcDbLine
 10
3.7802279732
 20
8.3674572973
 30
0.0
 11
3.8716234079
 21
8.3146901186
 31
0.0
  0
ARC
  5
157
330
1F
100
AcDbEntity
  8
0
  6
Continuous
 62
     7
370
    15
100
AcDbCircle
 10
3.7787381892
 20
8.2593425535
 30
0.0
 40
0.1081250000000002
100
AcDbArc
 50
29.2105337794
 51
30.7894662206
  0
LINE
  5
158
330
1F
100
AcDbEntity
  8
0
  6
Continuous
 62
     7
370
    15
100
AcDbLine
 10
3.8731131848
 20
8.3121097317
 30
0.0
 11
3.8731131848
 21
8.2065753742
 31
0.0
  0
ARC
  5
159
330
1F
100
AcDbEntity
  8
0
  6
Continuous
 62
     7
370
    15
100
AcDbCircle
 10
3.7787381892
 20
8.2593425535
 30
0.0
 40
0.108125
100
AcDbArc
 50
329.2105337794
 51
330.7894662206
  0
LINE
  5
15A
330
1F
100
AcDbEntity
  8
0
  6
Continuous
 62
     7
370
    15
100
AcDbLine
 10
3.8716234079
 20
8.2039949965
 30
0.0
 11
3.7802279732
 21
8.1512278177
 31
0.0
  0
ARC
  5
15B
330
1F
100
AcDbEntity
  8
0
  6
Continuous
 62
     7
370
    15
100
AcDbCircle
 10
3.7787381892
 20
8.2593425535
 30
0.0
 40
0.1081250000000004
100
AcDbArc
 50
269.2105337794
 51
270.7894662206
  0
LINE
  5
15C
330
1F
100
AcDbEntity
  8
0
  6
Continuous
 62
     7
370
    15
100
AcDbLine
 10
3.7772484053
 20
8.1512278177
 30
0.0
 11
3.6858529706
 21
8.2039949965
 31
0.0
  0
ARC
  5
15D
330
1F
100
AcDbEntity
  8
0
  6
Continuous
 62
     7
370
    15
100
AcDbCircle
 10
3.7787381892
 20
8.2593425535
 30
0.0
 40
0.1081250000000008
100
AcDbArc
 50
209.2105337794
 51
210.7894662206
  0
LINE
  5
15E
330
1F
100
AcDbEntity
  8
0
  6
Continuous
 62
     7
370
    15
100
AcDbLine
 10
3.6843631936
 20
8.2065753742
 30
0.0
 11
3.6843631936
 21
8.3121097317
 31
0.0
  0
ARC
  5
15F
330
1F
100
AcDbEntity
  8
0
  6
Continuous
 62
     7
370
    15
100
AcDbCircle
 10
3.7787381892
 20
8.2593425535
 30
0.0
 40
0.1081250000000004
100
AcDbArc
 50
149.2105337794
 51
150.7894662206
  0
LINE
  5
160
330
1F
100
AcDbEntity
  8
0
  6
Continuous
 62
     7
370
    15
100
AcDbLine
 10
3.1253631904
 20
8.0823887453
 30
0.0
 11
3.1253631904
 21
8.0094050536
 31
0.0
  0
LINE
  5
161
330
1F
100
AcDbEntity
  8
0
  6
Continuous
 62
     7
370
    15
100
AcDbLine
 10
3.1253631904
 20
8.1187800534
 30
0.0
 11
3.1253631904
 21
8.0823887453
 31
0.0
  0
LINE
  5
162
330
1F
100
AcDbEntity
  8
0
  6
Continuous
 62
     7
370
    15
100
AcDbLine
 10
3.1216131871
 20
8.081134149
 30
0.0
 11
3.1216131871
 21
8.1150300546
 31
0.0
  0
LINE
  5
163
330
1F
100
AcDbEntity
  8
0
  6
Continuous
 62
     7
370
    15
100
AcDbLine
 10
3.1216131871
 20
8.0131550523
 30
0.0
 11
3.1216131871
 21
8.081134149
 31
0.0
  0
LINE
  5
164
330
1F
100
AcDbEntity
  8
0
  6
Continuous
 62
     7
370
    15
100
AcDbLine
 10
3.1731131988
 20
8.1150300546
 30
0.0
 11
3.1731131988
 21
8.0131550523
 31
0.0
  0
LINE
  5
165
330
1F
100
AcDbEntity
  8
0
  6
Continuous
 62
     7
370
    15
100
AcDbLine
 10
3.1693631955
 20
8.0094050536
 30
0.0
 11
3.1693631955
 21
8.1187800534
 31
0.0
  0
LINE
  5
166
330
1F
100
AcDbEntity
  8
0
  6
Continuous
 62
     7
370
    15
100
AcDbLine
 10
3.1918631789
 20
8.1120142286
 30
0.0
 11
3.1918631789
 21
8.0161708783
 31
0.0
  0
LINE
  5
167
330
1F
100
AcDbEntity
  8
0
  6
Continuous
 62
     7
370
    15
100
AcDbLine
 10
4.3842563342
 20
8.0688628698
 30
0.0
 11
4.3842563342
 21
8.1150300546
 31
0.0
  0
LINE
  5
168
330
1F
100
AcDbEntity
  8
0
  6
Continuous
 62
     7
370
    15
100
AcDbLine
 10
4.3842563342
 20
8.0131550523
 30
0.0
 11
4.3842563342
 21
8.0688628698
 31
0.0
  0
LINE
  5
169
330
1F
100
AcDbEntity
  8
0
  6
Continuous
 62
     7
370
    15
100
AcDbLine
 10
4.3880063376
 20
8.0692140588
 30
0.0
 11
4.3880063376
 21
8.0094050536
 31
0.0
  0
LINE
  5
16A
330
1F
100
AcDbEntity
  8
0
  6
Continuous
 62
     7
370
    15
100
AcDbLine
 10
4.3880063376
 20
8.1187800534
 30
0.0
 11
4.3880063376
 21
8.0692140588
 31
0.0
  0
LINE
  5
16B
330
1F
100
AcDbEntity
  8
0
  6
Continuous
 62
     7
370
    15
100
AcDbLine
 10
4.3655063542
 20
8.0685804366
 30
0.0
 11
4.3655063542
 21
8.1120142286
 31
0.0
  0
LINE
  5
16C
330
1F
100
AcDbEntity
  8
0
  6
Continuous
 62
     7
370
    15
100
AcDbLine
 10
4.3655063542
 20
8.0161708783
 30
0.0
 11
4.3655063542
 21
8.0685804366
 31
0.0
  0
LINE
  5
16D
330
1F
100
AcDbEntity
  8
0
  6
Continuous
 62
     7
370
    15
100
AcDbLine
 10
4.4320063426
 20
8.0094050536
 30
0.0
 11
4.4320063426
 21
8.1187800534
 31
0.0
  0
LINE
  5
16E
330
1F
100
AcDbEntity
  8
0
  6
Continuous
 62
     7
370
    15
100
AcDbLine
 10
4.435756346
 20
8.1150300546
 30
0.0
 11
4.435756346
 21
8.0131550523
 31
0.0
  0
LINE
  5
16F
330
1F
100
AcDbEntity
  8
0
  6
Continuous
 62
     7
370
    15
100
AcDbLine
 10
3.4922381939
 20
8.200571946
 30
0.0
 11
3.4922381939
 21
7.735967554
 31
0.0
  0
LINE
  5
170
330
1F
100
AcDbEntity
  8
0
  6
Continuous
 62
     7
370
    15
100
AcDbLine
 10
3.4922381939
 20
8.392217553
 30
0.0
 11
3.4922381939
 21
8.200571946
 31
0.0
  0
LINE
  5
171
330
1F
100
AcDbEntity
  8
0
  6
Continuous
 62
     7
370
    15
100
AcDbLine
 10
3.2176131847
 20
8.4078425425
 30
0.0
 11
3.2176131847
 21
8.0830515942
 31
0.0
  0
LINE
  5
172
330
1F
100
AcDbEntity
  8
0
  6
Continuous
 62
     7
370
    15
100
AcDbLine
 10
3.2176131847
 20
8.0442239643
 30
0.0
 11
3.2176131847
 21
7.7203425645
 31
0.0
  0
LINE
  5
173
330
1F
100
AcDbEntity
  8
0
  6
Continuous
 62
     7
370
    15
100
AcDbLine
 10
3.1926131869
 20
7.7453425624
 30
0.0
 11
3.1926131869
 21
8.3828425446
 31
0.0
  0
LINE
  5
174
330
1F
100
AcDbEntity
  8
0
  6
Continuous
 62
     7
370
    15
100
AcDbLine
 10
4.3397563483
 20
7.7203425645
 30
0.0
 11
4.3397563483
 21
8.0446660583
 31
0.0
  0
LINE
  5
175
330
1F
100
AcDbEntity
  8
0
  6
Continuous
 62
     7
370
    15
100
AcDbLine
 10
4.3397563483
 20
8.0878819535
 30
0.0
 11
4.3397563483
 21
8.4078425425
 31
0.0
  0
LINE
  5
176
330
1F
100
AcDbEntity
  8
0
  6
Continuous
 62
     7
370
    15
100
AcDbLine
 10
4.3647563462
 20
8.3828425446
 30
0.0
 11
4.3647563462
 21
7.7453425624
 31
0.0
  0
LINE
  5
177
330
1F
100
AcDbEntity
  8
0
  6
Continuous
 62
     7
370
    15
100
AcDbLine
 10
4.0651313391
 20
8.065951406
 30
0.0
 11
4.0651313391
 21
8.392217553
 31
0.0
  0
LINE
  5
178
330
1F
100
AcDbEntity
  8
0
  6
Continuous
 62
     7
370
    15
100
AcDbLine
 10
4.0651313391
 20
7.735967554
 30
0.0
 11
4.0651313391
 21
8.065951406
 31
0.0
  0
LINE
  5
179
330
1F
100
AcDbEntity
  8
0
  6
Continuous
 62
     7
370
    15
100
AcDbLine
 10
3.6687381858
 20
8.3889675672
 30
0.0
 11
3.8887381927
 21
8.3889675672
 31
0.0
  0
LINE
  5
17A
330
1F
100
AcDbEntity
  8
0
  6
Continuous
 62
     7
370
    15
100
AcDbLine
 10
3.7401588757
 20
8.2532175487
 30
0.0
 11
3.8173175027
 21
8.2532175487
 31
0.0
  0
LINE
  5
17B
330
1F
100
AcDbEntity
  8
0
  6
Continuous
 62
     7
370
    15
100
AcDbLine
 10
4.0539881929
 20
7.8330925454
 30
0.0
 11
3.9852381804
 21
7.7643425512
 31
0.0
  0
LINE
  5
17C
330
1F
100
AcDbEntity
  8
0
  6
Continuous
 62
     7
370
    15
100
AcDbLine
 10
3.5034881856
 20
7.7643425512
 30
0.0
 11
3.5543631846
 21
7.7643425512
 31
0.0
  0
LINE
  5
17D
330
1F
100
AcDbEntity
  8
0
  6
Continuous
 62
     7
370
    15
100
AcDbLine
 10
3.6884263175
 20
7.7643425512
 30
0.0
 11
3.7709874989
 21
7.7643425512
 31
0.0
  0
LINE
  5
17E
330
1F
100
AcDbEntity
  8
0
  6
Continuous
 62
     7
370
    15
100
AcDbLine
 10
3.7864888796
 20
7.7643425512
 30
0.0
 11
3.8690500609
 21
7.7643425512
 31
0.0
  0
LINE
  5
17F
330
1F
100
AcDbEntity
  8
0
  6
Continuous
 62
     7
370
    15
100
AcDbLine
 10
3.5034881856
 20
7.7643425512
 30
0.0
 11
3.5034881856
 21
8.3575925563
 31
0.0
  0
LINE
  5
180
330
1F
100
AcDbEntity
  8
0
  6
Continuous
 62
     7
370
    15
100
AcDbLine
 10
4.0539881929
 20
7.8330925454
 30
0.0
 11
4.0539881929
 21
8.3575925563
 31
0.0
  0
LINE
  5
181
330
1F
100
AcDbEntity
  8
0
  6
Continuous
 62
     7
370
    15
100
AcDbLine
 10
3.5034881856
 20
8.3888425353
 30
0.0
 11
4.0539881929
 21
8.3888425353
 31
0.0
  0
LINE
  5
182
330
1F
100
AcDbEntity
  8
0
  6
Continuous
 62
     7
370
    15
100
AcDbLine
 10
3.5034881856
 20
8.3575925563
 30
0.0
 11
3.5034881856
 21
8.3888425353
 31
0.0
  0
LINE
  5
183
330
1F
100
AcDbEntity
  8
0
  6
Continuous
 62
     7
370
    15
100
AcDbLine
 10
4.0539881929
 20
8.3888425353
 30
0.0
 11
4.0539881929
 21
8.3575925563
 31
0.0
  0
LINE
  5
184
330
1F
100
AcDbEntity
  8
0
  6
Continuous
 62
     7
370
    15
100
AcDbLine
 10
4.0612050628
 20
8.3510300504
 30
0.0
 11
4.0612050628
 21
7.7771550565
 31
0.0
  0
LINE
  5
185
330
1F
100
AcDbEntity
  8
0
  6
Continuous
 62
     7
370
    15
100
AcDbLine
 10
3.5033813402
 20
8.3635300494
 30
0.0
 11
3.5033813402
 21
7.7646550576
 31
0.0
  0
LINE
  5
186
330
1F
100
AcDbEntity
  8
0
  6
Continuous
 62
     7
370
    15
100
AcDbLine
 10
3.4961644519
 20
8.3510300504
 30
0.0
 11
3.4961644519
 21
7.7771550565
 31
0.0
  0
LINE
  5
187
330
1F
100
AcDbEntity
  8
0
  6
Continuous
 62
     7
370
    15
100
AcDbLine
 10
4.0031131939
 20
7.7643425512
 30
0.0
 11
4.0539881929
 21
7.7643425512
 31
0.0
  0
LINE
  5
188
330
1F
100
AcDbEntity
  8
0
  6
Continuous
 62
     7
370
    15
100
AcDbLine
 10
4.0539881929
 20
7.7643425512
 30
0.0
 11
4.0539881929
 21
7.8330925454
 31
0.0
  0
LINE
  5
189
330
1F
100
AcDbEntity
  8
0
  6
Continuous
 62
     8
370
    15
100
AcDbLine
 10
4.5640425107
 20
7.8273976911
 30
0.0
 11
4.5640425107
 21
7.8757942354
 31
0.0
  0
LINE
  5
18A
330
1F
100
AcDbEntity
  8
0
  6
Continuous
 62
     8
370
    15
100
AcDbLine
 10
4.5684618929
 20
7.8739636365
 30
0.0
 11
4.5684618929
 21
7.82922829
 31
0.0
  0
LINE
  5
18B
330
1F
100
AcDbEntity
  8
0
  6
Continuous
 62
     8
370
    15
100
AcDbLine
 10
3.4766131861
 20
8.2070709643
 30
0.0
 11
3.4766131861
 21
8.4078425425
 31
0.0
  0
LINE
  5
18C
330
1F
100
AcDbEntity
  8
0
  6
Continuous
 62
     8
370
    15
100
AcDbLine
 10
3.4766131861
 20
7.7203425645
 30
0.0
 11
3.4766131861
 21
8.2070709643
 31
0.0
  0
LINE
  5
18D
330
1F
100
AcDbEntity
  8
0
  6
Continuous
 62
     8
370
    15
100
AcDbLine
 10
4.0807563286
 20
8.0660399227
 30
0.0
 11
4.0807563286
 21
7.7203425645
 31
0.0
  0
LINE
  5
18E
330
1F
100
AcDbEntity
  8
0
  6
Continuous
 62
     8
370
    15
100
AcDbLine
 10
4.0807563286
 20
8.4078425425
 30
0.0
 11
4.0807563286
 21
8.0660399227
 31
0.0
  0
LINE
  5
18F
330
1F
100
AcDbEntity
  8
0
  6
Continuous
 62
     8
370
    15
100
AcDbLine
 10
4.0539881929
 20
8.3575925563
 30
0.0
 11
3.7973141971
 21
8.3575925563
 31
0.0
  0
LINE
  5
190
330
1F
100
AcDbEntity
  8
0
  6
Continuous
 62
     8
370
    15
100
AcDbLine
 10
3.7601621813
 20
8.3575925563
 30
0.0
 11
3.5034881856
 21
8.3575925563
 31
0.0
  0
ENDSEC
  0
SECTION
  2
OBJECTS
  0
DICTIONARY
  5
C
330
0
100
AcDbDictionary
281
     1
  3
ACAD_GROUP
350
D
  3
ACAD_LAYOUT
350
1A
  3
ACAD_MLINESTYLE
350
17
  3
ACAD_PLOTSETTINGS
350
19
  3
ACAD_PLOTSTYLENAME
350
E
  0
DICTIONARY
  5
D
102
{ACAD_REACTORS
330
C
102
}
330
C
100
AcDbDictionary
281
     1
  0
DICTIONARY
  5
1A
102
{ACAD_REACTORS
330
C
102
}
330
C
100
AcDbDictionary
281
     1
  3
Layout1
350
1E
  3
Layout2
350
26
  3
Model
350
22
  0
DICTIONARY
  5
17
102
{ACAD_REACTORS
330
C
102
}
330
C
100
AcDbDictionary
281
     1
  3
Standard
350
18
  0
DICTIONARY
  5
19
102
{ACAD_REACTORS
330
C
102
}
330
C
100
AcDbDictionary
281
     1
  0
ACDBDICTIONARYWDFLT
  5
E
102
{ACAD_REACTORS
330
C
102
}
330
C
100
AcDbDictionary
281
     1
  3
Normal
350
F
100
AcDbDictionaryWithDefault
340
F
  0
LAYOUT
  5
1E
102
{ACAD_REACTORS
330
1A
102
}
330
1A
100
AcDbPlotSettings
  1

  2
none_device
  4

  6

 40
0.0
 41
0.0
 42
0.0
 43
0.0
 44
0.0
 45
0.0
 46
0.0
 47
0.0
 48
0.0
 49
0.0
140
0.0
141
0.0
142
1.0
143
1.0
 70
   688
 72
     0
 73
     0
 74
     5
  7

 75
    16
147
1.0
148
0.0
149
0.0
100
AcDbLayout
  1
Layout1
 70
     1
 71
     1
 10
0.0
 20
0.0
 11
12.0
 21
9.0
 12
0.0
 22
0.0
 32
0.0
 14
1.0000000000E+20
 24
1.0000000000E+20
 34
1.0000000000E+20
 15
-1.0000000000E+20
 25
-1.0000000000E+20
 35
-1.0000000000E+20
146
0.0
 13
0.0
 23
0.0
 33
0.0
 16
1.0
 26
0.0
 36
0.0
 17
0.0
 27
1.0
 37
0.0
 76
     0
330
1B
  0
LAYOUT
  5
26
102
{ACAD_REACTORS
330
1A
102
}
330
1A
100
AcDbPlotSettings
  1

  2
none_device
  4

  6

 40
0.0
 41
0.0
 42
0.0
 43
0.0
 44
0.0
 45
0.0
 46
0.0
 47
0.0
 48
0.0
 49
0.0
140
0.0
141
0.0
142
1.0
143
1.0
 70
   688
 72
     0
 73
     0
 74
     5
  7

 75
    16
147
1.0
148
0.0
149
0.0
100
AcDbLayout
  1
Layout2
 70
     1
 71
     2
 10
0.0
 20
0.0
 11
0.0
 21
0.0
 12
0.0
 22
0.0
 32
0.0
 14
0.0
 24
0.0
 34
0.0
 15
0.0
 25
0.0
 35
0.0
146
0.0
 13
0.0
 23
0.0
 33
0.0
 16
1.0
 26
0.0
 36
0.0
 17
0.0
 27
1.0
 37
0.0
 76
     0
330
23
  0
LAYOUT
  5
22
102
{ACAD_REACTORS
330
1A
102
}
330
1A
100
AcDbPlotSettings
  1

  2
none_device
  4

  6

 40
0.0
 41
0.0
 42
0.0
 43
0.0
 44
0.0
 45
0.0
 46
0.0
 47
0.0
 48
0.0
 49
0.0
140
0.0
141
0.0
142
1.0
143
1.0
 70
  1712
 72
     0
 73
     0
 74
     0
  7

 75
     0
147
1.0
148
0.0
149
0.0
100
AcDbLayout
  1
Model
 70
     1
 71
     0
 10
0.0
 20
0.0
 11
8.5
 21
11.0
 12
0.0
 22
0.0
 32
0.0
 14
0.0
 24
0.0
 34
0.0
 15
8.5
 25
11.0
 35
0.0
146
0.0
 13
0.0
 23
0.0
 33
0.0
 16
1.0
 26
0.0
 36
0.0
 17
0.0
 27
1.0
 37
0.0
 76
     0
330
1F
331
29
  0
MLINESTYLE
  5
18
102
{ACAD_REACTORS
330
17
102
}
330
17
100
AcDbMlineStyle
  2
Standard
 70
     0
  3

 62
   256
 51
90.0
 52
90.0
 71
     2
 49
0.5
 62
   256
  6
BYLAYER
 49
-0.5
 62
   256
  6
BYLAYER
  0
ACDBPLACEHOLDER
  5
F
102
{ACAD_REACTORS
330
E
102
}
330
E
  0
ENDSEC
  0
EOF
