  0
SECTION
  2
HEADER
  9
$ACADVER
  1
AC1015
  9
$ACADMAINTVER
 70
     6
  9
$DWGCODEPAGE
  3
ANSI_1252
  9
$INSBASE
 10
0.0
 20
0.0
 30
0.0
  9
$EXTMIN
 10
0.0
 20
0.0
 30
0.0
  9
$EXTMAX
 10
8.5
 20
11.0
 30
0.0
  9
$LIMMIN
 10
0.0
 20
0.0
  9
$LIMMAX
 10
8.5
 20
11.0
  9
$ORTHOMODE
 70
     0
  9
$REGENMODE
 70
     1
  9
$FILLMODE
 70
     1
  9
$QTEXTMODE
 70
     0
  9
$MIRRTEXT
 70
     1
  9
$LTSCALE
 40
1.0
  9
$ATTMODE
 70
     1
  9
$TEXTSIZE
 40
0.125
  9
$TRACEWID
 40
0.05
  9
$TEXTSTYLE
  7
Standard
  9
$CLAYER
  8
0
  9
$CELTYPE
  6
ByLayer
  9
$CECOLOR
 62
   256
  9
$CELTSCALE
 40
1.0
  9
$DISPSILH
 70
     0
  9
$DIMSCALE
 40
1.0
  9
$DIMASZ
 40
0.13
  9
$DIMEXO
 40
0.05
  9
$DIMDLI
 40
0.38
  9
$DIMRND
 40
0.0
  9
$DIMDLE
 40
0.0
  9
$DIMEXE
 40
0.125
  9
$DIMTP
 40
0.0
  9
$DIMTM
 40
0.0
  9
$DIMTXT
 40
0.1527777778
  9
$DIMCEN
 40
0.09
  9
$DIMTSZ
 40
0.0
  9
$DIMTOL
 70
     0
  9
$DIMLIM
 70
     0
  9
$DIMTIH
 70
     1
  9
$DIMTOH
 70
     1
  9
$DIMSE1
 70
     0
  9
$DIMSE2
 70
     0
  9
$DIMTAD
 70
     1
  9
$DIMZIN
 70
     0
  9
$DIMBLK
  1

  9
$DIMASO
 70
     1
  9
$DIMSHO
 70
     1
  9
$DIMPOST
  1

  9
$DIMAPOST
  1

  9
$DIMALT
 70
     0
  9
$DIMALTD
 70
     2
  9
$DIMALTF
 40
25.4
  9
$DIMLFAC
 40
8.0
  9
$DIMTOFL
 70
     0
  9
$DIMTVP
 40
0.0
  9
$DIMTIX
 70
     0
  9
$DIMSOXD
 70
     0
  9
$DIMSAH
 70
     0
  9
$DIMBLK1
  1

  9
$DIMBLK2
  1

  9
$DIMSTYLE
  2
Standard
  9
$DIMCLRD
 70
     0
  9
$DIMCLRE
 70
     0
  9
$DIMCLRT
 70
     0
  9
$DIMTFAC
 40
1.0
  9
$DIMGAP
 40
0.06
  9
$DIMJUST
 70
     0
  9
$DIMSD1
 70
     0
  9
$DIMSD2
 70
     0
  9
$DIMTOLJ
 70
     1
  9
$DIMTZIN
 70
     0
  9
$DIMALTZ
 70
     0
  9
$DIMALTTZ
 70
     0
  9
$DIMUPT
 70
     0
  9
$DIMDEC
 70
     2
  9
$DIMTDEC
 70
     2
  9
$DIMALTU
 70
     2
  9
$DIMALTTD
 70
     2
  9
$DIMTXSTY
  7
Standard
  9
$DIMAUNIT
 70
     0
  9
$DIMADEC
 70
     2
  9
$DIMALTRND
 40
0.0
  9
$DIMAZIN
 70
     0
  9
$DIMDSEP
 70
    46
  9
$DIMATFIT
 70
     3
  9
$DIMFRAC
 70
     0
  9
$DIMLDRBLK
  1

  9
$DIMLUNIT
 70
     2
  9
$DIMLWD
 70
    -2
  9
$DIMLWE
 70
    -2
  9
$DIMTMOVE
 70
     0
  9
$LUNITS
 70
     2
  9
$LUPREC
 70
     3
  9
$SKETCHINC
 40
0.1
  9
$FILLETRAD
 40
0.5
  9
$AUNITS
 70
     0
  9
$AUPREC
 70
     2
  9
$MENU
  1
.
  9
$ELEVATION
 40
0.0
  9
$PELEVATION
 40
0.0
  9
$THICKNESS
 40
0.0
  9
$LIMCHECK
 70
     0
  9
$CHAMFERA
 40
0.5
  9
$CHAMFERB
 40
0.5
  9
$CHAMFERC
 40
1.0
  9
$CHAMFERD
 40
0.0
  9
$SKPOLY
 70
     0
  9
$TDCREATE
 40
2456051.560092535
  9
$TDUCREATE
 40
2456051.810092535
  9
$TDUPDATE
 40
2456051.560093021
  9
$TDUUPDATE
 40
2456051.810093021
  9
$TDINDWG
 40
0.0000000116
  9
$TDUSRTIMER
 40
0.0000000116
  9
$USRTIMER
 70
     1
  9
$ANGBASE
 50
0.0
  9
$ANGDIR
 70
     0
  9
$PDMODE
 70
     0
  9
$PDSIZE
 40
-1.0
  9
$PLINEWID
 40
0.0
  9
$SPLFRAME
 70
     0
  9
$SPLINETYPE
 70
     6
  9
$SPLINESEGS
 70
     8
  9
$HANDSEED
  5
2C4
  9
$SURFTAB1
 70
     6
  9
$SURFTAB2
 70
     6
  9
$SURFTYPE
 70
     6
  9
$SURFU
 70
     6
  9
$SURFV
 70
     6
  9
$UCSBASE
  2

  9
$UCSNAME
  2

  9
$UCSORG
 10
0.0
 20
0.0
 30
0.0
  9
$UCSXDIR
 10
1.0
 20
0.0
 30
0.0
  9
$UCSYDIR
 10
0.0
 20
1.0
 30
0.0
  9
$UCSORTHOREF
  2

  9
$UCSORTHOVIEW
 70
     0
  9
$UCSORGTOP
 10
0.0
 20
0.0
 30
0.0
  9
$UCSORGBOTTOM
 10
0.0
 20
0.0
 30
0.0
  9
$UCSORGLEFT
 10
0.0
 20
0.0
 30
0.0
  9
$UCSORGRIGHT
 10
0.0
 20
0.0
 30
0.0
  9
$UCSORGFRONT
 10
0.0
 20
0.0
 30
0.0
  9
$UCSORGBACK
 10
0.0
 20
0.0
 30
0.0
  9
$PUCSBASE
  2

  9
$PUCSNAME
  2

  9
$PUCSORG
 10
0.0
 20
0.0
 30
0.0
  9
$PUCSXDIR
 10
1.0
 20
0.0
 30
0.0
  9
$PUCSYDIR
 10
0.0
 20
1.0
 30
0.0
  9
$PUCSORTHOREF
  2

  9
$PUCSORTHOVIEW
 70
     0
  9
$PUCSORGTOP
 10
0.0
 20
0.0
 30
0.0
  9
$PUCSORGBOTTOM
 10
0.0
 20
0.0
 30
0.0
  9
$PUCSORGLEFT
 10
0.0
 20
0.0
 30
0.0
  9
$PUCSORGRIGHT
 10
0.0
 20
0.0
 30
0.0
  9
$PUCSORGFRONT
 10
0.0
 20
0.0
 30
0.0
  9
$PUCSORGBACK
 10
0.0
 20
0.0
 30
0.0
  9
$USERI1
 70
     0
  9
$USERI2
 70
     0
  9
$USERI3
 70
     0
  9
$USERI4
 70
     0
  9
$USERI5
 70
     0
  9
$USERR1
 40
0.0
  9
$USERR2
 40
0.0
  9
$USERR3
 40
0.0
  9
$USERR4
 40
0.0
  9
$USERR5
 40
0.0
  9
$WORLDVIEW
 70
     1
  9
$SHADEDGE
 70
     3
  9
$SHADEDIF
 70
    70
  9
$TILEMODE
 70
     1
  9
$MAXACTVP
 70
    64
  9
$PINSBASE
 10
0.0
 20
0.0
 30
0.0
  9
$PLIMCHECK
 70
     0
  9
$PEXTMIN
 10
1.0000000000E+20
 20
1.0000000000E+20
 30
1.0000000000E+20
  9
$PEXTMAX
 10
-1.0000000000E+20
 20
-1.0000000000E+20
 30
-1.0000000000E+20
  9
$PLIMMIN
 10
0.0
 20
0.0
  9
$PLIMMAX
 10
12.0
 20
9.0
  9
$UNITMODE
 70
     0
  9
$VISRETAIN
 70
     1
  9
$PLINEGEN
 70
     0
  9
$PSLTSCALE
 70
     1
  9
$TREEDEPTH
 70
  3020
  9
$CMLSTYLE
  2
Standard
  9
$CMLJUST
 70
     0
  9
$CMLSCALE
 40
1.0
  9
$PROXYGRAPHICS
 70
     1
  9
$MEASUREMENT
 70
     0
  9
$CELWEIGHT
370
    -1
  9
$ENDCAPS
280
     0
  9
$JOINSTYLE
280
     0
  9
$LWDISPLAY
290
     1
  9
$INSUNITS
 70
     1
  9
$HYPERLINKBASE
  1

  9
$STYLESHEET
  1

  9
$XEDIT
290
     1
  9
$CEPSNTYPE
380
     0
  9
$PSTYLEMODE
290
     1
  9
$FINGERPRINTGUID
  2
{6D2791DD-8322-46AE-AC63-B1A49A200A90}
  9
$VERSIONGUID
  2
{FAEB1C32-E019-11D5-929B-00C0DF256EC4}
  9
$EXTNAMES
290
     1
  9
$PSVPSCALE
 40
0.0
  9
$OLESTARTUP
290
     0
  0
ENDSEC
  0
SECTION
  2
CLASSES
  0
CLASS
  1
ACDBDICTIONARYWDFLT
  2
AcDbDictionaryWithDefault
  3
ObjectDBX Classes
 90
        0
280
     0
281
     0
  0
CLASS
  1
VISUALSTYLE
  2
AcDbVisualStyle
  3
ObjectDBX Classes
 90
     4095
280
     0
281
     0
  0
CLASS
  1
MATERIAL
  2
AcDbMaterial
  3
ObjectDBX Classes
 90
     1153
280
     0
281
     0
  0
CLASS
  1
ACDBPLACEHOLDER
  2
AcDbPlaceHolder
  3
ObjectDBX Classes
 90
        0
280
     0
281
     0
  0
CLASS
  1
LAYOUT
  2
AcDbLayout
  3
ObjectDBX Classes
 90
        0
280
     0
281
     0
  0
ENDSEC
  0
SECTION
  2
TABLES
  0
TABLE
  2
VPORT
  5
8
330
0
100
AcDbSymbolTable
 70
     1
  0
VPORT
  5
29
330
8
100
AcDbSymbolTableRecord
100
AcDbViewportTableRecord
  2
*Active
 70
     0
 10
0.0
 20
0.0
 11
1.0
 21
1.0
 12
4.25
 22
5.5
 13
0.0
 23
0.0
 14
0.5
 24
0.5
 15
0.5
 25
0.5
 16
0.0
 26
0.0
 36
1.0
 17
0.0
 27
0.0
 37
0.0
 40
11.0
 41
0.7727272727
 42
50.0
 43
0.0
 44
0.0
 50
0.0
 51
0.0
 71
     0
 72
  2000
 73
     1
 74
     3
 75
     0
 76
     0
 77
     0
 78
     0
281
     0
 65
     1
110
0.0
120
0.0
130
0.0
111
1.0
121
0.0
131
0.0
112
0.0
122
1.0
132
0.0
 79
     0
146
0.0
  0
ENDTAB
  0
TABLE
  2
LTYPE
  5
5
330
0
100
AcDbSymbolTable
 70
     6
  0
LTYPE
  5
14
330
5
100
AcDbSymbolTableRecord
100
AcDbLinetypeTableRecord
  2
ByBlock
 70
     0
  3

 72
    65
 73
     0
 40
0.0
  0
LTYPE
  5
15
330
5
100
AcDbSymbolTableRecord
100
AcDbLinetypeTableRecord
  2
ByLayer
 70
     0
  3

 72
    65
 73
     0
 40
0.0
  0
LTYPE
  5
16
330
5
100
AcDbSymbolTableRecord
100
AcDbLinetypeTableRecord
  2
Continuous
 70
     0
  3
Solid line
 72
    65
 73
     0
 40
0.0
  0
LTYPE
  5
3F
330
5
100
AcDbSymbolTableRecord
100
AcDbLinetypeTableRecord
  2
HIDDEN
 70
     0
  3
Hidden __ __ __ __ __ __ __ __ __ __ __ __ __ __
 72
    65
 73
     2
 40
0.075
 49
0.05
 74
     0
 49
-0.025
 74
     0
  0
LTYPE
  5
40
330
5
100
AcDbSymbolTableRecord
100
AcDbLinetypeTableRecord
  2
PHANTOM
 70
     0
  3
Phantom ______  __  __  ______  __  __  ______
 72
    65
 73
     6
 40
0.5
 49
0.25
 74
     0
 49
-0.05
 74
     0
 49
0.05
 74
     0
 49
-0.05
 74
     0
 49
0.05
 74
     0
 49
-0.05
 74
     0
  0
LTYPE
  5
41
330
5
100
AcDbSymbolTableRecord
100
AcDbLinetypeTableRecord
  2
CENTER
 70
     0
  3
Center ____ _ ____ _ ____ _ ____ _ ____ _ ____
 72
    65
 73
     4
 40
0.4
 49
0.25
 74
     0
 49
-0.05
 74
     0
 49
0.05
 74
     0
 49
-0.05
 74
     0
  0
LTYPE
  5
42
330
5
100
AcDbSymbolTableRecord
100
AcDbLinetypeTableRecord
  2
CENTERX2
 70
     0
  3
Center (2x) ________  __  ________  __  _____
 72
    65
 73
     4
 40
0.8
 49
0.5
 74
     0
 49
-0.1
 74
     0
 49
0.1
 74
     0
 49
-0.1
 74
     0
  0
LTYPE
  5
43
330
5
100
AcDbSymbolTableRecord
100
AcDbLinetypeTableRecord
  2
DOT2
 70
     0
  3
Dot (.5x) ........................................
 72
    65
 73
     2
 40
0.025
 49
0.0
 74
     0
 49
-0.025
 74
     0
  0
ENDTAB
  0
TABLE
  2
LAYER
  5
2
330
0
100
AcDbSymbolTable
 70
     1
  0
LAYER
  5
10
330
2
100
AcDbSymbolTableRecord
100
AcDbLayerTableRecord
  2
0
 70
     0
 62
     7
  6
Continuous
370
    -3
390
F
  0
ENDTAB
  0
TABLE
  2
STYLE
  5
3
330
0
100
AcDbSymbolTable
 70
     1
  0
STYLE
  5
11
330
3
100
AcDbSymbolTableRecord
100
AcDbTextStyleTableRecord
  2
Standard
 70
     0
 40
0.0
 41
1.0
 50
0.0
 71
     0
 42
0.125
  3
txt
  4

  0
ENDTAB
  0
TABLE
  2
VIEW
  5
6
330
0
100
AcDbSymbolTable
 70
     0
  0
ENDTAB
  0
TABLE
  2
UCS
  5
7
330
0
100
AcDbSymbolTable
 70
     0
  0
ENDTAB
  0
TABLE
  2
APPID
  5
9
330
0
100
AcDbSymbolTable
 70
     1
  0
APPID
  5
12
330
9
100
AcDbSymbolTableRecord
100
AcDbRegAppTableRecord
  2
ACAD
 70
     0
  0
ENDTAB
  0
TABLE
  2
DIMSTYLE
  5
A
330
0
100
AcDbSymbolTable
 70
     1
100
AcDbDimStyleTable
  0
DIMSTYLE
105
27
330
A
100
AcDbSymbolTableRecord
100
AcDbDimStyleTableRecord
  2
Standard
 70
     0
178
     0
340
11
  0
ENDTAB
  0
TABLE
  2
BLOCK_RECORD
  5
1
330
0
100
AcDbSymbolTable
 70
     1
  0
BLOCK_RECORD
  5
1F
330
1
100
AcDbSymbolTableRecord
100
AcDbBlockTableRecord
  2
*Model_Space
340
22
  0
BLOCK_RECORD
  5
1B
330
1
100
AcDbSymbolTableRecord
100
AcDbBlockTableRecord
  2
*Paper_Space
340
1E
  0
BLOCK_RECORD
  5
23
330
1
100
AcDbSymbolTableRecord
100
AcDbBlockTableRecord
  2
*Paper_Space0
340
26
  0
ENDTAB
  0
ENDSEC
  0
SECTION
  2
BLOCKS
  0
BLOCK
  5
20
330
1F
100
AcDbEntity
  8
0
100
AcDbBlockBegin
  2
*Model_Space
 70
     0
 10
0.0
 20
0.0
 30
0.0
  3
*Model_Space
  1

  0
ENDBLK
  5
21
330
1F
100
AcDbEntity
  8
0
100
AcDbBlockEnd
  0
BLOCK
  5
1C
330
1B
100
AcDbEntity
 67
     1
  8
0
100
AcDbBlockBegin
  2
*Paper_Space
 70
     0
 10
0.0
 20
0.0
 30
0.0
  3
*Paper_Space
  1

  0
ENDBLK
  5
1D
330
1B
100
AcDbEntity
 67
     1
  8
0
100
AcDbBlockEnd
  0
BLOCK
  5
24
330
23
100
AcDbEntity
  8
0
100
AcDbBlockBegin
  2
*Paper_Space0
 70
     0
 10
0.0
 20
0.0
 30
0.0
  3
*Paper_Space0
  1

  0
ENDBLK
  5
25
330
23
100
AcDbEntity
  8
0
100
AcDbBlockEnd
  0
ENDSEC
  0
SECTION
  2
ENTITIES
  0
LINE
  5
44
330
1F
100
AcDbEntity
  8
0
  6
Continuous
 62
     7
370
    15
100
AcDbLine
 10
4.9560664931
 20
7.6955738042
 30
0.0
 11
4.9605140351
 21
7.7032771275
 31
0.0
  0
LINE
  5
45
330
1F
100
AcDbEntity
  8
0
  6
Continuous
 62
     7
370
    15
100
AcDbLine
 10
4.9605140351
 20
7.7678704805
 30
0.0
 11
4.9560664931
 21
7.7755738015
 31
0.0
  0
LINE
  5
46
330
1F
100
AcDbEntity
  8
0
  6
Continuous
 62
     7
370
    15
100
AcDbLine
 10
4.9560664931
 20
7.7755738015
 30
0.0
 11
4.9402015231
 21
7.7755738015
 31
0.0
  0
LINE
  5
47
330
1F
100
AcDbEntity
  8
0
  6
Continuous
 62
     7
370
    15
100
AcDbLine
 10
4.9402015231
 20
7.6955738042
 30
0.0
 11
4.9560664931
 21
7.6955738042
 31
0.0
  0
LINE
  5
48
330
1F
100
AcDbEntity
  8
0
  6
Continuous
 62
     7
370
    15
100
AcDbLine
 10
4.9722327864
 20
7.6965113028
 30
0.0
 11
4.9761389879
 21
7.7032771275
 31
0.0
  0
LINE
  5
49
330
1F
100
AcDbEntity
  8
0
  6
Continuous
 62
     7
370
    15
100
AcDbLine
 10
4.9761389879
 20
7.7678704805
 30
0.0
 11
4.9722327864
 21
7.7746363052
 31
0.0
  0
LINE
  5
4A
330
1F
100
AcDbEntity
  8
0
  6
Continuous
 62
     7
370
    15
100
AcDbLine
 10
4.9722327864
 20
7.7746363052
 30
0.0
 11
4.9683265115
 21
7.7678704805
 31
0.0
  0
LINE
  5
4B
330
1F
100
AcDbEntity
  8
0
  6
Continuous
 62
     7
370
    15
100
AcDbLine
 10
4.9683265115
 20
7.7032771275
 30
0.0
 11
4.9722327864
 21
7.6965113028
 31
0.0
  0
LINE
  5
4C
330
1F
100
AcDbEntity
  8
0
  6
Continuous
 62
     7
370
    15
100
AcDbLine
 10
4.9787912773
 20
7.7724643024
 30
0.0
 11
4.9761389879
 21
7.7678704805
 31
0.0
  0
LINE
  5
4D
330
1F
100
AcDbEntity
  8
0
  6
Continuous
 62
     7
370
    15
100
AcDbLine
 10
4.9761389879
 20
7.7032771275
 30
0.0
 11
4.9787912773
 21
7.698683301
 31
0.0
  0
LINE
  5
4E
330
1F
100
AcDbEntity
  8
0
  6
Continuous
 62
     7
370
    15
100
AcDbLine
 10
4.9644202366
 20
7.7746363052
 30
0.0
 11
4.9605140351
 21
7.7678704805
 31
0.0
  0
LINE
  5
4F
330
1F
100
AcDbEntity
  8
0
  6
Continuous
 62
     7
370
    15
100
AcDbLine
 10
4.9605140351
 20
7.7032771275
 30
0.0
 11
4.9644202366
 21
7.6965113028
 31
0.0
  0
LINE
  5
50
330
1F
100
AcDbEntity
  8
0
  6
Continuous
 62
     7
370
    15
100
AcDbLine
 10
4.9644202366
 20
7.6965113028
 30
0.0
 11
4.9683265115
 21
7.7032771275
 31
0.0
  0
LINE
  5
51
330
1F
100
AcDbEntity
  8
0
  6
Continuous
 62
     7
370
    15
100
AcDbLine
 10
4.9683265115
 20
7.7678704805
 30
0.0
 11
4.9644202366
 21
7.7746363052
 31
0.0
  0
LINE
  5
52
330
1F
100
AcDbEntity
  8
0
  6
Continuous
 62
     7
370
    15
100
AcDbLine
 10
4.9089514707
 20
7.7668863035
 30
0.0
 11
4.9040786737
 21
7.7668863035
 31
0.0
  0
LINE
  5
53
330
1F
100
AcDbEntity
  8
0
  6
Continuous
 62
     7
370
    15
100
AcDbLine
 10
4.9040786737
 20
7.7042613022
 30
0.0
 11
4.9089514707
 21
7.7042613022
 31
0.0
  0
LINE
  5
54
330
1F
100
AcDbEntity
  8
0
  6
Continuous
 62
     7
370
    15
100
AcDbLine
 10
4.8971359939
 20
7.7042613022
 30
0.0
 11
4.9006073338
 21
7.7102738029
 31
0.0
  0
LINE
  5
55
330
1F
100
AcDbEntity
  8
0
  6
Continuous
 62
     7
370
    15
100
AcDbLine
 10
4.9006073338
 20
7.7608738028
 30
0.0
 11
4.8971359939
 21
7.7668863035
 31
0.0
  0
LINE
  5
56
330
1F
100
AcDbEntity
  8
0
  6
Continuous
 62
     7
370
    15
100
AcDbLine
 10
4.8971359939
 20
7.7668863035
 30
0.0
 11
4.8964515085
 21
7.7657007074
 31
0.0
  0
LINE
  5
57
330
1F
100
AcDbEntity
  8
0
  6
Continuous
 62
     7
370
    15
100
AcDbLine
 10
4.8964515085
 20
7.7054468983
 30
0.0
 11
4.8971359939
 21
7.7042613022
 31
0.0
  0
LINE
  5
58
330
1F
100
AcDbEntity
  8
0
  6
Continuous
 62
     7
370
    15
100
AcDbLine
 10
4.9040786737
 20
7.7668863035
 30
0.0
 11
4.9006073338
 21
7.7608738028
 31
0.0
  0
LINE
  5
59
330
1F
100
AcDbEntity
  8
0
  6
Continuous
 62
     7
370
    15
100
AcDbLine
 10
4.9006073338
 20
7.7102738029
 30
0.0
 11
4.9040786737
 21
7.7042613022
 31
0.0
  0
LINE
  5
5A
330
1F
100
AcDbEntity
  8
0
  6
Continuous
 62
     7
370
    15
100
AcDbLine
 10
5.1545619134
 20
7.7240649796
 30
0.0
 11
5.2670619405
 21
7.7240649796
 31
0.0
  0
LINE
  5
5B
330
1F
100
AcDbEntity
  8
0
  6
Continuous
 62
     7
370
    15
100
AcDbLine
 10
5.1545619134
 20
7.7354576272
 30
0.0
 11
5.2670619405
 21
7.7354576272
 31
0.0
  0
LINE
  5
5C
330
1F
100
AcDbEntity
  8
0
  6
Continuous
 62
     7
370
    15
100
AcDbLine
 10
5.2670619405
 20
7.7470826273
 30
0.0
 11
5.1545619134
 21
7.7470826273
 31
0.0
  0
LINE
  5
5D
330
1F
100
AcDbEntity
  8
0
  6
Continuous
 62
     7
370
    15
100
AcDbLine
 10
5.1037912666
 20
7.7205738032
 30
0.0
 11
5.1545619134
 21
7.7205738032
 31
0.0
  0
LINE
  5
5E
330
1F
100
AcDbEntity
  8
0
  6
Continuous
 62
     7
370
    15
100
AcDbLine
 10
5.1545619134
 20
7.7505738036
 30
0.0
 11
5.1037912666
 21
7.7505738036
 31
0.0
  0
LINE
  5
5F
330
1F
100
AcDbEntity
  8
0
  6
Continuous
 62
     7
370
    15
100
AcDbLine
 10
5.1037912666
 20
7.7843238017
 30
0.0
 11
4.9787912773
 21
7.7843238017
 31
0.0
  0
LINE
  5
60
330
1F
100
AcDbEntity
  8
0
  6
Continuous
 62
     7
370
    15
100
AcDbLine
 10
4.9787912773
 20
7.6868238017
 30
0.0
 11
5.1037912666
 21
7.6868238017
 31
0.0
  0
LINE
  5
61
330
1F
100
AcDbEntity
  8
0
  6
Continuous
 62
     7
370
    15
100
AcDbLine
 10
5.1018577823
 20
7.438904857
 30
0.0
 11
4.9768577196
 21
7.438904857
 31
0.0
  0
LINE
  5
62
330
1F
100
AcDbEntity
  8
0
  6
Continuous
 62
     7
370
    15
100
AcDbLine
 10
4.9768577196
 20
7.3414048433
 30
0.0
 11
5.1018577823
 21
7.3414048433
 31
0.0
  0
LINE
  5
63
330
1F
100
AcDbEntity
  8
0
  6
Continuous
 62
     7
370
    15
100
AcDbLine
 10
4.9606914997
 20
7.4301548614
 30
0.0
 11
4.9448265296
 21
7.4301548614
 31
0.0
  0
LINE
  5
64
330
1F
100
AcDbEntity
  8
0
  6
Continuous
 62
     7
370
    15
100
AcDbLine
 10
4.9448265296
 20
7.3501548756
 30
0.0
 11
4.9606914997
 21
7.3501548756
 31
0.0
  0
LINE
  5
65
330
1F
100
AcDbEntity
  8
0
  6
Continuous
 62
     7
370
    15
100
AcDbLine
 10
4.9606914997
 20
7.3501548756
 30
0.0
 11
4.9651389683
 21
7.3578581966
 31
0.0
  0
LINE
  5
66
330
1F
100
AcDbEntity
  8
0
  6
Continuous
 62
     7
370
    15
100
AcDbLine
 10
4.9651389683
 20
7.4224515404
 30
0.0
 11
4.9606914997
 21
7.4301548614
 31
0.0
  0
LINE
  5
67
330
1F
100
AcDbEntity
  8
0
  6
Continuous
 62
     7
370
    15
100
AcDbLine
 10
4.9690452432
 20
7.4292173606
 30
0.0
 11
4.9651389683
 21
7.4224515404
 31
0.0
  0
LINE
  5
68
330
1F
100
AcDbEntity
  8
0
  6
Continuous
 62
     7
370
    15
100
AcDbLine
 10
4.9651389683
 20
7.3578581966
 30
0.0
 11
4.9690452432
 21
7.3510923581
 31
0.0
  0
LINE
  5
69
330
1F
100
AcDbEntity
  8
0
  6
Continuous
 62
     7
370
    15
100
AcDbLine
 10
4.9690452432
 20
7.3510923581
 30
0.0
 11
4.9729515181
 21
7.3578581966
 31
0.0
  0
LINE
  5
6A
330
1F
100
AcDbEntity
  8
0
  6
Continuous
 62
     7
370
    15
100
AcDbLine
 10
4.9729515181
 20
7.4224515404
 30
0.0
 11
4.9690452432
 21
7.4292173606
 31
0.0
  0
LINE
  5
6B
330
1F
100
AcDbEntity
  8
0
  6
Continuous
 62
     7
370
    15
100
AcDbLine
 10
4.9768577196
 20
7.4292173606
 30
0.0
 11
4.9729515181
 21
7.4224515404
 31
0.0
  0
LINE
  5
6C
330
1F
100
AcDbEntity
  8
0
  6
Continuous
 62
     7
370
    15
100
AcDbLine
 10
4.9729515181
 20
7.3578581966
 30
0.0
 11
4.9768577196
 21
7.3510923581
 31
0.0
  0
LINE
  5
6D
330
1F
100
AcDbEntity
  8
0
  6
Continuous
 62
     7
370
    15
100
AcDbLine
 10
4.9135764773
 20
7.4214673451
 30
0.0
 11
4.9110212801
 21
7.4214673451
 31
0.0
  0
LINE
  5
6E
330
1F
100
AcDbEntity
  8
0
  6
Continuous
 62
     7
370
    15
100
AcDbLine
 10
4.9110212801
 20
7.3588423552
 30
0.0
 11
4.9135764773
 21
7.3588423552
 31
0.0
  0
LINE
  5
6F
330
1F
100
AcDbEntity
  8
0
  6
Continuous
 62
     7
370
    15
100
AcDbLine
 10
4.9040786737
 20
7.3588423552
 30
0.0
 11
4.9075499403
 21
7.3648548491
 31
0.0
  0
LINE
  5
70
330
1F
100
AcDbEntity
  8
0
  6
Continuous
 62
     7
370
    15
100
AcDbLine
 10
4.9075499403
 20
7.4154548512
 30
0.0
 11
4.9040786737
 21
7.4214673451
 31
0.0
  0
LINE
  5
71
330
1F
100
AcDbEntity
  8
0
  6
Continuous
 62
     7
370
    15
100
AcDbLine
 10
4.9040786737
 20
7.4214673451
 30
0.0
 11
4.9006073338
 21
7.4154548512
 31
0.0
  0
LINE
  5
72
330
1F
100
AcDbEntity
  8
0
  6
Continuous
 62
     7
370
    15
100
AcDbLine
 10
4.9006073338
 20
7.3648548491
 30
0.0
 11
4.9040786737
 21
7.3588423552
 31
0.0
  0
LINE
  5
73
330
1F
100
AcDbEntity
  8
0
  6
Continuous
 62
     7
370
    15
100
AcDbLine
 10
4.9110212801
 20
7.4214673451
 30
0.0
 11
4.9075499403
 21
7.4154548512
 31
0.0
  0
LINE
  5
74
330
1F
100
AcDbEntity
  8
0
  6
Continuous
 62
     7
370
    15
100
AcDbLine
 10
4.9075499403
 20
7.3648548491
 30
0.0
 11
4.9110212801
 21
7.3588423552
 31
0.0
  0
LINE
  5
75
330
1F
100
AcDbEntity
  8
0
  6
Continuous
 62
     7
370
    15
100
AcDbLine
 10
4.8971359939
 20
7.3588423552
 30
0.0
 11
4.9006073338
 21
7.3648548491
 31
0.0
  0
LINE
  5
76
330
1F
100
AcDbEntity
  8
0
  6
Continuous
 62
     7
370
    15
100
AcDbLine
 10
4.9006073338
 20
7.4154548512
 30
0.0
 11
4.8971359939
 21
7.4214673451
 31
0.0
  0
LINE
  5
77
330
1F
100
AcDbEntity
  8
0
  6
Continuous
 62
     7
370
    15
100
AcDbLine
 10
4.8971359939
 20
7.4214673451
 30
0.0
 11
4.8964515085
 21
7.4202817788
 31
0.0
  0
LINE
  5
78
330
1F
100
AcDbEntity
  8
0
  6
Continuous
 62
     7
370
    15
100
AcDbLine
 10
4.8964515085
 20
7.3600279582
 30
0.0
 11
4.8971359939
 21
7.3588423552
 31
0.0
  0
LINE
  5
79
330
1F
100
AcDbEntity
  8
0
  6
Continuous
 62
     7
370
    15
100
AcDbLine
 10
5.1018577823
 20
7.438904857
 30
0.0
 11
4.9768577196
 21
7.438904857
 31
0.0
  0
LINE
  5
7A
330
1F
100
AcDbEntity
  8
0
  6
Continuous
 62
     7
370
    15
100
AcDbLine
 10
4.9768577196
 20
7.3414048433
 30
0.0
 11
5.1018577823
 21
7.3414048433
 31
0.0
  0
LINE
  5
7B
330
1F
100
AcDbEntity
  8
0
  6
Continuous
 62
     7
370
    15
100
AcDbLine
 10
3.5011293607
 20
7.7942069033
 30
0.0
 11
3.498825694
 21
7.7919031954
 31
0.0
  0
LINE
  5
7C
330
1F
100
AcDbEntity
  8
0
  6
Continuous
 62
     7
370
    15
100
AcDbLine
 10
3.498825694
 20
7.675804844
 30
0.0
 11
3.5011293607
 21
7.6735011361
 31
0.0
  0
LINE
  5
7D
330
1F
100
AcDbEntity
  8
0
  6
Continuous
 62
     7
370
    15
100
AcDbLine
 10
3.5011293607
 20
7.6735011361
 30
0.0
 11
3.5012639991
 21
7.6737342921
 31
0.0
  0
LINE
  5
7E
330
1F
100
AcDbEntity
  8
0
  6
Continuous
 62
     7
370
    15
100
AcDbLine
 10
3.5012639991
 20
7.7939737473
 30
0.0
 11
3.5011293607
 21
7.7942069033
 31
0.0
  0
ARC
  5
7F
330
1F
100
AcDbEntity
  8
0
  6
Continuous
 62
     7
370
    15
100
AcDbCircle
 10
3.4974998534
 20
7.7932290197
 30
0.0
 40
0.0018749999999997
100
AcDbArc
 50
270.000013123
 51
315.0000092793
  0
ARC
  5
80
330
1F
100
AcDbEntity
  8
0
  6
Continuous
 62
     7
370
    15
100
AcDbCircle
 10
3.4974998534
 20
7.6744790197
 30
0.0
 40
0.0018749999999997
100
AcDbArc
 50
44.9999907207
 51
89.999986877
  0
ARC
  5
81
330
1F
100
AcDbEntity
  8
0
  6
Continuous
 62
     7
370
    15
100
AcDbCircle
 10
3.4361656538
 20
7.7894790197
 30
0.0
 40
0.0018750000000003
100
AcDbArc
 50
90.0
 51
135.0
  0
ARC
  5
82
330
1F
100
AcDbEntity
  8
0
  6
Continuous
 62
     7
370
    15
100
AcDbCircle
 10
3.4361656538
 20
7.6782290197
 30
0.0
 40
0.0018750000000003
100
AcDbArc
 50
225.0
 51
270.0
  0
LINE
  5
83
330
1F
100
AcDbEntity
  8
0
  6
Continuous
 62
     7
370
    15
100
AcDbLine
 10
3.4974998426
 20
7.7913540175
 30
0.0
 11
3.4361656511
 21
7.7913540175
 31
0.0
  0
LINE
  5
84
330
1F
100
AcDbEntity
  8
0
  6
Continuous
 62
     7
370
    15
100
AcDbLine
 10
3.4361656511
 20
7.6763540219
 30
0.0
 11
3.4974998426
 21
7.6763540219
 31
0.0
  0
LINE
  5
85
330
1F
100
AcDbEntity
  8
0
  6
Continuous
 62
     7
370
    15
100
AcDbLine
 10
3.4348397998
 20
7.7908048443
 30
0.0
 11
3.4253131765
 21
7.7812781935
 31
0.0
  0
LINE
  5
86
330
1F
100
AcDbEntity
  8
0
  6
Continuous
 62
     7
370
    15
100
AcDbLine
 10
3.4253131765
 20
7.6864298459
 30
0.0
 11
3.4348397998
 21
7.6769031951
 31
0.0
  0
ARC
  5
87
330
1F
100
AcDbEntity
  8
0
  6
Continuous
 62
     7
370
    15
100
AcDbCircle
 10
3.4239873538
 20
7.7826040197
 30
0.0
 40
0.0018749999999997
100
AcDbArc
 50
270.0
 51
315.0
  0
ARC
  5
88
330
1F
100
AcDbEntity
  8
0
  6
Continuous
 62
     7
370
    15
100
AcDbCircle
 10
3.4239873538
 20
7.6851040197
 30
0.0
 40
0.0018749999999997
100
AcDbArc
 50
45.0
 51
90.0
  0
LINE
  5
89
330
1F
100
AcDbEntity
  8
0
  6
Continuous
 62
     7
370
    15
100
AcDbLine
 10
3.4239873252
 20
7.7807290203
 30
0.0
 11
3.3953889755
 21
7.7807290203
 31
0.0
  0
LINE
  5
8A
330
1F
100
AcDbEntity
  8
0
  6
Continuous
 62
     7
370
    15
100
AcDbLine
 10
3.3953889755
 20
7.6869790191
 30
0.0
 11
3.4239873252
 21
7.6869790191
 31
0.0
  0
LINE
  5
8B
330
1F
100
AcDbEntity
  8
0
  6
Continuous
 62
     7
370
    15
100
AcDbLine
 10
3.3953889755
 20
7.7807290203
 30
0.0
 11
3.3935140105
 21
7.7788540186
 31
0.0
  0
LINE
  5
8C
330
1F
100
AcDbEntity
  8
0
  6
Continuous
 62
     7
370
    15
100
AcDbLine
 10
3.3935140105
 20
7.6888540208
 30
0.0
 11
3.3953889755
 21
7.6869790191
 31
0.0
  0
LINE
  5
8D
330
1F
100
AcDbEntity
  8
0
  6
Continuous
 62
     7
370
    15
100
AcDbLine
 10
3.2176175358
 20
7.7182290199
 30
0.0
 11
3.3935140105
 21
7.7182290199
 31
0.0
  0
LINE
  5
8E
330
1F
100
AcDbEntity
  8
0
  6
Continuous
 62
     7
370
    15
100
AcDbLine
 10
3.3935140105
 20
7.7494790195
 30
0.0
 11
3.2176175358
 21
7.7494790195
 31
0.0
  0
LINE
  5
8F
330
1F
100
AcDbEntity
  8
0
  6
Continuous
 62
     7
370
    15
100
AcDbLine
 10
4.7319514888
 20
8.279416514
 30
0.0
 11
4.5578877029
 21
8.2636394696
 31
0.0
  0
LINE
  5
90
330
1F
100
AcDbEntity
  8
0
  6
Continuous
 62
     7
370
    15
100
AcDbLine
 10
4.5578877029
 20
7.2040685698
 30
0.0
 11
4.7319514888
 21
7.1882915254
 31
0.0
  0
LINE
  5
91
330
1F
100
AcDbEntity
  8
0
  6
Continuous
 62
     7
370
    15
100
AcDbLine
 10
4.7319514888
 20
7.1882915254
 30
0.0
 11
4.8714515106
 21
7.1882915254
 31
0.0
  0
LINE
  5
92
330
1F
100
AcDbEntity
  8
0
  6
Continuous
 62
     7
370
    15
100
AcDbLine
 10
4.8714515106
 20
8.279416514
 30
0.0
 11
4.7319514888
 21
8.279416514
 31
0.0
  0
LINE
  5
93
330
1F
100
AcDbEntity
  8
0
  6
Continuous
 62
     7
370
    15
100
AcDbLine
 10
4.8714515106
 20
7.1882915254
 30
0.0
 11
4.8964515085
 21
7.2132915233
 31
0.0
  0
LINE
  5
94
330
1F
100
AcDbEntity
  8
0
  6
Continuous
 62
     7
370
    15
100
AcDbLine
 10
4.8964515085
 20
8.2544165161
 30
0.0
 11
4.8714515106
 21
8.279416514
 31
0.0
  0
LINE
  5
95
330
1F
100
AcDbEntity
  8
0
  6
Continuous
 62
     7
370
    15
100
AcDbLine
 10
4.5578877029
 20
8.2636394696
 30
0.0
 11
4.5423265127
 21
8.2449761685
 31
0.0
  0
LINE
  5
96
330
1F
100
AcDbEntity
  8
0
  6
Continuous
 62
     7
370
    15
100
AcDbLine
 10
4.5423265127
 20
7.2227318709
 30
0.0
 11
4.5578877029
 21
7.2040685698
 31
0.0
  0
ARC
  5
97
330
1F
100
AcDbEntity
  8
0
  6
Continuous
 62
     7
370
    15
100
AcDbCircle
 10
4.5267015038
 20
7.2285415197
 30
0.0
 40
0.015625
100
AcDbArc
 50
0.0
 51
90.0
  0
ARC
  5
98
330
1F
100
AcDbEntity
  8
0
  6
Continuous
 62
     7
370
    15
100
AcDbCircle
 10
4.5267015038
 20
8.2391665197
 30
0.0
 40
0.015625
100
AcDbArc
 50
270.0
 51
0.0
  0
LINE
  5
99
330
1F
100
AcDbEntity
  8
0
  6
Continuous
 62
     7
370
    15
100
AcDbLine
 10
3.526263997
 20
8.279416514
 30
0.0
 11
3.5012639991
 21
8.2544165161
 31
0.0
  0
LINE
  5
9A
330
1F
100
AcDbEntity
  8
0
  6
Continuous
 62
     7
370
    15
100
AcDbLine
 10
3.5012639991
 20
7.2132915233
 30
0.0
 11
3.526263997
 21
7.1882915254
 31
0.0
  0
LINE
  5
9B
330
1F
100
AcDbEntity
  8
0
  6
Continuous
 62
     7
370
    15
100
AcDbLine
 10
3.6657640188
 20
7.1882915254
 30
0.0
 11
3.8398278047
 21
7.2040685698
 31
0.0
  0
LINE
  5
9C
330
1F
100
AcDbEntity
  8
0
  6
Continuous
 62
     7
370
    15
100
AcDbLine
 10
3.8398278047
 20
8.2636394696
 30
0.0
 11
3.6657640188
 21
8.279416514
 31
0.0
  0
LINE
  5
9D
330
1F
100
AcDbEntity
  8
0
  6
Continuous
 62
     7
370
    15
100
AcDbLine
 10
3.6657640188
 20
8.279416514
 30
0.0
 11
3.526263997
 21
8.279416514
 31
0.0
  0
LINE
  5
9E
330
1F
100
AcDbEntity
  8
0
  6
Continuous
 62
     7
370
    15
100
AcDbLine
 10
3.526263997
 20
7.1882915254
 30
0.0
 11
3.6657640188
 21
7.1882915254
 31
0.0
  0
LINE
  5
9F
330
1F
100
AcDbEntity
  8
0
  6
Continuous
 62
     7
370
    15
100
AcDbLine
 10
3.8398278047
 20
7.2040685698
 30
0.0
 11
3.8553889949
 21
7.2227318709
 31
0.0
  0
LINE
  5
A0
330
1F
100
AcDbEntity
  8
0
  6
Continuous
 62
     7
370
    15
100
AcDbLine
 10
3.8553889949
 20
8.2449761685
 30
0.0
 11
3.8398278047
 21
8.2636394696
 31
0.0
  0
ARC
  5
A1
330
1F
100
AcDbEntity
  8
0
  6
Continuous
 62
     7
370
    15
100
AcDbCircle
 10
3.8710140038
 20
8.2391665197
 30
0.0
 40
0.015625
100
AcDbArc
 50
180.0
 51
270.0
  0
ARC
  5
A2
330
1F
100
AcDbEntity
  8
0
  6
Continuous
 62
     7
370
    15
100
AcDbCircle
 10
3.8710140038
 20
7.2285415197
 30
0.0
 40
0.015625
100
AcDbArc
 50
90.0
 51
180.0
  0
LINE
  5
A3
330
1F
100
AcDbEntity
  8
0
  6
Continuous
 62
     7
370
    15
100
AcDbLine
 10
3.4598890038
 20
7.4247970066
 30
0.0
 11
3.3817640196
 21
7.4143077845
 31
0.0
  0
LINE
  5
A4
330
1F
100
AcDbEntity
  8
0
  6
Continuous
 62
     7
370
    15
100
AcDbLine
 10
3.3817640196
 20
7.3659112402
 30
0.0
 11
3.4598890038
 21
7.355422018
 31
0.0
  0
SPLINE
  5
A5
330
1F
100
AcDbEntity
  8
0
  6
Continuous
 62
     7
370
    15
100
AcDbSpline
210
0.0
220
0.0
230
1.0
 70
     8
 71
     3
 72
    14
 73
    10
 74
     0
 42
0.00000001
 43
0.00000001
 12
1.0
 22
0.0
 32
0.0
 13
1.0
 23
0.0
 33
0.0
 40
0.0
 40
0.0
 40
0.0
 40
0.0
 40
0.070223507606721
 40
0.1509642731260534
 40
0.2394073065490899
 40
0.436724819642288
 40
0.614004804517186
 40
0.7960912073105124
 40
1.0
 40
1.0
 40
1.0
 40
1.0
 10
3.358084666472339
 20
7.368650025233087
 30
0.0
 10
3.358522852467879
 20
7.368983243009962
 30
0.0
 10
3.359464850846559
 20
7.369699584035823
 30
0.0
 10
3.36142308600987
 20
7.369738490668872
 30
0.0
 10
3.364044016497376
 20
7.368637540038807
 30
0.0
 10
3.366881938125234
 20
7.366499059836039
 30
0.0
 10
3.37125299289802
 20
7.365272991759451
 30
0.0
 10
3.375392636203408
 20
7.36710419401511
 30
0.0
 10
3.377818638426629
 20
7.368776978752133
 30
0.0
 10
3.379100217032239
 20
7.369660656891518
 30
0.0
  0
SPLINE
  5
A6
330
1F
100
AcDbEntity
  8
0
  6
Continuous
 62
     7
370
    15
100
AcDbSpline
210
0.0
220
0.0
230
1.0
 70
     8
 71
     3
 72
    14
 73
    10
 74
     0
 42
0.00000001
 43
0.00000001
 12
1.0
 22
0.0
 32
0.0
 13
1.0
 23
0.0
 33
0.0
 40
0.0
 40
0.0
 40
0.0
 40
0.0
 40
0.2049680387749493
 40
0.3880003267693536
 40
0.5662012289207097
 40
0.7645437483443374
 40
0.8534467620426879
 40
0.9346070510332762
 40
1.0
 40
1.0
 40
1.0
 40
1.0
 10
3.379100217032239
 20
7.410558367771005
 30
0.0
 10
3.37781864355331
 20
7.411442057517516
 30
0.0
 10
3.375392651034789
 20
7.413114864226594
 30
0.0
 10
3.371252941466833
 20
7.414945916459617
 30
0.0
 10
3.366882134944099
 20
7.413720410436816
 30
0.0
 10
3.364043379546601
 20
7.411580047544384
 30
0.0
 10
3.361424016154779
 20
7.41048265609436
 30
0.0
 10
3.35950419446037
 20
7.41051168327355
 30
0.0
 10
3.35859276893237
 20
7.411199526827905
 30
0.0
 10
3.35818608530074
 20
7.411506446818715
 30
0.0
  0
ARC
  5
A7
330
1F
100
AcDbEntity
  8
0
  6
Continuous
 62
     7
370
    15
100
AcDbCircle
 10
3.3295612009
 20
7.4018077704
 30
0.0
 40
0.0125000000000002
100
AcDbArc
 50
54.3409123039
 51
90.0
  0
ARC
  5
A8
330
1F
100
AcDbEntity
  8
0
  6
Continuous
 62
     7
370
    15
100
AcDbCircle
 10
3.3295612009
 20
7.3784112409
 30
0.0
 40
0.0125000000000005
100
AcDbArc
 50
270.0
 51
305.6590876961
  0
LINE
  5
A9
330
1F
100
AcDbEntity
  8
0
  6
Continuous
 62
     7
370
    15
100
AcDbLine
 10
3.3018528027
 20
7.3659112402
 30
0.0
 11
3.3295611893
 21
7.3659112402
 31
0.0
  0
LINE
  5
AA
330
1F
100
AcDbEntity
  8
0
  6
Continuous
 62
     7
370
    15
100
AcDbLine
 10
3.3295611893
 20
7.4143077845
 30
0.0
 11
3.3018528027
 21
7.4143077845
 31
0.0
  0
ARC
  5
AB
330
1F
100
AcDbEntity
  8
0
  6
Continuous
 62
     7
370
    15
100
AcDbCircle
 10
3.3018528386
 20
7.3721612409
 30
0.0
 40
0.0062500000000005
100
AcDbArc
 50
225.0
 51
270.0
  0
ARC
  5
AC
330
1F
100
AcDbEntity
  8
0
  6
Continuous
 62
     7
370
    15
100
AcDbCircle
 10
3.3018528386
 20
7.4080577704
 30
0.0
 40
0.0062500000000005
100
AcDbArc
 50
90.0
 51
135.0
  0
ARC
  5
AD
330
1F
100
AcDbEntity
  8
0
  6
Continuous
 62
     7
370
    15
100
AcDbCircle
 10
3.3513838058
 20
7.4008326235
 30
0.0
 40
0.0125000000000002
100
AcDbArc
 50
58.0207766734
 51
120.5419479265
  0
ARC
  5
AE
330
1F
100
AcDbEntity
  8
0
  6
Continuous
 62
     7
370
    15
100
AcDbCircle
 10
3.3513838058
 20
7.3793863878
 30
0.0
 40
0.0125000000000002
100
AcDbArc
 50
239.4580520735
 51
301.9792233266
  0
LINE
  5
AF
330
1F
100
AcDbEntity
  8
0
  6
Continuous
 62
     7
370
    15
100
AcDbLine
 10
3.2974334205
 20
7.4124771856
 30
0.0
 11
3.297388981
 21
7.4124327828
 31
0.0
  0
LINE
  5
B0
330
1F
100
AcDbEntity
  8
0
  6
Continuous
 62
     7
370
    15
100
AcDbLine
 10
3.297388981
 20
7.3677862419
 30
0.0
 11
3.2974334205
 21
7.3677418391
 31
0.0
  0
ARC
  5
B1
330
1F
100
AcDbEntity
  8
0
  6
Continuous
 62
     7
370
    15
100
AcDbCircle
 10
3.3412204247
 20
7.3621612409
 30
0.0
 40
0.007499999999999
100
AcDbArc
 50
59.4580520735
 51
125.6590876961
  0
ARC
  5
B2
330
1F
100
AcDbEntity
  8
0
  6
Continuous
 62
     7
370
    15
100
AcDbCircle
 10
3.3412204247
 20
7.4180577704
 30
0.0
 40
0.0075000000000005
100
AcDbArc
 50
234.3409123039
 51
300.5419479265
  0
LINE
  5
B3
330
1F
100
AcDbEntity
  8
0
  6
Continuous
 62
     7
370
    15
100
AcDbLine
 10
3.379100217
 20
7.3696606569
 30
0.0
 11
3.3817640196
 21
7.3696606569
 31
0.0
  0
LINE
  5
B4
330
1F
100
AcDbEntity
  8
0
  6
Continuous
 62
     7
370
    15
100
AcDbLine
 10
3.3817640196
 20
7.4105583678
 30
0.0
 11
3.379100217
 21
7.4105583678
 31
0.0
  0
LINE
  5
B5
330
1F
100
AcDbEntity
  8
0
  6
Continuous
 62
     7
370
    15
100
AcDbLine
 10
2.9817911868
 20
7.376984519
 30
0.0
 11
3.297388981
 21
7.376984519
 31
0.0
  0
LINE
  5
B6
330
1F
100
AcDbEntity
  8
0
  6
Continuous
 62
     7
370
    15
100
AcDbLine
 10
3.297388981
 20
7.4032345057
 30
0.0
 11
2.9817911868
 21
7.4032345057
 31
0.0
  0
LINE
  5
B7
330
1F
100
AcDbEntity
  8
0
  6
Continuous
 62
     7
370
    15
100
AcDbLine
 10
3.4598890038
 20
7.355422018
 30
0.0
 11
3.5011389672
 21
7.355422018
 31
0.0
  0
LINE
  5
B8
330
1F
100
AcDbEntity
  8
0
  6
Continuous
 62
     7
370
    15
100
AcDbLine
 10
3.5011389672
 20
7.4247970066
 30
0.0
 11
3.4598890038
 21
7.4247970066
 31
0.0
  0
LINE
  5
B9
330
1F
100
AcDbEntity
  8
0
  6
Continuous
 62
     7
370
    15
100
AcDbLine
 10
3.5012639991
 20
7.4178260205
 30
0.0
 11
3.5011389672
 21
7.4176095063
 31
0.0
  0
LINE
  5
BA
330
1F
100
AcDbEntity
  8
0
  6
Continuous
 62
     7
370
    15
100
AcDbLine
 10
3.5011389672
 20
7.3626095183
 30
0.0
 11
3.5012639991
 21
7.3623930042
 31
0.0
  0
LINE
  5
BB
330
1F
100
AcDbEntity
  8
0
  6
Continuous
 62
     7
370
    15
100
AcDbLine
 10
2.9817911868
 20
7.393546991
 30
0.0
 11
2.9630412434
 21
7.393546991
 31
0.0
  0
LINE
  5
BC
330
1F
100
AcDbEntity
  8
0
  6
Continuous
 62
     7
370
    15
100
AcDbLine
 10
2.9630412434
 20
7.386671997
 30
0.0
 11
2.9817911868
 21
7.386671997
 31
0.0
  0
CIRCLE
  5
BD
330
1F
100
AcDbEntity
  8
0
  6
Continuous
 62
     7
370
    15
100
AcDbCircle
 10
4.1988577538
 20
7.3949790197
 30
0.0
 40
0.0468749999999991
  0
CIRCLE
  5
BE
330
1F
100
AcDbEntity
  8
0
  6
Continuous
 62
     7
370
    15
100
AcDbCircle
 10
4.1988577538
 20
8.0727290197
 30
0.0
 40
0.0468750000000008
  0
ARC
  5
BF
330
1F
100
AcDbEntity
  8
0
  6
Continuous
 62
     7
370
    15
100
AcDbCircle
 10
4.1988577538
 20
7.3949790197
 30
0.0
 40
0.1125
100
AcDbArc
 50
216.2686115432
 51
236.4010159096
  0
SPLINE
  5
C0
330
1F
100
AcDbEntity
  8
0
  6
Continuous
 62
     7
370
    15
100
AcDbSpline
210
0.0
220
0.0
230
1.0
 70
     8
 71
     3
 72
     9
 73
     5
 74
     0
 42
0.00000001
 43
0.00000001
 12
1.0
 22
0.0
 32
0.0
 13
1.0
 23
0.0
 33
0.0
 40
0.0
 40
0.0
 40
0.0
 40
0.0
 40
0.6590760959683881
 40
1.0
 40
1.0
 40
1.0
 40
1.0
 10
4.136602863797024
 20
7.301274263563635
 30
0.0
 10
4.135360838887825
 20
7.30048560556552
 30
0.0
 10
4.133476344947298
 20
7.299288994122714
 30
0.0
 10
4.132282951130227
 20
7.297524412043327
 30
0.0
 10
4.131876094651064
 20
7.296922823831839
 30
0.0
  0
ARC
  5
C1
330
1F
100
AcDbEntity
  8
0
  6
Continuous
 62
     7
370
    15
100
AcDbCircle
 10
4.1988577538
 20
7.3949790197
 30
0.0
 40
0.1187499999999998
100
AcDbArc
 50
217.0063956076
 51
235.6632318451
  0
SPLINE
  5
C2
330
1F
100
AcDbEntity
  8
0
  6
Continuous
 62
     7
370
    15
100
AcDbSpline
210
0.0
220
0.0
230
1.0
 70
     8
 71
     3
 72
     9
 73
     5
 74
     0
 42
0.00000001
 43
0.00000001
 12
1.0
 22
0.0
 32
0.0
 13
1.0
 23
0.0
 33
0.0
 40
0.0
 40
0.0
 40
0.0
 40
0.0
 40
0.8592213009264394
 40
1.0
 40
1.0
 40
1.0
 40
1.0
 10
4.10402776677399
 20
7.323502916776337
 30
0.0
 10
4.105426466020749
 20
7.324705871879674
 30
0.0
 10
4.107054334470065
 20
7.326105924580927
 30
0.0
 10
4.10801860238709
 20
7.328140767369637
 30
0.0
 10
4.108154350770007
 20
7.328427229890251
 30
0.0
  0
ARC
  5
C3
330
1F
100
AcDbEntity
  8
0
  6
Continuous
 62
     7
370
    15
100
AcDbCircle
 10
4.1988577538
 20
7.3949790197
 30
0.0
 40
0.1187500000000001
100
AcDbArc
 50
187.0063956076
 51
205.6632318451
  0
SPLINE
  5
C4
330
1F
100
AcDbEntity
  8
0
  6
Continuous
 62
     7
370
    15
100
AcDbSpline
210
0.0
220
0.0
230
1.0
 70
     8
 71
     3
 72
     9
 73
     5
 74
     0
 42
0.00000001
 43
0.00000001
 12
1.0
 22
0.0
 32
0.0
 13
1.0
 23
0.0
 33
0.0
 40
0.0
 40
0.0
 40
0.0
 40
0.0
 40
0.8592218559833186
 40
1.0
 40
1.0
 40
1.0
 40
1.0
 10
4.080994518689372
 20
7.38049388174518
 30
0.0
 10
4.08280730778606
 20
7.380836327855975
 30
0.0
 10
4.084917111073844
 20
7.381234881626938
 30
0.0
 10
4.086769605706246
 20
7.382514968115584
 30
0.0
 10
4.087030396462397
 20
7.382695176315637
 30
0.0
  0
ARC
  5
C5
330
1F
100
AcDbEntity
  8
0
  6
Continuous
 62
     7
370
    15
100
AcDbCircle
 10
4.1988577538
 20
7.3949790197
 30
0.0
 40
0.1124999999999996
100
AcDbArc
 50
186.2686115432
 51
206.4010159096
  0
SPLINE
  5
C6
330
1F
100
AcDbEntity
  8
0
  6
Continuous
 62
     7
370
    15
100
AcDbSpline
210
0.0
220
0.0
230
1.0
 70
     8
 71
     3
 72
     9
 73
     5
 74
     0
 42
0.00000001
 43
0.00000001
 12
1.0
 22
0.0
 32
0.0
 13
1.0
 23
0.0
 33
0.0
 40
0.0
 40
0.0
 40
0.0
 40
0.0
 40
0.6590768388755678
 40
1.0
 40
1.0
 40
1.0
 40
1.0
 10
4.098091071188538
 20
7.344955785617632
 30
0.0
 10
4.096621109452402
 20
7.344893792120292
 30
0.0
 10
4.094390775067347
 20
7.344799731012872
 30
0.0
 10
4.092474972558679
 20
7.343868258924762
 30
0.0
 10
4.091821831111335
 20
7.343550698515985
 30
0.0
  0
ARC
  5
C7
330
1F
100
AcDbEntity
  8
0
  6
Continuous
 62
     7
370
    15
100
AcDbCircle
 10
4.1988577538
 20
7.3949790197
 30
0.0
 40
0.1124999999999999
100
AcDbArc
 50
336.2686115432
 51
356.4010159096
  0
ARC
  5
C8
330
1F
100
AcDbEntity
  8
0
  6
Continuous
 62
     7
370
    15
100
AcDbCircle
 10
4.1988577538
 20
7.3949790197
 30
0.0
 40
0.1187500000000004
100
AcDbArc
 50
337.0063956076
 51
355.6632318451
  0
SPLINE
  5
C9
330
1F
100
AcDbEntity
  8
0
  6
Continuous
 62
     7
370
    15
100
AcDbSpline
210
0.0
220
0.0
230
1.0
 70
     8
 71
     3
 72
     9
 73
     5
 74
     0
 42
0.00000001
 43
0.00000001
 12
1.0
 22
0.0
 32
0.0
 13
1.0
 23
0.0
 33
0.0
 40
0.0
 40
0.0
 40
0.0
 40
0.0
 40
0.8592224610827769
 40
1.0
 40
1.0
 40
1.0
 40
1.0
 10
4.308172886805477
 20
7.348591903612887
 30
0.0
 10
4.306431734811732
 20
7.34920173350562
 30
0.0
 10
4.304405307346661
 20
7.349911479724272
 30
0.0
 10
4.302160961696161
 20
7.349729145939972
 30
0.0
 10
4.301845008239003
 20
7.349703477438558
 30
0.0
  0
SPLINE
  5
CA
330
1F
100
AcDbEntity
  8
0
  6
Continuous
 62
     7
370
    15
100
AcDbSpline
210
0.0
220
0.0
230
1.0
 70
     8
 71
     3
 72
     9
 73
     5
 74
     0
 42
0.00000001
 43
0.00000001
 12
1.0
 22
0.0
 32
0.0
 13
1.0
 23
0.0
 33
0.0
 40
0.0
 40
0.0
 40
0.0
 40
0.0
 40
0.6590765510874603
 40
0.9999999999999999
 40
0.9999999999999999
 40
0.9999999999999999
 40
0.9999999999999999
 10
4.311135885909992
 20
7.387917072658511
 30
0.0
 10
4.312439903138385
 20
7.387235775886984
 30
0.0
 10
4.314418455138513
 20
7.386202061714627
 30
0.0
 10
4.316543327818365
 20
7.386050864739973
 30
0.0
 10
4.317267746740879
 20
7.385999318145909
 30
0.0
  0
ARC
  5
CB
330
1F
100
AcDbEntity
  8
0
  6
Continuous
 62
     7
370
    15
100
AcDbCircle
 10
4.1988577538
 20
7.3949790197
 30
0.0
 40
0.1125000000000001
100
AcDbArc
 50
156.2686115432
 51
176.4010159096
  0
SPLINE
  5
CC
330
1F
100
AcDbEntity
  8
0
  6
Continuous
 62
     7
370
    15
100
AcDbSpline
210
0.0
220
0.0
230
1.0
 70
     8
 71
     3
 72
     9
 73
     5
 74
     0
 42
0.00000001
 43
0.00000001
 12
1.0
 22
0.0
 32
0.0
 13
1.0
 23
0.0
 33
0.0
 40
0.0
 40
0.0
 40
0.0
 40
0.0
 40
0.6590763261648701
 40
1.0
 40
1.0
 40
1.0
 40
1.0
 10
4.086579621669785
 20
7.402040946164986
 30
0.0
 10
4.085275603975807
 20
7.402722235161312
 30
0.0
 10
4.083297050594036
 20
7.403755937889326
 30
0.0
 10
4.081172179648184
 20
7.403907176515702
 30
0.0
 10
4.080447760838898
 20
7.403958737343832
 30
0.0
  0
ARC
  5
CD
330
1F
100
AcDbEntity
  8
0
  6
Continuous
 62
     7
370
    15
100
AcDbCircle
 10
4.1988577538
 20
7.3949790197
 30
0.0
 40
0.1187500000000004
100
AcDbArc
 50
157.0063956076
 51
175.6632318451
  0
SPLINE
  5
CE
330
1F
100
AcDbEntity
  8
0
  6
Continuous
 62
     7
370
    15
100
AcDbSpline
210
0.0
220
0.0
230
1.0
 70
     8
 71
     3
 72
     9
 73
     5
 74
     0
 42
0.00000001
 43
0.00000001
 12
1.0
 22
0.0
 32
0.0
 13
1.0
 23
0.0
 33
0.0
 40
0.0
 40
0.0
 40
0.0
 40
0.0
 40
0.8592224175334833
 40
0.9999999999999999
 40
0.9999999999999999
 40
0.9999999999999999
 40
0.9999999999999999
 10
4.0895426207743
 20
7.441366133543732
 30
0.0
 10
4.091283773067676
 20
7.440756312417206
 30
0.0
 10
4.09331020098418
 20
7.440046576365072
 30
0.0
 10
4.095554545890623
 20
7.440228909616802
 30
0.0
 10
4.095870499340774
 20
7.440254578051183
 30
0.0
  0
ARC
  5
CF
330
1F
100
AcDbEntity
  8
0
  6
Continuous
 62
     7
370
    15
100
AcDbCircle
 10
4.1988577538
 20
7.3949790197
 30
0.0
 40
0.1125
100
AcDbArc
 50
36.2686115432
 51
56.4010159096
  0
ARC
  5
D0
330
1F
100
AcDbEntity
  8
0
  6
Continuous
 62
     7
370
    15
100
AcDbCircle
 10
4.1988577538
 20
7.3949790197
 30
0.0
 40
0.1187500000000004
100
AcDbArc
 50
37.0063956076
 51
55.6632318451
  0
SPLINE
  5
D1
330
1F
100
AcDbEntity
  8
0
  6
Continuous
 62
     7
370
    15
100
AcDbSpline
210
0.0
220
0.0
230
1.0
 70
     8
 71
     3
 72
     9
 73
     5
 74
     0
 42
0.00000001
 43
0.00000001
 12
1.0
 22
0.0
 32
0.0
 13
1.0
 23
0.0
 33
0.0
 40
0.0
 40
0.0
 40
0.0
 40
0.0
 40
0.8592226258250232
 40
1.0
 40
1.0
 40
1.0
 40
1.0
 10
4.293687740805787
 20
7.466455138713403
 30
0.0
 10
4.292289045331855
 20
7.465252167197639
 30
0.0
 10
4.290661183783646
 20
7.463852097553745
 30
0.0
 10
4.289696905390001
 20
7.461817281640662
 30
0.0
 10
4.28956115680977
 20
7.461530825599489
 30
0.0
  0
SPLINE
  5
D2
330
1F
100
AcDbEntity
  8
0
  6
Continuous
 62
     7
370
    15
100
AcDbSpline
210
0.0
220
0.0
230
1.0
 70
     8
 71
     3
 72
     9
 73
     5
 74
     0
 42
0.00000001
 43
0.00000001
 12
1.0
 22
0.0
 32
0.0
 13
1.0
 23
0.0
 33
0.0
 40
0.0
 40
0.0
 40
0.0
 40
0.0
 40
0.6590767072504966
 40
1.0
 40
1.0
 40
1.0
 40
1.0
 10
4.261112643782754
 20
7.488683755259862
 30
0.0
 10
4.262354668033218
 20
7.48947242842693
 30
0.0
 10
4.26423915922643
 20
7.490669061775357
 30
0.0
 10
4.265432556127607
 20
7.492433644354643
 30
0.0
 10
4.265839412928713
 20
7.493035231657902
 30
0.0
  0
ARC
  5
D3
330
1F
100
AcDbEntity
  8
0
  6
Continuous
 62
     7
370
    15
100
AcDbCircle
 10
4.1988577538
 20
7.3949790197
 30
0.0
 40
0.1125
100
AcDbArc
 50
306.2686115432
 51
326.4010159096
  0
SPLINE
  5
D4
330
1F
100
AcDbEntity
  8
0
  6
Continuous
 62
     7
370
    15
100
AcDbSpline
210
0.0
220
0.0
230
1.0
 70
     8
 71
     3
 72
     9
 73
     5
 74
     0
 42
0.00000001
 43
0.00000001
 12
1.0
 22
0.0
 32
0.0
 13
1.0
 23
0.0
 33
0.0
 40
0.0
 40
0.0
 40
0.0
 40
0.0
 40
0.659075310580926
 40
1.0
 40
1.0
 40
1.0
 40
1.0
 10
4.292562499638001
 20
7.332724146918566
 30
0.0
 10
4.293351165203013
 20
7.331482126029407
 30
0.0
 10
4.294547789552839
 20
7.329597635942738
 30
0.0
 10
4.296312375838194
 20
7.328404219862654
 30
0.0
 10
4.296913966869481
 20
7.327997354856205
 30
0.0
  0
ARC
  5
D5
330
1F
100
AcDbEntity
  8
0
  6
Continuous
 62
     7
370
    15
100
AcDbCircle
 10
4.1988577538
 20
7.3949790197
 30
0.0
 40
0.1187500000000005
100
AcDbArc
 50
307.0063956076
 51
325.6632318451
  0
SPLINE
  5
D6
330
1F
100
AcDbEntity
  8
0
  6
Continuous
 62
     7
370
    15
100
AcDbSpline
210
0.0
220
0.0
230
1.0
 70
     8
 71
     3
 72
     9
 73
     5
 74
     0
 42
0.00000001
 43
0.00000001
 12
1.0
 22
0.0
 32
0.0
 13
1.0
 23
0.0
 33
0.0
 40
0.0
 40
0.0
 40
0.0
 40
0.0
 40
0.8592214188193654
 40
1.0
 40
1.0
 40
1.0
 40
1.0
 10
4.270333873924983
 20
7.30014901322929
 30
0.0
 10
4.269130905000358
 20
7.301547696116785
 30
0.0
 10
4.267730836405376
 20
7.303175545303106
 30
0.0
 10
4.265696015436713
 20
7.304139860616761
 30
0.0
 10
4.265409556227787
 20
7.304275615558428
 30
0.0
  0
ARC
  5
D7
330
1F
100
AcDbEntity
  8
0
  6
Continuous
 62
     7
370
    15
100
AcDbCircle
 10
4.1988577538
 20
7.3949790197
 30
0.0
 40
0.1187500000000005
100
AcDbArc
 50
277.0063956076
 51
295.6632318451
  0
SPLINE
  5
D8
330
1F
100
AcDbEntity
  8
0
  6
Continuous
 62
     7
370
    15
100
AcDbSpline
210
0.0
220
0.0
230
1.0
 70
     8
 71
     3
 72
     9
 73
     5
 74
     0
 42
0.00000001
 43
0.00000001
 12
1.0
 22
0.0
 32
0.0
 13
1.0
 23
0.0
 33
0.0
 40
0.0
 40
0.0
 40
0.0
 40
0.0
 40
0.8592214994676466
 40
1.0
 40
1.0
 40
1.0
 40
1.0
 10
4.213342895206299
 20
7.277115792644353
 30
0.0
 10
4.213000442559857
 20
7.278928575731584
 30
0.0
 10
4.21260188101705
 20
7.281038372900714
 30
0.0
 10
4.21132180947916
 20
7.282890885620964
 30
0.0
 10
4.211141602927482
 20
7.283151679583939
 30
0.0
  0
ARC
  5
D9
330
1F
100
AcDbEntity
  8
0
  6
Continuous
 62
     7
370
    15
100
AcDbCircle
 10
4.1988577538
 20
7.3949790197
 30
0.0
 40
0.1124999999999999
100
AcDbArc
 50
276.2686115432
 51
296.4010159096
  0
SPLINE
  5
DA
330
1F
100
AcDbEntity
  8
0
  6
Continuous
 62
     7
370
    15
100
AcDbSpline
210
0.0
220
0.0
230
1.0
 70
     8
 71
     3
 72
     9
 73
     5
 74
     0
 42
0.00000001
 43
0.00000001
 12
1.0
 22
0.0
 32
0.0
 13
1.0
 23
0.0
 33
0.0
 40
0.0
 40
0.0
 40
0.0
 40
0.0
 40
0.6590778840484949
 40
1.0
 40
1.0
 40
1.0
 40
1.0
 10
4.248880995917127
 20
7.29421234514352
 30
0.0
 10
4.248942989435206
 20
7.292742377351155
 30
0.0
 10
4.249037050424931
 20
7.29051203731405
 30
0.0
 10
4.249968530147389
 20
7.288596248879649
 30
0.0
 10
4.250286092185335
 20
7.287943114232877
 30
0.0
  0
ARC
  5
DB
330
1F
100
AcDbEntity
  8
0
  6
Continuous
 62
     7
370
    15
100
AcDbCircle
 10
4.1988577538
 20
7.3949790197
 30
0.0
 40
0.1187500000000008
100
AcDbArc
 50
97.0063956076
 51
115.6632318451
  0
SPLINE
  5
DC
330
1F
100
AcDbEntity
  8
0
  6
Continuous
 62
     7
370
    15
100
AcDbSpline
210
0.0
220
0.0
230
1.0
 70
     8
 71
     3
 72
     9
 73
     5
 74
     0
 42
0.00000001
 43
0.00000001
 12
1.0
 22
0.0
 32
0.0
 13
1.0
 23
0.0
 33
0.0
 40
0.0
 40
0.0
 40
0.0
 40
0.0
 40
0.8592227857200326
 40
1.0
 40
1.0
 40
1.0
 40
1.0
 10
4.184372612373478
 20
7.512842262845387
 30
0.0
 10
4.184715059832923
 20
7.511029462222209
 30
0.0
 10
4.18511361474224
 20
7.508919647802355
 30
0.0
 10
4.186393698085224
 20
7.507067163487188
 30
0.0
 10
4.186573904652295
 20
7.506806375905802
 30
0.0
  0
ARC
  5
DD
330
1F
100
AcDbEntity
  8
0
  6
Continuous
 62
     7
370
    15
100
AcDbCircle
 10
4.1988577538
 20
7.3949790197
 30
0.0
 40
0.1125000000000005
100
AcDbArc
 50
96.2686115432
 51
116.4010159096
  0
SPLINE
  5
DE
330
1F
100
AcDbEntity
  8
0
  6
Continuous
 62
     7
370
    15
100
AcDbSpline
210
0.0
220
0.0
230
1.0
 70
     8
 71
     3
 72
     9
 73
     5
 74
     0
 42
0.00000001
 43
0.00000001
 12
1.0
 22
0.0
 32
0.0
 13
1.0
 23
0.0
 33
0.0
 40
0.0
 40
0.0
 40
0.0
 40
0.0
 40
0.6590765115159628
 40
1.0
 40
1.0
 40
1.0
 40
1.0
 10
4.14883451166265
 20
7.49574571034622
 30
0.0
 10
4.148772516782524
 20
7.497215668614829
 30
0.0
 10
4.148678453530317
 20
7.499445998846483
 30
0.0
 10
4.147746977464306
 20
7.501361799734783
 30
0.0
 10
4.147429415394442
 20
7.502014941256864
 30
0.0
  0
ARC
  5
DF
330
1F
100
AcDbEntity
  8
0
  6
Continuous
 62
     7
370
    15
100
AcDbCircle
 10
4.1988577538
 20
7.3949790197
 30
0.0
 40
0.1125000000000002
100
AcDbArc
 50
126.2686115432
 51
146.4010159096
  0
SPLINE
  5
E0
330
1F
100
AcDbEntity
  8
0
  6
Continuous
 62
     7
370
    15
100
AcDbSpline
210
0.0
220
0.0
230
1.0
 70
     8
 71
     3
 72
     9
 73
     5
 74
     0
 42
0.00000001
 43
0.00000001
 12
1.0
 22
0.0
 32
0.0
 13
1.0
 23
0.0
 33
0.0
 40
0.0
 40
0.0
 40
0.0
 40
0.0
 40
0.6590758793323899
 40
1.0
 40
1.0
 40
1.0
 40
1.0
 10
4.105153007941776
 20
7.457233908571174
 30
0.0
 10
4.104364343382341
 20
7.458475932740544
 30
0.0
 10
4.103167721590881
 20
7.460360426177973
 30
0.0
 10
4.101403131899254
 20
7.461553824147162
 30
0.0
 10
4.100801540710297
 20
7.461960682300414
 30
0.0
  0
ARC
  5
E1
330
1F
100
AcDbEntity
  8
0
  6
Continuous
 62
     7
370
    15
100
AcDbCircle
 10
4.1988577538
 20
7.3949790197
 30
0.0
 40
0.1187500000000004
100
AcDbArc
 50
127.0063956076
 51
145.6632318451
  0
SPLINE
  5
E2
330
1F
100
AcDbEntity
  8
0
  6
Continuous
 62
     7
370
    15
100
AcDbSpline
210
0.0
220
0.0
230
1.0
 70
     8
 71
     3
 72
     9
 73
     5
 74
     0
 42
0.00000001
 43
0.00000001
 12
1.0
 22
0.0
 32
0.0
 13
1.0
 23
0.0
 33
0.0
 40
0.0
 40
0.0
 40
0.0
 40
0.0
 40
0.8592220012915809
 40
0.9999999999999999
 40
0.9999999999999999
 40
0.9999999999999999
 40
0.9999999999999999
 10
4.127381633654794
 20
7.489809005594207
 30
0.0
 10
4.128584598909527
 20
7.488410308341822
 30
0.0
 10
4.129984662284214
 20
7.486782443540545
 30
0.0
 10
4.132019492084932
 20
7.485818170085413
 30
0.0
 10
4.13230595135199
 20
7.485682421598191
 30
0.0
  0
ARC
  5
E3
330
1F
100
AcDbEntity
  8
0
  6
Continuous
 62
     7
370
    15
100
AcDbCircle
 10
4.1988577538
 20
7.3949790197
 30
0.0
 40
0.1125000000000001
100
AcDbArc
 50
66.2686115432
 51
86.4010159096
  0
SPLINE
  5
E4
330
1F
100
AcDbEntity
  8
0
  6
Continuous
 62
     7
370
    15
100
AcDbSpline
210
0.0
220
0.0
230
1.0
 70
     8
 71
     3
 72
     9
 73
     5
 74
     0
 42
0.00000001
 43
0.00000001
 12
1.0
 22
0.0
 32
0.0
 13
1.0
 23
0.0
 33
0.0
 40
0.0
 40
0.0
 40
0.0
 40
0.0
 40
0.6590764082779536
 40
1.0
 40
1.0
 40
1.0
 40
1.0
 10
4.205919696272226
 20
7.507257150698413
 30
0.0
 10
4.206600987888135
 20
7.508561168222418
 30
0.0
 10
4.207634694461988
 20
7.510539721099789
 30
0.0
 10
4.207785912467745
 20
7.512664592678678
 30
0.0
 10
4.207837466253401
 20
7.5133890115293
 30
0.0
  0
ARC
  5
E5
330
1F
100
AcDbEntity
  8
0
  6
Continuous
 62
     7
370
    15
100
AcDbCircle
 10
4.1988577538
 20
7.3949790197
 30
0.0
 40
0.1187499999999999
100
AcDbArc
 50
67.0063956076
 51
85.6632318451
  0
SPLINE
  5
E6
330
1F
100
AcDbEntity
  8
0
  6
Continuous
 62
     7
370
    15
100
AcDbSpline
210
0.0
220
0.0
230
1.0
 70
     8
 71
     3
 72
     9
 73
     5
 74
     0
 42
0.00000001
 43
0.00000001
 12
1.0
 22
0.0
 32
0.0
 13
1.0
 23
0.0
 33
0.0
 40
0.0
 40
0.0
 40
0.0
 40
0.0
 40
0.859221706081961
 40
0.9999999999999999
 40
0.9999999999999999
 40
0.9999999999999999
 40
0.9999999999999999
 10
4.245244873338592
 20
7.504294151593898
 30
0.0
 10
4.244635052336515
 20
7.502553006785568
 30
0.0
 10
4.243925315841544
 20
7.500526585902571
 30
0.0
 10
4.244107637205621
 20
7.49828222966894
 30
0.0
 10
4.244133304096201
 20
7.497966273027425
 30
0.0
  0
ARC
  5
E7
330
1F
100
AcDbEntity
  8
0
  6
Continuous
 62
     7
370
    15
100
AcDbCircle
 10
4.1988577538
 20
7.3949790197
 30
0.0
 40
0.1187500000000001
100
AcDbArc
 50
7.0063956076
 51
25.6632318451
  0
ARC
  5
E8
330
1F
100
AcDbEntity
  8
0
  6
Continuous
 62
     7
370
    15
100
AcDbCircle
 10
4.1988577538
 20
7.3949790197
 30
0.0
 40
0.1125000000000007
100
AcDbArc
 50
6.2686115432
 51
26.4010159096
  0
SPLINE
  5
E9
330
1F
100
AcDbEntity
  8
0
  6
Continuous
 62
     7
370
    15
100
AcDbSpline
210
0.0
220
0.0
230
1.0
 70
     8
 71
     3
 72
     9
 73
     5
 74
     0
 42
0.00000001
 43
0.00000001
 12
1.0
 22
0.0
 32
0.0
 13
1.0
 23
0.0
 33
0.0
 40
0.0
 40
0.0
 40
0.0
 40
0.0
 40
0.6590768388755678
 40
1.0
 40
1.0
 40
1.0
 40
1.0
 10
4.299624436391239
 20
7.445002269872108
 30
0.0
 10
4.301094398127376
 20
7.445064263369448
 30
0.0
 10
4.30332473251243
 20
7.445158324476869
 30
0.0
 10
4.305240535021098
 20
7.446089796564978
 30
0.0
 10
4.305893676468442
 20
7.446407356973756
 30
0.0
  0
SPLINE
  5
EA
330
1F
100
AcDbEntity
  8
0
  6
Continuous
 62
     7
370
    15
100
AcDbSpline
210
0.0
220
0.0
230
1.0
 70
     8
 71
     3
 72
     9
 73
     5
 74
     0
 42
0.00000001
 43
0.00000001
 12
1.0
 22
0.0
 32
0.0
 13
1.0
 23
0.0
 33
0.0
 40
0.0
 40
0.0
 40
0.0
 40
0.0
 40
0.8592218559833186
 40
1.0
 40
1.0
 40
1.0
 40
1.0
 10
4.316720988890406
 20
7.409464173744561
 30
0.0
 10
4.314908199793717
 20
7.409121727633766
 30
0.0
 10
4.312798396505934
 20
7.408723173862803
 30
0.0
 10
4.310945901873532
 20
7.407443087374156
 30
0.0
 10
4.310685111117381
 20
7.407262879174104
 30
0.0
  0
ARC
  5
EB
330
1F
100
AcDbEntity
  8
0
  6
Continuous
 62
     7
370
    15
100
AcDbCircle
 10
4.1988577538
 20
7.3949790197
 30
0.0
 40
0.1124999999999999
100
AcDbArc
 50
246.2686115432
 51
266.4010159096
  0
SPLINE
  5
EC
330
1F
100
AcDbEntity
  8
0
  6
Continuous
 62
     7
370
    15
100
AcDbSpline
210
0.0
220
0.0
230
1.0
 70
     8
 71
     3
 72
     9
 73
     5
 74
     0
 42
0.00000001
 43
0.00000001
 12
1.0
 22
0.0
 32
0.0
 13
1.0
 23
0.0
 33
0.0
 40
0.0
 40
0.0
 40
0.0
 40
0.0
 40
0.659078281137048
 40
1.0
 40
1.0
 40
1.0
 40
1.0
 10
4.191795811307551
 20
7.282700904791327
 30
0.0
 10
4.191114519783848
 20
7.281396871001224
 30
0.0
 10
4.190080816287309
 20
7.279418299066105
 30
0.0
 10
4.189929595706659
 20
7.277293437190349
 30
0.0
 10
4.189878041326376
 20
7.276569025627319
 30
0.0
  0
ARC
  5
ED
330
1F
100
AcDbEntity
  8
0
  6
Continuous
 62
     7
370
    15
100
AcDbCircle
 10
4.1988577538
 20
7.3949790197
 30
0.0
 40
0.1187500000000004
100
AcDbArc
 50
247.0063956076
 51
265.6632318451
  0
SPLINE
  5
EE
330
1F
100
AcDbEntity
  8
0
  6
Continuous
 62
     7
370
    15
100
AcDbSpline
210
0.0
220
0.0
230
1.0
 70
     8
 71
     3
 72
     9
 73
     5
 74
     0
 42
0.00000001
 43
0.00000001
 12
1.0
 22
0.0
 32
0.0
 13
1.0
 23
0.0
 33
0.0
 40
0.0
 40
0.0
 40
0.0
 40
0.0
 40
0.8592230133677314
 40
1.0
 40
1.0
 40
1.0
 40
1.0
 10
4.152470634241185
 20
7.285663903895842
 30
0.0
 10
4.153080456137626
 20
7.287405055733382
 30
0.0
 10
4.153790192593649
 20
7.289431481714124
 30
0.0
 10
4.153607870270784
 20
7.291675813818534
 30
0.0
 10
4.153582203483576
 20
7.291991764129194
 30
0.0
  0
ARC
  5
EF
330
1F
100
AcDbEntity
  8
0
  6
Continuous
 62
     7
370
    15
100
AcDbCircle
 10
4.2606122897
 20
7.2935495378
 30
0.0
 40
0.01175
100
AcDbArc
 50
65.9032929264
 51
176.7663345264
  0
ARC
  5
F0
330
1F
100
AcDbEntity
  8
0
  6
Continuous
 62
     7
370
    15
100
AcDbCircle
 10
4.2016240098
 20
7.2762612437
 30
0.0
 40
0.0117500000000001
100
AcDbArc
 50
35.9032929264
 51
146.7663345264
  0
ARC
  5
F1
330
1F
100
AcDbEntity
  8
0
  6
Continuous
 62
     7
370
    15
100
AcDbCircle
 10
4.0974282719
 20
7.3332244838
 30
0.0
 40
0.01175
100
AcDbArc
 50
335.9032929264
 51
86.7663345264
  0
ARC
  5
F2
330
1F
100
AcDbEntity
  8
0
  6
Continuous
 62
     7
370
    15
100
AcDbCircle
 10
4.0801399778
 20
7.3922127637
 30
0.0
 40
0.0117500000000001
100
AcDbArc
 50
305.9032929264
 51
56.7663345264
  0
ARC
  5
F3
330
1F
100
AcDbEntity
  8
0
  6
Continuous
 62
     7
370
    15
100
AcDbCircle
 10
4.1371032179
 20
7.4964085016
 30
0.0
 40
0.01175
100
AcDbArc
 50
245.9032929264
 51
356.7663345264
  0
ARC
  5
F4
330
1F
100
AcDbEntity
  8
0
  6
Continuous
 62
     7
370
    15
100
AcDbCircle
 10
4.1960914978
 20
7.5136967957
 30
0.0
 40
0.0117500000000001
100
AcDbArc
 50
215.9032929264
 51
326.7663345264
  0
ARC
  5
F5
330
1F
100
AcDbEntity
  8
0
  6
Continuous
 62
     7
370
    15
100
AcDbCircle
 10
4.3030534916
 20
7.3380157797
 30
0.0
 40
0.0117500000000005
100
AcDbArc
 50
95.9032929264
 51
206.7663345264
  0
ARC
  5
F6
330
1F
100
AcDbEntity
  8
0
  6
Continuous
 62
     7
370
    15
100
AcDbCircle
 10
4.3002872357
 20
7.4567335556
 30
0.0
 40
0.0117500000000008
100
AcDbArc
 50
155.9032929264
 51
266.7663345264
  0
ARC
  5
F7
330
1F
100
AcDbEntity
  8
0
  6
Continuous
 62
     7
370
    15
100
AcDbCircle
 10
4.0946620159
 20
7.4519422597
 30
0.0
 40
0.0117500000000012
100
AcDbArc
 50
275.9032929264
 51
26.7663345264
  0
ARC
  5
F8
330
1F
100
AcDbEntity
  8
0
  6
Continuous
 62
     7
370
    15
100
AcDbCircle
 10
4.1418945138
 20
7.2907832819
 30
0.0
 40
0.0117500000000006
100
AcDbArc
 50
5.9032929264
 51
116.7663345264
  0
ARC
  5
F9
330
1F
100
AcDbEntity
  8
0
  6
Continuous
 62
     7
370
    15
100
AcDbCircle
 10
4.2558209938
 20
7.4991747575
 30
0.0
 40
0.01175
100
AcDbArc
 50
185.9032929264
 51
296.7663345264
  0
ARC
  5
FA
330
1F
100
AcDbEntity
  8
0
  6
Continuous
 62
     7
370
    15
100
AcDbCircle
 10
4.3175755297
 20
7.3977452757
 30
0.0
 40
0.0117500000000006
100
AcDbArc
 50
125.9032929264
 51
236.7663345264
  0
CIRCLE
  5
FB
330
1F
100
AcDbEntity
  8
0
  6
Continuous
 62
     7
370
    15
100
AcDbCircle
 10
4.1988577538
 20
7.3949790197
 30
0.0
 40
0.0656249999999998
  0
ARC
  5
FC
330
1F
100
AcDbEntity
  8
0
  6
Continuous
 62
     7
370
    15
100
AcDbCircle
 10
4.1988577538
 20
7.3949790197
 30
0.0
 40
0.1187500000000004
100
AcDbArc
 50
25.6632318451
 51
37.0063956076
  0
ARC
  5
FD
330
1F
100
AcDbEntity
  8
0
  6
Continuous
 62
     7
370
    15
100
AcDbCircle
 10
4.1988577538
 20
7.3949790197
 30
0.0
 40
0.1187500000000003
100
AcDbArc
 50
145.6632318451
 51
157.0063956076
  0
ARC
  5
FE
330
1F
100
AcDbEntity
  8
0
  6
Continuous
 62
     7
370
    15
100
AcDbCircle
 10
4.1988577538
 20
7.3949790197
 30
0.0
 40
0.1187499999999999
100
AcDbArc
 50
55.6632318451
 51
67.0063956076
  0
ARC
  5
FF
330
1F
100
AcDbEntity
  8
0
  6
Continuous
 62
     7
370
    15
100
AcDbCircle
 10
4.1988577538
 20
7.3949790197
 30
0.0
 40
0.1187500000000003
100
AcDbArc
 50
295.6632318451
 51
307.0063956076
  0
ARC
  5
100
330
1F
100
AcDbEntity
  8
0
  6
Continuous
 62
     7
370
    15
100
AcDbCircle
 10
4.1988577538
 20
7.3949790197
 30
0.0
 40
0.1187500000000004
100
AcDbArc
 50
235.6632318451
 51
247.0063956076
  0
ARC
  5
101
330
1F
100
AcDbEntity
  8
0
  6
Continuous
 62
     7
370
    15
100
AcDbCircle
 10
4.1988577538
 20
7.3949790197
 30
0.0
 40
0.11875
100
AcDbArc
 50
265.6632318451
 51
277.0063956076
  0
ARC
  5
102
330
1F
100
AcDbEntity
  8
0
  6
Continuous
 62
     7
370
    15
100
AcDbCircle
 10
4.1988577538
 20
7.3949790197
 30
0.0
 40
0.1187500000000001
100
AcDbArc
 50
205.6632318451
 51
217.0063956076
  0
ARC
  5
103
330
1F
100
AcDbEntity
  8
0
  6
Continuous
 62
     7
370
    15
100
AcDbCircle
 10
4.1988577538
 20
7.3949790197
 30
0.0
 40
0.1187500000000004
100
AcDbArc
 50
175.6632318451
 51
187.0063956076
  0
ARC
  5
104
330
1F
100
AcDbEntity
  8
0
  6
Continuous
 62
     7
370
    15
100
AcDbCircle
 10
4.1988577538
 20
7.3949790197
 30
0.0
 40
0.1187500000000008
100
AcDbArc
 50
85.6632318451
 51
97.0063956076
  0
ARC
  5
105
330
1F
100
AcDbEntity
  8
0
  6
Continuous
 62
     7
370
    15
100
AcDbCircle
 10
4.1988577538
 20
7.3949790197
 30
0.0
 40
0.1187500000000004
100
AcDbArc
 50
115.6632318451
 51
127.0063956076
  0
ARC
  5
106
330
1F
100
AcDbEntity
  8
0
  6
Continuous
 62
     7
370
    15
100
AcDbCircle
 10
4.1988577538
 20
7.3949790197
 30
0.0
 40
0.1187500000000004
100
AcDbArc
 50
355.6632318451
 51
7.0063956076
  0
ARC
  5
107
330
1F
100
AcDbEntity
  8
0
  6
Continuous
 62
     7
370
    15
100
AcDbCircle
 10
4.1988577538
 20
7.3949790197
 30
0.0
 40
0.1187500000000005
100
AcDbArc
 50
325.6632318451
 51
337.0063956076
  0
ARC
  5
108
330
1F
100
AcDbEntity
  8
0
  6
Continuous
 62
     7
370
    15
100
AcDbCircle
 10
4.1988577538
 20
8.0727290197
 30
0.0
 40
0.1124999999999999
100
AcDbArc
 50
250.7915378048
 51
270.9239421713
  0
SPLINE
  5
109
330
1F
100
AcDbEntity
  8
0
  6
Continuous
 62
     7
370
    15
100
AcDbSpline
210
0.0
220
0.0
230
1.0
 70
     8
 71
     3
 72
     9
 73
     5
 74
     0
 42
0.00000001
 43
0.00000001
 12
1.0
 22
0.0
 32
0.0
 13
1.0
 23
0.0
 33
0.0
 40
0.0
 40
0.0
 40
0.0
 40
0.0
 40
0.6590769075251482
 40
1.0
 40
1.0
 40
1.0
 40
1.0
 10
4.200671831349135
 20
7.960243651093038
 30
0.0
 10
4.200095493833725
 20
7.958889963915951
 30
0.0
 10
4.199221032130047
 20
7.95683605008339
 30
0.0
 10
4.199237847601641
 20
7.954705872016219
 30
0.0
 10
4.199243580384219
 20
7.953979645122037
 30
0.0
  0
ARC
  5
10A
330
1F
100
AcDbEntity
  8
0
  6
Continuous
 62
     7
370
    15
100
AcDbCircle
 10
4.1988577538
 20
8.0727290197
 30
0.0
 40
0.1187500000000009
100
AcDbArc
 50
251.5293218693
 51
270.1861581068
  0
SPLINE
  5
10B
330
1F
100
AcDbEntity
  8
0
  6
Continuous
 62
     7
370
    15
100
AcDbSpline
210
0.0
220
0.0
230
1.0
 70
     8
 71
     3
 72
     9
 73
     5
 74
     0
 42
0.00000001
 43
0.00000001
 12
1.0
 22
0.0
 32
0.0
 13
1.0
 23
0.0
 33
0.0
 40
0.0
 40
0.0
 40
0.0
 40
0.0
 40
0.8592224427880233
 40
0.9999999999999999
 40
0.9999999999999999
 40
0.9999999999999999
 40
0.9999999999999999
 10
4.161235461322488
 20
7.960096326128283
 30
0.0
 10
4.16170608404701
 20
7.961880143220179
 30
0.0
 10
4.162253814996628
 20
7.963956226202959
 30
0.0
 10
4.161895068930862
 20
7.966179202123392
 30
0.0
 10
4.161844565536065
 20
7.966492147243211
 30
0.0
  0
ARC
  5
10C
330
1F
100
AcDbEntity
  8
0
  6
Continuous
 62
     7
370
    15
100
AcDbCircle
 10
4.1988577538
 20
8.0727290197
 30
0.0
 40
0.1187499999999995
100
AcDbArc
 50
101.5293218693
 51
120.1861581068
  0
SPLINE
  5
10D
330
1F
100
AcDbEntity
  8
0
  6
Continuous
 62
     7
370
    15
100
AcDbSpline
210
0.0
220
0.0
230
1.0
 70
     8
 71
     3
 72
     9
 73
     5
 74
     0
 42
0.00000001
 43
0.00000001
 12
1.0
 22
0.0
 32
0.0
 13
1.0
 23
0.0
 33
0.0
 40
0.0
 40
0.0
 40
0.0
 40
0.0
 40
0.8592214562015292
 40
1.0
 40
1.0
 40
1.0
 40
1.0
 10
4.175123263806076
 20
8.189082954188548
 30
0.0
 10
4.175607602762194
 20
8.1873028229764
 30
0.0
 10
4.176171297898788
 20
8.18523102739995
 30
0.0
 10
4.177593466871833
 20
8.183485226355309
 30
0.0
 10
4.177793677748893
 20
8.183239455026483
 30
0.0
  0
ARC
  5
10E
330
1F
100
AcDbEntity
  8
0
  6
Continuous
 62
     7
370
    15
100
AcDbCircle
 10
4.1988577538
 20
8.0727290197
 30
0.0
 40
0.1124999999999994
100
AcDbArc
 50
100.7915378048
 51
120.9239421713
  0
SPLINE
  5
10F
330
1F
100
AcDbEntity
  8
0
  6
Continuous
 62
     7
370
    15
100
AcDbSpline
210
0.0
220
0.0
230
1.0
 70
     8
 71
     3
 72
     9
 73
     5
 74
     0
 42
0.00000001
 43
0.00000001
 12
1.0
 22
0.0
 32
0.0
 13
1.0
 23
0.0
 33
0.0
 40
0.0
 40
0.0
 40
0.0
 40
0.0
 40
0.6590751942161329
 40
1.0
 40
1.0
 40
1.0
 40
1.0
 10
4.141044030408954
 20
8.16923716678211
 30
0.0
 10
4.140866309686986
 20
8.170697652124646
 30
0.0
 10
4.14059665802428
 20
8.172913613755963
 30
0.0
 10
4.139517009883884
 20
8.174750012111941
 30
0.0
 10
4.139148931051304
 20
8.175376085864794
 30
0.0
  0
ARC
  5
110
330
1F
100
AcDbEntity
  8
0
  6
Continuous
 62
     7
370
    15
100
AcDbCircle
 10
4.1988577538
 20
8.0727290197
 30
0.0
 40
0.1124999999999992
100
AcDbArc
 50
130.7915378048
 51
150.9239421713
  0
SPLINE
  5
111
330
1F
100
AcDbEntity
  8
0
  6
Continuous
 62
     7
370
    15
100
AcDbSpline
210
0.0
220
0.0
230
1.0
 70
     8
 71
     3
 72
     9
 73
     5
 74
     0
 42
0.00000001
 43
0.00000001
 12
1.0
 22
0.0
 32
0.0
 13
1.0
 23
0.0
 33
0.0
 40
0.0
 40
0.0
 40
0.0
 40
0.0
 40
0.6590757794350063
 40
0.9999999999999999
 40
0.9999999999999999
 40
0.9999999999999999
 40
0.9999999999999999
 10
4.100535527116642
 20
8.127400653414417
 30
0.0
 10
4.099651371366968
 20
8.128576614993662
 30
0.0
 10
4.098309862883024
 20
8.130360873520432
 30
0.0
 10
4.096456667420021
 20
8.131411424627
 30
0.0
 10
4.095824868201242
 20
8.13176958294417
 30
0.0
  0
ARC
  5
112
330
1F
100
AcDbEntity
  8
0
  6
Continuous
 62
     7
370
    15
100
AcDbCircle
 10
4.1988577538
 20
8.0727290197
 30
0.0
 40
0.1187500000000002
100
AcDbArc
 50
131.5293218693
 51
150.1861581068
  0
SPLINE
  5
113
330
1F
100
AcDbEntity
  8
0
  6
Continuous
 62
     7
370
    15
100
AcDbSpline
210
0.0
220
0.0
230
1.0
 70
     8
 71
     3
 72
     9
 73
     5
 74
     0
 42
0.00000001
 43
0.00000001
 12
1.0
 22
0.0
 32
0.0
 13
1.0
 23
0.0
 33
0.0
 40
0.0
 40
0.0
 40
0.0
 40
0.0
 40
0.8592229100342591
 40
0.9999999999999999
 40
0.9999999999999999
 40
0.9999999999999999
 40
0.9999999999999999
 10
4.120126117471137
 20
8.161627234692697
 30
0.0
 10
4.121435633183998
 20
8.160327734859044
 30
0.0
 10
4.122959703012174
 20
8.158815321935137
 30
0.0
 10
4.125064241601325
 20
8.15801456291949
 30
0.0
 10
4.125360512419626
 20
8.157901834395505
 30
0.0
  0
ARC
  5
114
330
1F
100
AcDbEntity
  8
0
  6
Continuous
 62
     7
370
    15
100
AcDbCircle
 10
4.1988577538
 20
8.0727290197
 30
0.0
 40
0.1187500000000007
100
AcDbArc
 50
191.5293218693
 51
210.1861581068
  0
ARC
  5
115
330
1F
100
AcDbEntity
  8
0
  6
Continuous
 62
     7
370
    15
100
AcDbCircle
 10
4.1988577538
 20
8.0727290197
 30
0.0
 40
0.1125000000000001
100
AcDbArc
 50
190.7915378048
 51
210.9239421713
  0
SPLINE
  5
116
330
1F
100
AcDbEntity
  8
0
  6
Continuous
 62
     7
370
    15
100
AcDbSpline
210
0.0
220
0.0
230
1.0
 70
     8
 71
     3
 72
     9
 73
     5
 74
     0
 42
0.00000001
 43
0.00000001
 12
1.0
 22
0.0
 32
0.0
 13
1.0
 23
0.0
 33
0.0
 40
0.0
 40
0.0
 40
0.0
 40
0.0
 40
0.6590765279707145
 40
1.0
 40
1.0
 40
1.0
 40
1.0
 10
4.102349598660332
 20
8.014915292854901
 30
0.0
 10
4.100889107674128
 20
8.014737569665714
 30
0.0
 10
4.098673141964195
 20
8.014467914805246
 30
0.0
 10
4.096836755868082
 20
8.013388273233662
 30
0.0
 10
4.09621068874421
 20
8.01302019808053
 30
0.0
  0
SPLINE
  5
117
330
1F
100
AcDbEntity
  8
0
  6
Continuous
 62
     7
370
    15
100
AcDbSpline
210
0.0
220
0.0
230
1.0
 70
     8
 71
     3
 72
     9
 73
     5
 74
     0
 42
0.00000001
 43
0.00000001
 12
1.0
 22
0.0
 32
0.0
 13
1.0
 23
0.0
 33
0.0
 40
0.0
 40
0.0
 40
0.0
 40
0.0
 40
0.8592222837860215
 40
0.9999999999999999
 40
0.9999999999999999
 40
0.9999999999999999
 40
0.9999999999999999
 10
4.082503829587017
 20
8.048994512502182
 30
0.0
 10
4.084283968808759
 20
8.049478862872395
 30
0.0
 10
4.086355771711609
 20
8.050042570750268
 30
0.0
 10
4.088101560579298
 20
8.051464741677798
 30
0.0
 10
4.088347328749082
 20
8.05166495165304
 30
0.0
  0
ARC
  5
118
330
1F
100
AcDbEntity
  8
0
  6
Continuous
 62
     7
370
    15
100
AcDbCircle
 10
4.1988577538
 20
8.0727290197
 30
0.0
 40
0.1187500000000007
100
AcDbArc
 50
11.5293218693
 51
30.1861581068
  0
SPLINE
  5
119
330
1F
100
AcDbEntity
  8
0
  6
Continuous
 62
     7
370
    15
100
AcDbSpline
210
0.0
220
0.0
230
1.0
 70
     8
 71
     3
 72
     9
 73
     5
 74
     0
 42
0.00000001
 43
0.00000001
 12
1.0
 22
0.0
 32
0.0
 13
1.0
 23
0.0
 33
0.0
 40
0.0
 40
0.0
 40
0.0
 40
0.0
 40
0.8592221285554209
 40
1.0
 40
1.0
 40
1.0
 40
1.0
 10
4.31521167799276
 20
8.096463510802929
 30
0.0
 10
4.313431537951257
 20
8.095979177212747
 30
0.0
 10
4.311359733720032
 20
8.095415488762363
 30
0.0
 10
4.309613946972946
 20
8.093993318430469
 30
0.0
 10
4.309368178830695
 20
8.093793108318312
 30
0.0
  0
ARC
  5
11A
330
1F
100
AcDbEntity
  8
0
  6
Continuous
 62
     7
370
    15
100
AcDbCircle
 10
4.1988577538
 20
8.0727290197
 30
0.0
 40
0.1124999999999994
100
AcDbArc
 50
10.7915378048
 51
30.9239421713
  0
SPLINE
  5
11B
330
1F
100
AcDbEntity
  8
0
  6
Continuous
 62
     7
370
    15
100
AcDbSpline
210
0.0
220
0.0
230
1.0
 70
     8
 71
     3
 72
     9
 73
     5
 74
     0
 42
0.00000001
 43
0.00000001
 12
1.0
 22
0.0
 32
0.0
 13
1.0
 23
0.0
 33
0.0
 40
0.0
 40
0.0
 40
0.0
 40
0.0
 40
0.6590765279707145
 40
1.0
 40
1.0
 40
1.0
 40
1.0
 10
4.295365908919445
 20
8.130542730450209
 30
0.0
 10
4.29682639990565
 20
8.130720453639395
 30
0.0
 10
4.299042365615582
 20
8.130990108499862
 30
0.0
 10
4.300878751711695
 20
8.132069750071446
 30
0.0
 10
4.301504818835567
 20
8.132437825224578
 30
0.0
  0
ARC
  5
11C
330
1F
100
AcDbEntity
  8
0
  6
Continuous
 62
     7
370
    15
100
AcDbCircle
 10
4.1988577538
 20
8.0727290197
 30
0.0
 40
0.1125
100
AcDbArc
 50
310.7915378048
 51
330.9239421713
  0
ARC
  5
11D
330
1F
100
AcDbEntity
  8
0
  6
Continuous
 62
     7
370
    15
100
AcDbCircle
 10
4.1988577538
 20
8.0727290197
 30
0.0
 40
0.1187500000000003
100
AcDbArc
 50
311.5293218693
 51
330.1861581068
  0
SPLINE
  5
11E
330
1F
100
AcDbEntity
  8
0
  6
Continuous
 62
     7
370
    15
100
AcDbSpline
210
0.0
220
0.0
230
1.0
 70
     8
 71
     3
 72
     9
 73
     5
 74
     0
 42
0.00000001
 43
0.00000001
 12
1.0
 22
0.0
 32
0.0
 13
1.0
 23
0.0
 33
0.0
 40
0.0
 40
0.0
 40
0.0
 40
0.0
 40
0.8592224219207726
 40
0.9999999999999999
 40
0.9999999999999999
 40
0.9999999999999999
 40
0.9999999999999999
 10
4.27758939010864
 20
7.983830806945535
 30
0.0
 10
4.276279871220333
 20
7.985130291898533
 30
0.0
 10
4.274755796830631
 20
7.986642688362876
 30
0.0
 10
4.272651265924157
 20
7.987443490579299
 30
0.0
 10
4.272354995160152
 20
7.987556225575847
 30
0.0
  0
SPLINE
  5
11F
330
1F
100
AcDbEntity
  8
0
  6
Continuous
 62
     7
370
    15
100
AcDbSpline
210
0.0
220
0.0
230
1.0
 70
     8
 71
     3
 72
     9
 73
     5
 74
     0
 42
0.00000001
 43
0.00000001
 12
1.0
 22
0.0
 32
0.0
 13
1.0
 23
0.0
 33
0.0
 40
0.0
 40
0.0
 40
0.0
 40
0.0
 40
0.6590767935001918
 40
0.9999999999999999
 40
0.9999999999999999
 40
0.9999999999999999
 40
0.9999999999999999
 10
4.297179980463136
 20
8.018057369890693
 30
0.0
 10
4.298064134339308
 20
8.01688140147318
 30
0.0
 10
4.299405637916571
 20
8.015097135316172
 30
0.0
 10
4.301258839837397
 20
8.014046621549118
 30
0.0
 10
4.301890639378535
 20
8.013688477027182
 30
0.0
  0
ARC
  5
120
330
1F
100
AcDbEntity
  8
0
  6
Continuous
 62
     7
370
    15
100
AcDbCircle
 10
4.1988577538
 20
8.0727290197
 30
0.0
 40
0.1125000000000008
100
AcDbArc
 50
220.7915378048
 51
240.9239421713
  0
ARC
  5
121
330
1F
100
AcDbEntity
  8
0
  6
Continuous
 62
     7
370
    15
100
AcDbCircle
 10
4.1988577538
 20
8.0727290197
 30
0.0
 40
0.1187500000000002
100
AcDbArc
 50
221.5293218693
 51
240.1861581068
  0
SPLINE
  5
122
330
1F
100
AcDbEntity
  8
0
  6
Continuous
 62
     7
370
    15
100
AcDbSpline
210
0.0
220
0.0
230
1.0
 70
     8
 71
     3
 72
     9
 73
     5
 74
     0
 42
0.00000001
 43
0.00000001
 12
1.0
 22
0.0
 32
0.0
 13
1.0
 23
0.0
 33
0.0
 40
0.0
 40
0.0
 40
0.0
 40
0.0
 40
0.8592218112477149
 40
1.0
 40
1.0
 40
1.0
 40
1.0
 10
4.109959539916308
 20
7.993997384500363
 30
0.0
 10
4.111259013919427
 20
7.995306903355497
 30
0.0
 10
4.112771398714724
 20
7.996830978789794
 30
0.0
 10
4.113572220330095
 20
7.998935511700759
 30
0.0
 10
4.113684958546621
 20
7.999231784032133
 30
0.0
  0
SPLINE
  5
123
330
1F
100
AcDbEntity
  8
0
  6
Continuous
 62
     7
370
    15
100
AcDbSpline
210
0.0
220
0.0
230
1.0
 70
     8
 71
     3
 72
     9
 73
     5
 74
     0
 42
0.00000001
 43
0.00000001
 12
1.0
 22
0.0
 32
0.0
 13
1.0
 23
0.0
 33
0.0
 40
0.0
 40
0.0
 40
0.0
 40
0.0
 40
0.6590768888514856
 40
0.9999999999999999
 40
0.9999999999999999
 40
0.9999999999999999
 40
0.9999999999999999
 10
4.144186102861465
 20
7.974406794145868
 30
0.0
 10
4.143010139484168
 20
7.973522634436855
 30
0.0
 10
4.14122588123268
 20
7.972181122203655
 30
0.0
 10
4.140175350900573
 20
7.970327930956128
 30
0.0
 10
4.139817200831395
 20
7.969696135230468
 30
0.0
  0
ARC
  5
124
330
1F
100
AcDbEntity
  8
0
  6
Continuous
 62
     7
370
    15
100
AcDbCircle
 10
4.1988577538
 20
8.0727290197
 30
0.0
 40
0.1124999999999999
100
AcDbArc
 50
160.7915378048
 51
180.9239421713
  0
ARC
  5
125
330
1F
100
AcDbEntity
  8
0
  6
Continuous
 62
     7
370
    15
100
AcDbCircle
 10
4.1988577538
 20
8.0727290197
 30
0.0
 40
0.11875
100
AcDbArc
 50
161.5293218693
 51
180.1861581068
  0
SPLINE
  5
126
330
1F
100
AcDbEntity
  8
0
  6
Continuous
 62
     7
370
    15
100
AcDbSpline
210
0.0
220
0.0
230
1.0
 70
     8
 71
     3
 72
     9
 73
     5
 74
     0
 42
0.00000001
 43
0.00000001
 12
1.0
 22
0.0
 32
0.0
 13
1.0
 23
0.0
 33
0.0
 40
0.0
 40
0.0
 40
0.0
 40
0.0
 40
0.8592219017848598
 40
0.9999999999999999
 40
0.9999999999999999
 40
0.9999999999999999
 40
0.9999999999999999
 10
4.086225049932495
 20
8.110351327036357
 30
0.0
 10
4.088008862694033
 20
8.109880698970638
 30
0.0
 10
4.090084941944147
 20
8.109332961459828
 30
0.0
 10
4.092307931913717
 20
8.10969168966528
 30
0.0
 10
4.092620880213985
 20
8.109742190739818
 30
0.0
  0
SPLINE
  5
127
330
1F
100
AcDbEntity
  8
0
  6
Continuous
 62
     7
370
    15
100
AcDbSpline
210
0.0
220
0.0
230
1.0
 70
     8
 71
     3
 72
     9
 73
     5
 74
     0
 42
0.00000001
 43
0.00000001
 12
1.0
 22
0.0
 32
0.0
 13
1.0
 23
0.0
 33
0.0
 40
0.0
 40
0.0
 40
0.0
 40
0.0
 40
0.6590759663258015
 40
1.0
 40
1.0
 40
1.0
 40
1.0
 10
4.086372384063812
 20
8.070914949275425
 30
0.0
 10
4.08501870094987
 20
8.07149127186622
 30
0.0
 10
4.082964790349111
 20
8.072365712173928
 30
0.0
 10
4.08083460833688
 20
8.072348930663077
 30
0.0
 10
4.08010837809281
 20
8.072343209442709
 30
0.0
  0
ARC
  5
128
330
1F
100
AcDbEntity
  8
0
  6
Continuous
 62
     7
370
    15
100
AcDbCircle
 10
4.1988577538
 20
8.0727290197
 30
0.0
 40
0.1124999999999999
100
AcDbArc
 50
70.7915378048
 51
90.9239421713
  0
SPLINE
  5
129
330
1F
100
AcDbEntity
  8
0
  6
Continuous
 62
     7
370
    15
100
AcDbSpline
210
0.0
220
0.0
230
1.0
 70
     8
 71
     3
 72
     9
 73
     5
 74
     0
 42
0.00000001
 43
0.00000001
 12
1.0
 22
0.0
 32
0.0
 13
1.0
 23
0.0
 33
0.0
 40
0.0
 40
0.0
 40
0.0
 40
0.0
 40
0.6590750009897044
 40
1.0
 40
1.0
 40
1.0
 40
1.0
 10
4.197043676230642
 20
8.185214408878315
 30
0.0
 10
4.197620013528406
 20
8.18656807985416
 30
0.0
 10
4.198494477431448
 20
8.188621975046384
 30
0.0
 10
4.198477660505889
 20
8.1907521623961
 30
0.0
 10
4.198471927195558
 20
8.191478396516194
 30
0.0
  0
ARC
  5
12A
330
1F
100
AcDbEntity
  8
0
  6
Continuous
 62
     7
370
    15
100
AcDbCircle
 10
4.1988577538
 20
8.0727290197
 30
0.0
 40
0.1187500000000005
100
AcDbArc
 50
71.5293218693
 51
90.1861581068
  0
SPLINE
  5
12B
330
1F
100
AcDbEntity
  8
0
  6
Continuous
 62
     7
370
    15
100
AcDbSpline
210
0.0
220
0.0
230
1.0
 70
     8
 71
     3
 72
     9
 73
     5
 74
     0
 42
0.00000001
 43
0.00000001
 12
1.0
 22
0.0
 32
0.0
 13
1.0
 23
0.0
 33
0.0
 40
0.0
 40
0.0
 40
0.0
 40
0.0
 40
0.8592211460520124
 40
1.0
 40
1.0
 40
1.0
 40
1.0
 10
4.236480046257289
 20
8.18536173384307
 30
0.0
 10
4.236009425120733
 20
8.183577923950622
 30
0.0
 10
4.235461695192626
 20
8.18150184621366
 30
0.0
 10
4.235820438563149
 20
8.179278845839955
 30
0.0
 10
4.235870942043713
 20
8.17896589439502
 30
0.0
  0
ARC
  5
12C
330
1F
100
AcDbEntity
  8
0
  6
Continuous
 62
     7
370
    15
100
AcDbCircle
 10
4.1988577538
 20
8.0727290197
 30
0.0
 40
0.1125000000000006
100
AcDbArc
 50
340.7915378048
 51
0.9239421713
  0
ARC
  5
12D
330
1F
100
AcDbEntity
  8
0
  6
Continuous
 62
     7
370
    15
100
AcDbCircle
 10
4.1988577538
 20
8.0727290197
 30
0.0
 40
0.1187500000000005
100
AcDbArc
 50
341.5293218693
 51
0.1861581068
  0
SPLINE
  5
12E
330
1F
100
AcDbEntity
  8
0
  6
Continuous
 62
     7
370
    15
100
AcDbSpline
210
0.0
220
0.0
230
1.0
 70
     8
 71
     3
 72
     9
 73
     5
 74
     0
 42
0.00000001
 43
0.00000001
 12
1.0
 22
0.0
 32
0.0
 13
1.0
 23
0.0
 33
0.0
 40
0.0
 40
0.0
 40
0.0
 40
0.0
 40
0.6590763558240048
 40
0.9999999999999999
 40
0.9999999999999999
 40
0.9999999999999999
 40
0.9999999999999999
 10
4.311343123515965
 20
8.074543110695927
 30
0.0
 10
4.31269680582465
 20
8.07396676402469
 30
0.0
 10
4.314750713989802
 20
8.073092287697104
 30
0.0
 10
4.316880899037677
 20
8.073109114032919
 30
0.0
 10
4.317607129486968
 20
8.073114850528645
 30
0.0
  0
SPLINE
  5
12F
330
1F
100
AcDbEntity
  8
0
  6
Continuous
 62
     7
370
    15
100
AcDbSpline
210
0.0
220
0.0
230
1.0
 70
     8
 71
     3
 72
     9
 73
     5
 74
     0
 42
0.00000001
 43
0.00000001
 12
1.0
 22
0.0
 32
0.0
 13
1.0
 23
0.0
 33
0.0
 40
0.0
 40
0.0
 40
0.0
 40
0.0
 40
0.8592218465409277
 40
1.0
 40
1.0
 40
1.0
 40
1.0
 10
4.311490457647283
 20
8.035106732934995
 30
0.0
 10
4.309706644509814
 20
8.035577343460245
 30
0.0
 10
4.307630564688695
 20
8.036125060591909
 30
0.0
 10
4.305407575656855
 20
8.03576633350253
 30
0.0
 10
4.305094627365793
 20
8.035715832565291
 30
0.0
  0
CIRCLE
  5
130
330
1F
100
AcDbEntity
  8
0
  6
Continuous
 62
     7
370
    15
100
AcDbCircle
 10
4.1988577538
 20
8.0727290197
 30
0.0
 40
0.0656250000000001
  0
ARC
  5
131
330
1F
100
AcDbEntity
  8
0
  6
Continuous
 62
     7
370
    15
100
AcDbCircle
 10
4.1988577538
 20
8.0727290197
 30
0.0
 40
0.1125000000000004
100
AcDbArc
 50
280.7915378048
 51
300.9239421713
  0
ARC
  5
132
330
1F
100
AcDbEntity
  8
0
  6
Continuous
 62
     7
370
    15
100
AcDbCircle
 10
4.1026139764
 20
8.0031682705
 30
0.0
 40
0.0117500000000003
100
AcDbArc
 50
340.4262191881
 51
91.289260788
  0
ARC
  5
133
330
1F
100
AcDbEntity
  8
0
  6
Continuous
 62
     7
370
    15
100
AcDbCircle
 10
4.2474269353
 20
8.1810922842
 30
0.0
 40
0.01175
100
AcDbArc
 50
190.4262191881
 51
301.289260788
  0
ARC
  5
134
330
1F
100
AcDbEntity
  8
0
  6
Continuous
 62
     7
370
    15
100
AcDbCircle
 10
4.1988577538
 20
8.0727290197
 30
0.0
 40
0.1125000000000006
100
AcDbArc
 50
40.7915378048
 51
60.9239421713
  0
ARC
  5
135
330
1F
100
AcDbEntity
  8
0
  6
Continuous
 62
     7
370
    15
100
AcDbCircle
 10
4.210977241
 20
7.954599089
 30
0.0
 40
0.0117499999999999
100
AcDbArc
 50
40.4262191881
 51
151.289260788
  0
ARC
  5
136
330
1F
100
AcDbEntity
  8
0
  6
Continuous
 62
     7
370
    15
100
AcDbCircle
 10
4.1867382666
 20
8.1908589504
 30
0.0
 40
0.0117500000000003
100
AcDbArc
 50
220.4262191881
 51
331.289260788
  0
ARC
  5
137
330
1F
100
AcDbEntity
  8
0
  6
Continuous
 62
     7
370
    15
100
AcDbCircle
 10
4.2684185029
 20
7.9764852424
 30
0.0
 40
0.0117500000000008
100
AcDbArc
 50
70.4262191881
 51
181.289260788
  0
ARC
  5
138
330
1F
100
AcDbEntity
  8
0
  6
Continuous
 62
     7
370
    15
100
AcDbCircle
 10
4.1292970046
 20
8.168972797
 30
0.0
 40
0.0117500000000008
100
AcDbArc
 50
250.4262191881
 51
1.289260788
  0
ARC
  5
139
330
1F
100
AcDbEntity
  8
0
  6
Continuous
 62
     7
370
    15
100
AcDbCircle
 10
4.3169876845
 20
8.0848485069
 30
0.0
 40
0.0117500000000001
100
AcDbArc
 50
130.4262191881
 51
241.289260788
  0
ARC
  5
13A
330
1F
100
AcDbEntity
  8
0
  6
Continuous
 62
     7
370
    15
100
AcDbCircle
 10
4.1502885722
 20
7.9643657552
 30
0.0
 40
0.0117500000000005
100
AcDbArc
 50
10.4262191881
 51
121.289260788
  0
ARC
  5
13B
330
1F
100
AcDbEntity
  8
0
  6
Continuous
 62
     7
370
    15
100
AcDbCircle
 10
4.0904944892
 20
8.1212982013
 30
0.0
 40
0.0117500000000016
100
AcDbArc
 50
280.4262191881
 51
31.289260788
  0
ARC
  5
13C
330
1F
100
AcDbEntity
  8
0
  6
Continuous
 62
     7
370
    15
100
AcDbCircle
 10
4.3072210183
 20
8.0241598381
 30
0.0
 40
0.01175
100
AcDbArc
 50
100.4262191881
 51
211.289260788
  0
ARC
  5
13D
330
1F
100
AcDbEntity
  8
0
  6
Continuous
 62
     7
370
    15
100
AcDbCircle
 10
4.2951015311
 20
8.1422897689
 30
0.0
 40
0.0117500000000003
100
AcDbArc
 50
160.4262191881
 51
271.289260788
  0
ARC
  5
13E
330
1F
100
AcDbEntity
  8
0
  6
Continuous
 62
     7
370
    15
100
AcDbCircle
 10
4.0807278231
 20
8.0606095325
 30
0.0
 40
0.0117500000000009
100
AcDbArc
 50
310.4262191881
 51
61.289260788
  0
ARC
  5
13F
330
1F
100
AcDbEntity
  8
0
  6
Continuous
 62
     7
370
    15
100
AcDbCircle
 10
4.1988577538
 20
8.0727290197
 30
0.0
 40
0.1187500000000005
100
AcDbArc
 50
281.5293218693
 51
300.1861581068
  0
SPLINE
  5
140
330
1F
100
AcDbEntity
  8
0
  6
Continuous
 62
     7
370
    15
100
AcDbSpline
210
0.0
220
0.0
230
1.0
 70
     8
 71
     3
 72
     9
 73
     5
 74
     0
 42
0.00000001
 43
0.00000001
 12
1.0
 22
0.0
 32
0.0
 13
1.0
 23
0.0
 33
0.0
 40
0.0
 40
0.0
 40
0.0
 40
0.0
 40
0.8592226763686931
 40
1.0
 40
1.0
 40
1.0
 40
1.0
 10
4.222592243773701
 20
7.956375087449683
 30
0.0
 10
4.222107910263165
 20
7.958155236978292
 30
0.0
 10
4.221544222264865
 20
7.960227050930097
 30
0.0
 10
4.220122040739714
 20
7.961972821678161
 30
0.0
 10
4.219921829830885
 20
7.962218586611749
 30
0.0
  0
SPLINE
  5
141
330
1F
100
AcDbEntity
  8
0
  6
Continuous
 62
     7
370
    15
100
AcDbSpline
210
0.0
220
0.0
230
1.0
 70
     8
 71
     3
 72
     9
 73
     5
 74
     0
 42
0.00000001
 43
0.00000001
 12
1.0
 22
0.0
 32
0.0
 13
1.0
 23
0.0
 33
0.0
 40
0.0
 40
0.0
 40
0.0
 40
0.0
 40
0.6590765279177776
 40
1.0
 40
1.0
 40
1.0
 40
1.0
 10
4.256671477170823
 20
7.97622087485612
 30
0.0
 10
4.256849196382285
 20
7.974760379807392
 30
0.0
 10
4.257118845207473
 20
7.972544407933319
 30
0.0
 10
4.258198497664262
 20
7.970708022627856
 30
0.0
 10
4.258566576528473
 20
7.970081955773437
 30
0.0
  0
ARC
  5
142
330
1F
100
AcDbEntity
  8
0
  6
Continuous
 62
     7
370
    15
100
AcDbCircle
 10
4.1988577538
 20
8.0727290197
 30
0.0
 40
0.1187499999999991
100
AcDbArc
 50
41.5293218693
 51
60.1861581068
  0
SPLINE
  5
143
330
1F
100
AcDbEntity
  8
0
  6
Continuous
 62
     7
370
    15
100
AcDbSpline
210
0.0
220
0.0
230
1.0
 70
     8
 71
     3
 72
     9
 73
     5
 74
     0
 42
0.00000001
 43
0.00000001
 12
1.0
 22
0.0
 32
0.0
 13
1.0
 23
0.0
 33
0.0
 40
0.0
 40
0.0
 40
0.0
 40
0.0
 40
0.6590746109387915
 40
1.0
 40
1.0
 40
1.0
 40
1.0
 10
4.253529404718312
 20
8.171051265825485
 30
0.0
 10
4.254705370225096
 20
8.171935405707027
 30
0.0
 10
4.256489637874413
 20
8.173276892492998
 30
0.0
 10
4.257540157825382
 20
8.175130114356167
 30
0.0
 10
4.257898306748383
 20
8.175761924740884
 30
0.0
  0
SPLINE
  5
144
330
1F
100
AcDbEntity
  8
0
  6
Continuous
 62
     7
370
    15
100
AcDbSpline
210
0.0
220
0.0
230
1.0
 70
     8
 71
     3
 72
     9
 73
     5
 74
     0
 42
0.00000001
 43
0.00000001
 12
1.0
 22
0.0
 32
0.0
 13
1.0
 23
0.0
 33
0.0
 40
0.0
 40
0.0
 40
0.0
 40
0.0
 40
0.8592242422635793
 40
1.0
 40
1.0
 40
1.0
 40
1.0
 10
4.287755967663469
 20
8.151460638804746
 30
0.0
 10
4.286456499353813
 20
8.150151103716935
 30
0.0
 10
4.28494412546381
 20
8.148627013702482
 30
0.0
 10
4.28414328759146
 20
8.146522535458637
 30
0.0
 10
4.284030549033156
 20
8.146226275939219
 30
0.0
  0
ARC
  5
145
330
1F
100
AcDbEntity
  8
0
  6
Continuous
 62
     7
370
    15
100
AcDbCircle
 10
4.1988577538
 20
8.0727290197
 30
0.0
 40
0.1187500000000007
100
AcDbArc
 50
30.1861581068
 51
41.5293218693
  0
ARC
  5
146
330
1F
100
AcDbEntity
  8
0
  6
Continuous
 62
     7
370
    15
100
AcDbCircle
 10
4.1988577538
 20
8.0727290197
 30
0.0
 40
0.1187500000000003
100
AcDbArc
 50
300.1861581068
 51
311.5293218693
  0
ARC
  5
147
330
1F
100
AcDbEntity
  8
0
  6
Continuous
 62
     7
370
    15
100
AcDbCircle
 10
4.1988577538
 20
8.0727290197
 30
0.0
 40
0.1187499999999997
100
AcDbArc
 50
120.1861581068
 51
131.5293218693
  0
ARC
  5
148
330
1F
100
AcDbEntity
  8
0
  6
Continuous
 62
     7
370
    15
100
AcDbCircle
 10
4.1988577538
 20
8.0727290197
 30
0.0
 40
0.1187500000000003
100
AcDbArc
 50
0.1861581068
 51
11.5293218693
  0
ARC
  5
149
330
1F
100
AcDbEntity
  8
0
  6
Continuous
 62
     7
370
    15
100
AcDbCircle
 10
4.1988577538
 20
8.0727290197
 30
0.0
 40
0.1187500000000009
100
AcDbArc
 50
270.1861581068
 51
281.5293218693
  0
ARC
  5
14A
330
1F
100
AcDbEntity
  8
0
  6
Continuous
 62
     7
370
    15
100
AcDbCircle
 10
4.1988577538
 20
8.0727290197
 30
0.0
 40
0.1187499999999995
100
AcDbArc
 50
90.1861581068
 51
101.5293218693
  0
ARC
  5
14B
330
1F
100
AcDbEntity
  8
0
  6
Continuous
 62
     7
370
    15
100
AcDbCircle
 10
4.1988577538
 20
8.0727290197
 30
0.0
 40
0.1187500000000002
100
AcDbArc
 50
150.1861581068
 51
161.5293218693
  0
ARC
  5
14C
330
1F
100
AcDbEntity
  8
0
  6
Continuous
 62
     7
370
    15
100
AcDbCircle
 10
4.1988577538
 20
8.0727290197
 30
0.0
 40
0.1187500000000005
100
AcDbArc
 50
240.1861581068
 51
251.5293218693
  0
ARC
  5
14D
330
1F
100
AcDbEntity
  8
0
  6
Continuous
 62
     7
370
    15
100
AcDbCircle
 10
4.1988577538
 20
8.0727290197
 30
0.0
 40
0.1187500000000005
100
AcDbArc
 50
60.1861581068
 51
71.5293218693
  0
ARC
  5
14E
330
1F
100
AcDbEntity
  8
0
  6
Continuous
 62
     7
370
    15
100
AcDbCircle
 10
4.1988577538
 20
8.0727290197
 30
0.0
 40
0.11875
100
AcDbArc
 50
180.1861581068
 51
191.5293218693
  0
ARC
  5
14F
330
1F
100
AcDbEntity
  8
0
  6
Continuous
 62
     7
370
    15
100
AcDbCircle
 10
4.1988577538
 20
8.0727290197
 30
0.0
 40
0.11875
100
AcDbArc
 50
210.1861581068
 51
221.5293218693
  0
ARC
  5
150
330
1F
100
AcDbEntity
  8
0
  6
Continuous
 62
     7
370
    15
100
AcDbCircle
 10
4.1988577538
 20
8.0727290197
 30
0.0
 40
0.1187500000000005
100
AcDbArc
 50
330.1861581068
 51
341.5293218693
  0
LINE
  5
151
330
1F
100
AcDbEntity
  8
0
  6
Continuous
 62
     7
370
    15
100
AcDbLine
 10
3.9686077537
 20
7.2260415127
 30
0.0
 11
3.9686077537
 21
7.1322915023
 31
0.0
  0
LINE
  5
152
330
1F
100
AcDbEntity
  8
0
  6
Continuous
 62
     7
370
    15
100
AcDbLine
 10
3.9686077537
 20
7.2260415127
 30
0.0
 11
4.4291077539
 21
7.2260415127
 31
0.0
  0
LINE
  5
153
330
1F
100
AcDbEntity
  8
0
  6
Continuous
 62
     7
370
    15
100
AcDbLine
 10
3.9686077537
 20
7.1322915023
 30
0.0
 11
4.4291077539
 21
7.1322915023
 31
0.0
  0
CIRCLE
  5
154
330
1F
100
AcDbEntity
  8
0
  6
Continuous
 62
     7
370
    15
100
AcDbCircle
 10
4.4056077538
 20
7.1870415197
 30
0.0
 40
0.012062499999999
  0
LINE
  5
155
330
1F
100
AcDbEntity
  8
0
  6
Continuous
 62
     7
370
    15
100
AcDbLine
 10
4.4291077539
 20
7.2260415127
 30
0.0
 11
4.4291077539
 21
7.1322915023
 31
0.0
  0
CIRCLE
  5
156
330
1F
100
AcDbEntity
  8
0
  6
Continuous
 62
     7
370
    15
100
AcDbCircle
 10
4.4056077538
 20
7.1870415197
 30
0.0
 40
0.011750000000001
  0
LINE
  5
157
330
1F
100
AcDbEntity
  8
0
  6
Continuous
 62
     7
370
    15
100
AcDbLine
 10
4.9089514707
 20
7.7809525652
 30
0.0
 11
4.9402015231
 21
7.7809525652
 31
0.0
  0
LINE
  5
158
330
1F
100
AcDbEntity
  8
0
  6
Continuous
 62
     7
370
    15
100
AcDbLine
 10
4.9402015231
 20
7.7809525652
 30
0.0
 11
4.9402015231
 21
7.7667832164
 31
0.0
  0
LINE
  5
159
330
1F
100
AcDbEntity
  8
0
  6
Continuous
 62
     7
370
    15
100
AcDbLine
 10
4.9402015231
 20
7.765030492
 30
0.0
 11
4.9402015231
 21
7.7508611421
 31
0.0
  0
LINE
  5
15A
330
1F
100
AcDbEntity
  8
0
  6
Continuous
 62
     7
370
    15
100
AcDbLine
 10
4.9089514707
 20
7.7508611421
 30
0.0
 11
4.9402015231
 21
7.7508611421
 31
0.0
  0
LINE
  5
15B
330
1F
100
AcDbEntity
  8
0
  6
Continuous
 62
     7
370
    15
100
AcDbLine
 10
4.9089514707
 20
7.7809525652
 30
0.0
 11
4.9089514707
 21
7.7508611421
 31
0.0
  0
LINE
  5
15C
330
1F
100
AcDbEntity
  8
0
  6
Continuous
 62
     7
370
    15
100
AcDbLine
 10
4.9560664931
 20
7.7755738015
 30
0.0
 11
4.9560664931
 21
7.6955738042
 31
0.0
  0
LINE
  5
15D
330
1F
100
AcDbEntity
  8
0
  6
Continuous
 62
     7
370
    15
100
AcDbLine
 10
4.9605140351
 20
7.7678704805
 30
0.0
 11
4.9605140351
 21
7.7032771275
 31
0.0
  0
LINE
  5
15E
330
1F
100
AcDbEntity
  8
0
  6
Continuous
 62
     7
370
    15
100
AcDbLine
 10
4.9402015231
 20
7.6983111226
 30
0.0
 11
4.9402015231
 21
7.6974176923
 31
0.0
  0
LINE
  5
15F
330
1F
100
AcDbEntity
  8
0
  6
Continuous
 62
     7
370
    15
100
AcDbLine
 10
4.9402015231
 20
7.7667832164
 30
0.0
 11
4.9402015231
 21
7.765030492
 31
0.0
  0
LINE
  5
160
330
1F
100
AcDbEntity
  8
0
  6
Continuous
 62
     7
370
    15
100
AcDbLine
 10
4.9722327864
 20
7.7746363052
 30
0.0
 11
4.9722327864
 21
7.6965113028
 31
0.0
  0
LINE
  5
161
330
1F
100
AcDbEntity
  8
0
  6
Continuous
 62
     7
370
    15
100
AcDbLine
 10
4.9761389879
 20
7.7678704805
 30
0.0
 11
4.9761389879
 21
7.7032771275
 31
0.0
  0
LINE
  5
162
330
1F
100
AcDbEntity
  8
0
  6
Continuous
 62
     7
370
    15
100
AcDbLine
 10
4.9683265115
 20
7.7678704805
 30
0.0
 11
4.9683265115
 21
7.7032771275
 31
0.0
  0
LINE
  5
163
330
1F
100
AcDbEntity
  8
0
  6
Continuous
 62
     7
370
    15
100
AcDbLine
 10
4.9644202366
 20
7.7746363052
 30
0.0
 11
4.9644202366
 21
7.6965113028
 31
0.0
  0
LINE
  5
164
330
1F
100
AcDbEntity
  8
0
  6
Continuous
 62
     7
370
    15
100
AcDbLine
 10
4.9402015231
 20
7.7281974594
 30
0.0
 11
4.9402015231
 21
7.7055337766
 31
0.0
  0
LINE
  5
165
330
1F
100
AcDbEntity
  8
0
  6
Continuous
 62
     7
370
    15
100
AcDbLine
 10
4.9089514707
 20
7.7055337766
 30
0.0
 11
4.9402015231
 21
7.7055337766
 31
0.0
  0
LINE
  5
166
330
1F
100
AcDbEntity
  8
0
  6
Continuous
 62
     7
370
    15
100
AcDbLine
 10
4.9402015231
 20
7.7508611421
 30
0.0
 11
4.9402015231
 21
7.7281974594
 31
0.0
  0
LINE
  5
167
330
1F
100
AcDbEntity
  8
0
  6
Continuous
 62
     7
370
    15
100
AcDbLine
 10
4.9089514707
 20
7.7508611421
 30
0.0
 11
4.9089514707
 21
7.7055337766
 31
0.0
  0
LINE
  5
168
330
1F
100
AcDbEntity
  8
0
  6
Continuous
 62
     7
370
    15
100
AcDbLine
 10
4.9040786737
 20
7.7668863035
 30
0.0
 11
4.9040786737
 21
7.7042613022
 31
0.0
  0
LINE
  5
169
330
1F
100
AcDbEntity
  8
0
  6
Continuous
 62
     7
370
    15
100
AcDbLine
 10
4.8971359939
 20
7.7668863035
 30
0.0
 11
4.8971359939
 21
7.7042613022
 31
0.0
  0
LINE
  5
16A
330
1F
100
AcDbEntity
  8
0
  6
Continuous
 62
     7
370
    15
100
AcDbLine
 10
4.9006073338
 20
7.7608738028
 30
0.0
 11
4.9006073338
 21
7.7102738029
 31
0.0
  0
LINE
  5
16B
330
1F
100
AcDbEntity
  8
0
  6
Continuous
 62
     7
370
    15
100
AcDbLine
 10
4.9402015231
 20
7.6974176923
 30
0.0
 11
4.9402015231
 21
7.6901950428
 31
0.0
  0
LINE
  5
16C
330
1F
100
AcDbEntity
  8
0
  6
Continuous
 62
     7
370
    15
100
AcDbLine
 10
4.9089514707
 20
7.6901950428
 30
0.0
 11
4.9402015231
 21
7.6901950428
 31
0.0
  0
LINE
  5
16D
330
1F
100
AcDbEntity
  8
0
  6
Continuous
 62
     7
370
    15
100
AcDbLine
 10
4.9402015231
 20
7.7055337766
 30
0.0
 11
4.9402015231
 21
7.6983111226
 31
0.0
  0
LINE
  5
16E
330
1F
100
AcDbEntity
  8
0
  6
Continuous
 62
     7
370
    15
100
AcDbLine
 10
4.9089514707
 20
7.7055337766
 30
0.0
 11
4.9089514707
 21
7.6901950428
 31
0.0
  0
LINE
  5
16F
330
1F
100
AcDbEntity
  8
0
  6
Continuous
 62
     7
370
    15
100
AcDbLine
 10
5.2670619405
 20
7.7240649796
 30
0.0
 11
5.2670619405
 21
7.7354576272
 31
0.0
  0
LINE
  5
170
330
1F
100
AcDbEntity
  8
0
  6
Continuous
 62
     7
370
    15
100
AcDbLine
 10
5.2670619405
 20
7.7354576272
 30
0.0
 11
5.2670619405
 21
7.7470826273
 31
0.0
  0
LINE
  5
171
330
1F
100
AcDbEntity
  8
0
  6
Continuous
 62
     7
370
    15
100
AcDbLine
 10
5.1545619134
 20
7.7505738036
 30
0.0
 11
5.1545619134
 21
7.7205738032
 31
0.0
  0
LINE
  5
172
330
1F
100
AcDbEntity
  8
0
  6
Continuous
 62
     7
370
    15
100
AcDbLine
 10
4.9787912773
 20
7.7843238017
 30
0.0
 11
4.9787912773
 21
7.6868238017
 31
0.0
  0
LINE
  5
173
330
1F
100
AcDbEntity
  8
0
  6
Continuous
 62
     7
370
    15
100
AcDbLine
 10
5.1037912666
 20
7.7843238017
 30
0.0
 11
5.1037912666
 21
7.7736137112
 31
0.0
  0
LINE
  5
174
330
1F
100
AcDbEntity
  8
0
  6
Continuous
 62
     7
370
    15
100
AcDbLine
 10
5.1037912666
 20
7.7736137112
 30
0.0
 11
5.0100412563
 21
7.7736137112
 31
0.0
  0
LINE
  5
175
330
1F
100
AcDbEntity
  8
0
  6
Continuous
 62
     7
370
    15
100
AcDbLine
 10
5.0100412563
 20
7.7623890765
 30
0.0
 11
5.0100412563
 21
7.7736137112
 31
0.0
  0
LINE
  5
176
330
1F
100
AcDbEntity
  8
0
  6
Continuous
 62
     7
370
    15
100
AcDbLine
 10
5.0100412563
 20
7.7623890765
 30
0.0
 11
5.1037912666
 21
7.7623890765
 31
0.0
  0
LINE
  5
177
330
1F
100
AcDbEntity
  8
0
  6
Continuous
 62
     7
370
    15
100
AcDbLine
 10
5.1037912666
 20
7.7623890765
 30
0.0
 11
5.1037912666
 21
7.7281902378
 31
0.0
  0
LINE
  5
178
330
1F
100
AcDbEntity
  8
0
  6
Continuous
 62
     7
370
    15
100
AcDbLine
 10
5.1037912666
 20
7.7281902378
 30
0.0
 11
5.0100412563
 21
7.7281902378
 31
0.0
  0
LINE
  5
179
330
1F
100
AcDbEntity
  8
0
  6
Continuous
 62
     7
370
    15
100
AcDbLine
 10
5.0100412563
 20
7.713723425
 30
0.0
 11
5.0100412563
 21
7.7281902378
 31
0.0
  0
LINE
  5
17A
330
1F
100
AcDbEntity
  8
0
  6
Continuous
 62
     7
370
    15
100
AcDbLine
 10
5.0100412563
 20
7.713723425
 30
0.0
 11
5.1037912666
 21
7.713723425
 31
0.0
  0
LINE
  5
17B
330
1F
100
AcDbEntity
  8
0
  6
Continuous
 62
     7
370
    15
100
AcDbLine
 10
5.1037912666
 20
7.713723425
 30
0.0
 11
5.1037912666
 21
7.6901503283
 31
0.0
  0
LINE
  5
17C
330
1F
100
AcDbEntity
  8
0
  6
Continuous
 62
     7
370
    15
100
AcDbLine
 10
5.1037912666
 20
7.6901503283
 30
0.0
 11
5.0100412563
 21
7.6901503283
 31
0.0
  0
LINE
  5
17D
330
1F
100
AcDbEntity
  8
0
  6
Continuous
 62
     7
370
    15
100
AcDbLine
 10
5.0100412563
 20
7.6869081524
 30
0.0
 11
5.0100412563
 21
7.6901503283
 31
0.0
  0
LINE
  5
17E
330
1F
100
AcDbEntity
  8
0
  6
Continuous
 62
     7
370
    15
100
AcDbLine
 10
5.0100412563
 20
7.6869081524
 30
0.0
 11
5.1037912666
 21
7.6869081524
 31
0.0
  0
LINE
  5
17F
330
1F
100
AcDbEntity
  8
0
  6
Continuous
 62
     7
370
    15
100
AcDbLine
 10
5.1037912666
 20
7.6869081524
 30
0.0
 11
5.1037912666
 21
7.6868238017
 31
0.0
  0
LINE
  5
180
330
1F
100
AcDbEntity
  8
0
  6
Continuous
 62
     7
370
    15
100
AcDbLine
 10
5.1037912666
 20
7.713723425
 30
0.0
 11
5.1037912666
 21
7.7281902378
 31
0.0
  0
LINE
  5
181
330
1F
100
AcDbEntity
  8
0
  6
Continuous
 62
     7
370
    15
100
AcDbLine
 10
5.1037912666
 20
7.7623890765
 30
0.0
 11
5.1037912666
 21
7.7736137112
 31
0.0
  0
LINE
  5
182
330
1F
100
AcDbEntity
  8
0
  6
Continuous
 62
     7
370
    15
100
AcDbLine
 10
5.1037912666
 20
7.6869081524
 30
0.0
 11
5.1037912666
 21
7.6901503283
 31
0.0
  0
LINE
  5
183
330
1F
100
AcDbEntity
  8
0
  6
Continuous
 62
     7
370
    15
100
AcDbLine
 10
4.9768577196
 20
7.438904857
 30
0.0
 11
4.9768577196
 21
7.3414048433
 31
0.0
  0
LINE
  5
184
330
1F
100
AcDbEntity
  8
0
  6
Continuous
 62
     7
370
    15
100
AcDbLine
 10
5.1018577823
 20
7.4269537884
 30
0.0
 11
5.1018577823
 21
7.3960367755
 31
0.0
  0
LINE
  5
185
330
1F
100
AcDbEntity
  8
0
  6
Continuous
 62
     7
370
    15
100
AcDbLine
 10
5.1018577823
 20
7.3960367755
 30
0.0
 11
5.0081077719
 21
7.3960367755
 31
0.0
  0
LINE
  5
186
330
1F
100
AcDbEntity
  8
0
  6
Continuous
 62
     7
370
    15
100
AcDbLine
 10
5.0081077719
 20
7.3808631475
 30
0.0
 11
5.0081077719
 21
7.3960367755
 31
0.0
  0
LINE
  5
187
330
1F
100
AcDbEntity
  8
0
  6
Continuous
 62
     7
370
    15
100
AcDbLine
 10
5.0081077719
 20
7.3808631475
 30
0.0
 11
5.1018577823
 21
7.3808631475
 31
0.0
  0
LINE
  5
188
330
1F
100
AcDbEntity
  8
0
  6
Continuous
 62
     7
370
    15
100
AcDbLine
 10
5.1018577823
 20
7.3808631475
 30
0.0
 11
5.1018577823
 21
7.351185527
 31
0.0
  0
LINE
  5
189
330
1F
100
AcDbEntity
  8
0
  6
Continuous
 62
     7
370
    15
100
AcDbLine
 10
5.1018577823
 20
7.351185527
 30
0.0
 11
5.0081077719
 21
7.351185527
 31
0.0
  0
LINE
  5
18A
330
1F
100
AcDbEntity
  8
0
  6
Continuous
 62
     7
370
    15
100
AcDbLine
 10
5.0081077719
 20
7.3440642093
 30
0.0
 11
5.0081077719
 21
7.351185527
 31
0.0
  0
LINE
  5
18B
330
1F
100
AcDbEntity
  8
0
  6
Continuous
 62
     7
370
    15
100
AcDbLine
 10
5.0081077719
 20
7.3440642093
 30
0.0
 11
5.1018577823
 21
7.3440642093
 31
0.0
  0
LINE
  5
18C
330
1F
100
AcDbEntity
  8
0
  6
Continuous
 62
     7
370
    15
100
AcDbLine
 10
5.1018577823
 20
7.3440642093
 30
0.0
 11
5.1018577823
 21
7.3414048433
 31
0.0
  0
LINE
  5
18D
330
1F
100
AcDbEntity
  8
0
  6
Continuous
 62
     7
370
    15
100
AcDbLine
 10
5.1018577823
 20
7.438904857
 30
0.0
 11
5.1018577823
 21
7.4350061353
 31
0.0
  0
LINE
  5
18E
330
1F
100
AcDbEntity
  8
0
  6
Continuous
 62
     7
370
    15
100
AcDbLine
 10
5.1018577823
 20
7.4350061353
 30
0.0
 11
5.0081077719
 21
7.4350061353
 31
0.0
  0
LINE
  5
18F
330
1F
100
AcDbEntity
  8
0
  6
Continuous
 62
     7
370
    15
100
AcDbLine
 10
5.0081077719
 20
7.4269537884
 30
0.0
 11
5.0081077719
 21
7.4350061353
 31
0.0
  0
LINE
  5
190
330
1F
100
AcDbEntity
  8
0
  6
Continuous
 62
     7
370
    15
100
AcDbLine
 10
5.0081077719
 20
7.4269537884
 30
0.0
 11
5.1018577823
 21
7.4269537884
 31
0.0
  0
LINE
  5
191
330
1F
100
AcDbEntity
  8
0
  6
Continuous
 62
     7
370
    15
100
AcDbLine
 10
5.1018577823
 20
7.3808631475
 30
0.0
 11
5.1018577823
 21
7.3960367755
 31
0.0
  0
LINE
  5
192
330
1F
100
AcDbEntity
  8
0
  6
Continuous
 62
     7
370
    15
100
AcDbLine
 10
5.1018577823
 20
7.4269537884
 30
0.0
 11
5.1018577823
 21
7.4350061353
 31
0.0
  0
LINE
  5
193
330
1F
100
AcDbEntity
  8
0
  6
Continuous
 62
     7
370
    15
100
AcDbLine
 10
5.1018577823
 20
7.3440642093
 30
0.0
 11
5.1018577823
 21
7.351185527
 31
0.0
  0
LINE
  5
194
330
1F
100
AcDbEntity
  8
0
  6
Continuous
 62
     7
370
    15
100
AcDbLine
 10
4.9135764773
 20
7.3994812024
 30
0.0
 11
4.9448265296
 21
7.3994812024
 31
0.0
  0
LINE
  5
195
330
1F
100
AcDbEntity
  8
0
  6
Continuous
 62
     7
370
    15
100
AcDbLine
 10
4.9448265296
 20
7.3994812024
 30
0.0
 11
4.9448265296
 21
7.3788361276
 31
0.0
  0
LINE
  5
196
330
1F
100
AcDbEntity
  8
0
  6
Continuous
 62
     7
370
    15
100
AcDbLine
 10
4.9448265296
 20
7.3762823971
 30
0.0
 11
4.9448265296
 21
7.3556373222
 31
0.0
  0
LINE
  5
197
330
1F
100
AcDbEntity
  8
0
  6
Continuous
 62
     7
370
    15
100
AcDbLine
 10
4.9135764773
 20
7.3556373222
 30
0.0
 11
4.9448265296
 21
7.3556373222
 31
0.0
  0
LINE
  5
198
330
1F
100
AcDbEntity
  8
0
  6
Continuous
 62
     7
370
    15
100
AcDbLine
 10
4.9135764773
 20
7.3994812024
 30
0.0
 11
4.9135764773
 21
7.3556373222
 31
0.0
  0
LINE
  5
199
330
1F
100
AcDbEntity
  8
0
  6
Continuous
 62
     7
370
    15
100
AcDbLine
 10
4.9448265296
 20
7.3788361276
 30
0.0
 11
4.9448265296
 21
7.3762823971
 31
0.0
  0
LINE
  5
19A
330
1F
100
AcDbEntity
  8
0
  6
Continuous
 62
     7
370
    15
100
AcDbLine
 10
4.9448265296
 20
7.3512641761
 30
0.0
 11
4.9448265296
 21
7.3507232023
 31
0.0
  0
LINE
  5
19B
330
1F
100
AcDbEntity
  8
0
  6
Continuous
 62
     7
370
    15
100
AcDbLine
 10
4.9606914997
 20
7.3602505223
 30
0.0
 11
4.9606914997
 21
7.3501548756
 31
0.0
  0
LINE
  5
19C
330
1F
100
AcDbEntity
  8
0
  6
Continuous
 62
     7
370
    15
100
AcDbLine
 10
4.9606914997
 20
7.4301548614
 30
0.0
 11
4.9606914997
 21
7.3602505223
 31
0.0
  0
LINE
  5
19D
330
1F
100
AcDbEntity
  8
0
  6
Continuous
 62
     7
370
    15
100
AcDbLine
 10
4.9651389683
 20
7.3660095791
 30
0.0
 11
4.9651389683
 21
7.3578581966
 31
0.0
  0
LINE
  5
19E
330
1F
100
AcDbEntity
  8
0
  6
Continuous
 62
     7
370
    15
100
AcDbLine
 10
4.9651389683
 20
7.4224515404
 30
0.0
 11
4.9651389683
 21
7.3660095791
 31
0.0
  0
LINE
  5
19F
330
1F
100
AcDbEntity
  8
0
  6
Continuous
 62
     7
370
    15
100
AcDbLine
 10
4.9690452432
 20
7.3609513975
 30
0.0
 11
4.9690452432
 21
7.3510923581
 31
0.0
  0
LINE
  5
1A0
330
1F
100
AcDbEntity
  8
0
  6
Continuous
 62
     7
370
    15
100
AcDbLine
 10
4.9690452432
 20
7.4292173606
 30
0.0
 11
4.9690452432
 21
7.3609513975
 31
0.0
  0
LINE
  5
1A1
330
1F
100
AcDbEntity
  8
0
  6
Continuous
 62
     7
370
    15
100
AcDbLine
 10
4.9729515181
 20
7.3660095791
 30
0.0
 11
4.9729515181
 21
7.3578581966
 31
0.0
  0
LINE
  5
1A2
330
1F
100
AcDbEntity
  8
0
  6
Continuous
 62
     7
370
    15
100
AcDbLine
 10
4.9729515181
 20
7.4224515404
 30
0.0
 11
4.9729515181
 21
7.3660095791
 31
0.0
  0
LINE
  5
1A3
330
1F
100
AcDbEntity
  8
0
  6
Continuous
 62
     7
370
    15
100
AcDbLine
 10
4.9135764773
 20
7.4339596624
 30
0.0
 11
4.9448265296
 21
7.4339596624
 31
0.0
  0
LINE
  5
1A4
330
1F
100
AcDbEntity
  8
0
  6
Continuous
 62
     7
370
    15
100
AcDbLine
 10
4.9448265296
 20
7.4339596624
 30
0.0
 11
4.9448265296
 21
7.4167204233
 31
0.0
  0
LINE
  5
1A5
330
1F
100
AcDbEntity
  8
0
  6
Continuous
 62
     7
370
    15
100
AcDbLine
 10
4.9448265296
 20
7.4167204233
 30
0.0
 11
4.9448265296
 21
7.3994812024
 31
0.0
  0
LINE
  5
1A6
330
1F
100
AcDbEntity
  8
0
  6
Continuous
 62
     7
370
    15
100
AcDbLine
 10
4.9135764773
 20
7.4339596624
 30
0.0
 11
4.9135764773
 21
7.3994812024
 31
0.0
  0
LINE
  5
1A7
330
1F
100
AcDbEntity
  8
0
  6
Continuous
 62
     7
370
    15
100
AcDbLine
 10
4.9110212801
 20
7.3667453606
 30
0.0
 11
4.9110212801
 21
7.3588423552
 31
0.0
  0
LINE
  5
1A8
330
1F
100
AcDbEntity
  8
0
  6
Continuous
 62
     7
370
    15
100
AcDbLine
 10
4.9110212801
 20
7.4214673451
 30
0.0
 11
4.9110212801
 21
7.3667453606
 31
0.0
  0
LINE
  5
1A9
330
1F
100
AcDbEntity
  8
0
  6
Continuous
 62
     7
370
    15
100
AcDbLine
 10
4.9040786737
 20
7.3667453606
 30
0.0
 11
4.9040786737
 21
7.3588423552
 31
0.0
  0
LINE
  5
1AA
330
1F
100
AcDbEntity
  8
0
  6
Continuous
 62
     7
370
    15
100
AcDbLine
 10
4.9040786737
 20
7.4214673451
 30
0.0
 11
4.9040786737
 21
7.3667453606
 31
0.0
  0
LINE
  5
1AB
330
1F
100
AcDbEntity
  8
0
  6
Continuous
 62
     7
370
    15
100
AcDbLine
 10
4.9075499403
 20
7.3712403486
 30
0.0
 11
4.9075499403
 21
7.3648548491
 31
0.0
  0
LINE
  5
1AC
330
1F
100
AcDbEntity
  8
0
  6
Continuous
 62
     7
370
    15
100
AcDbLine
 10
4.9075499403
 20
7.4154548512
 30
0.0
 11
4.9075499403
 21
7.3712403486
 31
0.0
  0
LINE
  5
1AD
330
1F
100
AcDbEntity
  8
0
  6
Continuous
 62
     7
370
    15
100
AcDbLine
 10
4.9006073338
 20
7.3712403486
 30
0.0
 11
4.9006073338
 21
7.3648548491
 31
0.0
  0
LINE
  5
1AE
330
1F
100
AcDbEntity
  8
0
  6
Continuous
 62
     7
370
    15
100
AcDbLine
 10
4.9006073338
 20
7.4154548512
 30
0.0
 11
4.9006073338
 21
7.3712403486
 31
0.0
  0
LINE
  5
1AF
330
1F
100
AcDbEntity
  8
0
  6
Continuous
 62
     7
370
    15
100
AcDbLine
 10
4.8971359939
 20
7.3667453606
 30
0.0
 11
4.8971359939
 21
7.3588423552
 31
0.0
  0
LINE
  5
1B0
330
1F
100
AcDbEntity
  8
0
  6
Continuous
 62
     7
370
    15
100
AcDbLine
 10
4.8971359939
 20
7.4214673451
 30
0.0
 11
4.8971359939
 21
7.3667453606
 31
0.0
  0
LINE
  5
1B1
330
1F
100
AcDbEntity
  8
0
  6
Continuous
 62
     7
370
    15
100
AcDbLine
 10
4.9448265296
 20
7.3463500562
 30
0.0
 11
4.9448265296
 21
7.3507232023
 31
0.0
  0
LINE
  5
1B2
330
1F
100
AcDbEntity
  8
0
  6
Continuous
 62
     7
370
    15
100
AcDbLine
 10
4.9135764773
 20
7.3463500562
 30
0.0
 11
4.9448265296
 21
7.3463500562
 31
0.0
  0
LINE
  5
1B3
330
1F
100
AcDbEntity
  8
0
  6
Continuous
 62
     7
370
    15
100
AcDbLine
 10
4.9448265296
 20
7.3512641761
 30
0.0
 11
4.9448265296
 21
7.3556373222
 31
0.0
  0
LINE
  5
1B4
330
1F
100
AcDbEntity
  8
0
  6
Continuous
 62
     7
370
    15
100
AcDbLine
 10
4.9135764773
 20
7.3463500562
 30
0.0
 11
4.9135764773
 21
7.3556373222
 31
0.0
  0
LINE
  5
1B5
330
1F
100
AcDbEntity
  8
0
  6
Continuous
 62
     7
370
    15
100
AcDbLine
 10
3.5011293607
 20
7.7023722665
 30
0.0
 11
3.5011293607
 21
7.7942069033
 31
0.0
  0
LINE
  5
1B6
330
1F
100
AcDbEntity
  8
0
  6
Continuous
 62
     7
370
    15
100
AcDbLine
 10
3.5011293607
 20
7.6735011361
 30
0.0
 11
3.5011293607
 21
7.7023722665
 31
0.0
  0
LINE
  5
1B7
330
1F
100
AcDbEntity
  8
0
  6
Continuous
 62
     7
370
    15
100
AcDbLine
 10
3.3953889755
 20
7.7807290203
 30
0.0
 11
3.3953889755
 21
7.6869790191
 31
0.0
  0
LINE
  5
1B8
330
1F
100
AcDbEntity
  8
0
  6
Continuous
 62
     7
370
    15
100
AcDbLine
 10
3.3935140105
 20
7.7788540186
 30
0.0
 11
3.3935140105
 21
7.6888540208
 31
0.0
  0
LINE
  5
1B9
330
1F
100
AcDbEntity
  8
0
  6
Continuous
 62
     7
370
    15
100
AcDbLine
 10
3.2176175358
 20
7.7247882074
 30
0.0
 11
3.2176175358
 21
7.7494790195
 31
0.0
  0
LINE
  5
1BA
330
1F
100
AcDbEntity
  8
0
  6
Continuous
 62
     7
370
    15
100
AcDbLine
 10
3.2176175358
 20
7.7182290199
 30
0.0
 11
3.2176175358
 21
7.7247882074
 31
0.0
  0
LINE
  5
1BB
330
1F
100
AcDbEntity
  8
0
  6
Continuous
 62
     7
370
    15
100
AcDbLine
 10
4.7319514888
 20
8.2793358482
 30
0.0
 11
4.7319514888
 21
8.279416514
 31
0.0
  0
LINE
  5
1BC
330
1F
100
AcDbEntity
  8
0
  6
Continuous
 62
     7
370
    15
100
AcDbLine
 10
4.7319514888
 20
7.1882915254
 30
0.0
 11
4.7319514888
 21
8.2793358482
 31
0.0
  0
LINE
  5
1BD
330
1F
100
AcDbEntity
  8
0
  6
Continuous
 62
     7
370
    15
100
AcDbLine
 10
4.5578877029
 20
8.2636394696
 30
0.0
 11
4.5578877029
 21
7.2040685698
 31
0.0
  0
LINE
  5
1BE
330
1F
100
AcDbEntity
  8
0
  6
Continuous
 62
     7
370
    15
100
AcDbLine
 10
4.8714515106
 20
7.1882915254
 30
0.0
 11
4.8714515106
 21
8.279416514
 31
0.0
  0
LINE
  5
1BF
330
1F
100
AcDbEntity
  8
0
  6
Continuous
 62
     7
370
    15
100
AcDbLine
 10
4.8964515085
 20
8.2544165161
 30
0.0
 11
4.8964515085
 21
7.2132915233
 31
0.0
  0
LINE
  5
1C0
330
1F
100
AcDbEntity
  8
0
  6
Continuous
 62
     7
370
    15
100
AcDbLine
 10
4.5423265127
 20
8.2449005994
 30
0.0
 11
4.5423265127
 21
8.2449761685
 31
0.0
  0
LINE
  5
1C1
330
1F
100
AcDbEntity
  8
0
  6
Continuous
 62
     7
370
    15
100
AcDbLine
 10
4.5423265127
 20
7.2227318709
 30
0.0
 11
4.5423265127
 21
7.2837475794
 31
0.0
  0
LINE
  5
1C2
330
1F
100
AcDbEntity
  8
0
  6
Continuous
 62
     7
370
    15
100
AcDbLine
 10
4.5423265127
 20
7.3289534271
 30
0.0
 11
4.5423265127
 21
8.2449005994
 31
0.0
  0
LINE
  5
1C3
330
1F
100
AcDbEntity
  8
0
  6
Continuous
 62
     7
370
    15
100
AcDbLine
 10
3.526263997
 20
7.1883002153
 30
0.0
 11
3.526263997
 21
7.1882915254
 31
0.0
  0
LINE
  5
1C4
330
1F
100
AcDbEntity
  8
0
  6
Continuous
 62
     7
370
    15
100
AcDbLine
 10
3.526263997
 20
8.279416514
 30
0.0
 11
3.526263997
 21
7.1883002153
 31
0.0
  0
LINE
  5
1C5
330
1F
100
AcDbEntity
  8
0
  6
Continuous
 62
     7
370
    15
100
AcDbLine
 10
3.5012639991
 20
7.2132915233
 30
0.0
 11
3.5012639991
 21
8.2544165161
 31
0.0
  0
LINE
  5
1C6
330
1F
100
AcDbEntity
  8
0
  6
Continuous
 62
     7
370
    15
100
AcDbLine
 10
3.6657640188
 20
8.279416514
 30
0.0
 11
3.6657640188
 21
7.1882915254
 31
0.0
  0
LINE
  5
1C7
330
1F
100
AcDbEntity
  8
0
  6
Continuous
 62
     7
370
    15
100
AcDbLine
 10
3.8398278047
 20
7.2040685698
 30
0.0
 11
3.8398278047
 21
8.2636394696
 31
0.0
  0
LINE
  5
1C8
330
1F
100
AcDbEntity
  8
0
  6
Continuous
 62
     7
370
    15
100
AcDbLine
 10
3.8553889949
 20
8.2449761685
 30
0.0
 11
3.8553889949
 21
7.2227318709
 31
0.0
  0
SPLINE
  5
1C9
330
1F
100
AcDbEntity
  8
0
  6
Continuous
 62
     7
370
    15
100
AcDbSpline
210
0.0
220
0.0
230
1.0
 70
     8
 71
     3
 72
    19
 73
    15
 74
     0
 42
0.00000001
 43
0.00000001
 12
1.0
 22
0.0
 32
0.0
 13
1.0
 23
0.0
 33
0.0
 40
0.0
 40
0.0
 40
0.0
 40
0.0
 40
0.0806211552460744
 40
0.1611480990195841
 40
0.2447508521281182
 40
0.3392603635646482
 40
0.4244974933252464
 40
0.4945382051908143
 40
0.5647031893708369
 40
0.633823974859858
 40
0.7162126805565808
 40
0.8149520912889101
 40
0.9139573670126485
 40
1.0
 40
1.0
 40
1.0
 40
1.0
 10
3.855388994903634
 20
7.729192553131705
 30
0.0
 10
3.855423239688913
 20
7.729038685103449
 30
0.0
 10
3.855491689242038
 20
7.728731128852517
 30
0.0
 10
3.856074483605642
 20
7.729208782469449
 30
0.0
 10
3.856955434417623
 20
7.730336426566209
 30
0.0
 10
3.857978810181306
 20
7.732096151662147
 30
0.0
 10
3.858781973314861
 20
7.734247453096375
 30
0.0
 10
3.859090019702727
 20
7.736482159492817
 30
0.0
 10
3.858878193311679
 20
7.738584128148569
 30
0.0
 10
3.858250701013757
 20
7.740578017279769
 30
0.0
 10
3.857311653902264
 20
7.742448829760386
 30
0.0
 10
3.856274690350592
 20
7.743942657431827
 30
0.0
 10
3.855513454233695
 20
7.744693082793221
 30
0.0
 10
3.855428497604065
 20
7.744373205598554
 30
0.0
 10
3.855388994903634
 20
7.74422447073171
 30
0.0
  0
LINE
  5
1CA
330
1F
100
AcDbEntity
  8
0
  6
Continuous
 62
     7
370
    15
100
AcDbLine
 10
3.8710140211
 20
8.2416665267
 30
0.0
 11
4.5267014865
 21
8.2416665267
 31
0.0
  0
LINE
  5
1CB
330
1F
100
AcDbEntity
  8
0
  6
Continuous
 62
     7
370
    15
100
AcDbLine
 10
4.5267014865
 20
8.2416665267
 30
0.0
 11
4.5267014865
 21
8.2104165111
 31
0.0
  0
LINE
  5
1CC
330
1F
100
AcDbEntity
  8
0
  6
Continuous
 62
     7
370
    15
100
AcDbLine
 10
4.5267014865
 20
8.2104165111
 30
0.0
 11
3.8710140211
 21
8.2104165111
 31
0.0
  0
LINE
  5
1CD
330
1F
100
AcDbEntity
  8
0
  6
Continuous
 62
     7
370
    15
100
AcDbLine
 10
3.8710140211
 20
8.2104165111
 30
0.0
 11
3.8710140211
 21
8.2416665267
 31
0.0
  0
LINE
  5
1CE
330
1F
100
AcDbEntity
  8
0
  6
Continuous
 62
     7
370
    15
100
AcDbLine
 10
4.5267014865
 20
7.3800563435
 30
0.0
 11
4.5267014865
 21
8.2104165111
 31
0.0
  0
LINE
  5
1CF
330
1F
100
AcDbEntity
  8
0
  6
Continuous
 62
     7
370
    15
100
AcDbLine
 10
4.5267014865
 20
7.3800563435
 30
0.0
 11
4.4019827456
 21
7.2260415127
 31
0.0
  0
LINE
  5
1D0
330
1F
100
AcDbEntity
  8
0
  6
Continuous
 62
     7
370
    15
100
AcDbLine
 10
3.8710140211
 20
7.2260415127
 30
0.0
 11
3.8710140211
 21
8.2104165111
 31
0.0
  0
LINE
  5
1D1
330
1F
100
AcDbEntity
  8
0
  6
Continuous
 62
     7
370
    15
100
AcDbLine
 10
3.8710140211
 20
7.2260415127
 30
0.0
 11
3.9686077537
 21
7.2260415127
 31
0.0
  0
LINE
  5
1D2
330
1F
100
AcDbEntity
  8
0
  6
Continuous
 62
     7
370
    15
100
AcDbLine
 10
4.5267014865
 20
7.2260415127
 30
0.0
 11
4.5267014865
 21
7.2651430176
 31
0.0
  0
LINE
  5
1D3
330
1F
100
AcDbEntity
  8
0
  6
Continuous
 62
     7
370
    15
100
AcDbLine
 10
4.5267014865
 20
7.2957322343
 30
0.0
 11
4.5267014865
 21
7.3191592136
 31
0.0
  0
LINE
  5
1D4
330
1F
100
AcDbEntity
  8
0
  6
Continuous
 62
     7
370
    15
100
AcDbLine
 10
4.5267014865
 20
7.3322792021
 30
0.0
 11
4.5267014865
 21
7.3800563435
 31
0.0
  0
LINE
  5
1D5
330
1F
100
AcDbEntity
  8
0
  6
Continuous
 62
     7
370
    15
100
AcDbLine
 10
4.4291077539
 20
7.2260415127
 30
0.0
 11
4.4366528234
 21
7.2260415127
 31
0.0
  0
LINE
  5
1D6
330
1F
100
AcDbEntity
  8
0
  6
Continuous
 62
     7
370
    15
100
AcDbLine
 10
4.4938621359
 20
7.2260415127
 30
0.0
 11
4.5267014865
 21
7.2260415127
 31
0.0
  0
LINE
  5
1D7
330
1F
100
AcDbEntity
  8
0
  6
Continuous
 62
     7
370
    15
100
AcDbLine
 10
3.4598890038
 20
7.355422018
 30
0.0
 11
3.4598890038
 21
7.4247970066
 31
0.0
  0
LINE
  5
1D8
330
1F
100
AcDbEntity
  8
0
  6
Continuous
 62
     7
370
    15
100
AcDbLine
 10
3.3817640196
 20
7.3659112402
 30
0.0
 11
3.3817640196
 21
7.4143077845
 31
0.0
  0
LINE
  5
1D9
330
1F
100
AcDbEntity
  8
0
  6
Continuous
 62
     7
370
    15
100
AcDbLine
 10
3.379100217
 20
7.3696606569
 30
0.0
 11
3.379100217
 21
7.4105582944
 31
0.0
  0
LINE
  5
1DA
330
1F
100
AcDbEntity
  8
0
  6
Continuous
 62
     7
370
    15
100
AcDbLine
 10
3.297388981
 20
7.3677862419
 30
0.0
 11
3.297388981
 21
7.4124327828
 31
0.0
  0
LINE
  5
1DB
330
1F
100
AcDbEntity
  8
0
  6
Continuous
 62
     7
370
    15
100
AcDbLine
 10
2.9817911868
 20
7.376984519
 30
0.0
 11
2.9817911868
 21
7.4032345057
 31
0.0
  0
LINE
  5
1DC
330
1F
100
AcDbEntity
  8
0
  6
Continuous
 62
     7
370
    15
100
AcDbLine
 10
3.5011389672
 20
7.4247970066
 30
0.0
 11
3.5011389672
 21
7.355422018
 31
0.0
  0
LINE
  5
1DD
330
1F
100
AcDbEntity
  8
0
  6
Continuous
 62
     7
370
    15
100
AcDbLine
 10
3.4980139767
 20
7.4247462972
 30
0.0
 11
3.4817640111
 21
7.4247462972
 31
0.0
  0
LINE
  5
1DE
330
1F
100
AcDbEntity
  8
0
  6
Continuous
 62
     7
370
    15
100
AcDbLine
 10
3.4980139767
 20
7.42479136
 30
0.0
 11
3.4980139767
 21
7.4247462972
 31
0.0
  0
LINE
  5
1DF
330
1F
100
AcDbEntity
  8
0
  6
Continuous
 62
     7
370
    15
100
AcDbLine
 10
3.4817640111
 20
7.42479136
 30
0.0
 11
3.4980139767
 21
7.42479136
 31
0.0
  0
LINE
  5
1E0
330
1F
100
AcDbEntity
  8
0
  6
Continuous
 62
     7
370
    15
100
AcDbLine
 10
3.4817640111
 20
7.4247462972
 30
0.0
 11
3.4817640111
 21
7.42479136
 31
0.0
  0
LINE
  5
1E1
330
1F
100
AcDbEntity
  8
0
  6
Continuous
 62
     7
370
    15
100
AcDbLine
 10
3.4786390205
 20
7.4247462972
 30
0.0
 11
3.4623889815
 21
7.4247462972
 31
0.0
  0
LINE
  5
1E2
330
1F
100
AcDbEntity
  8
0
  6
Continuous
 62
     7
370
    15
100
AcDbLine
 10
3.4786390205
 20
7.42479136
 30
0.0
 11
3.4786390205
 21
7.4247462972
 31
0.0
  0
LINE
  5
1E3
330
1F
100
AcDbEntity
  8
0
  6
Continuous
 62
     7
370
    15
100
AcDbLine
 10
3.4623889815
 20
7.42479136
 30
0.0
 11
3.4786390205
 21
7.42479136
 31
0.0
  0
LINE
  5
1E4
330
1F
100
AcDbEntity
  8
0
  6
Continuous
 62
     7
370
    15
100
AcDbLine
 10
3.4623889815
 20
7.4247462972
 30
0.0
 11
3.4623889815
 21
7.42479136
 31
0.0
  0
LINE
  5
1E5
330
1F
100
AcDbEntity
  8
0
  6
Continuous
 62
     7
370
    15
100
AcDbLine
 10
3.4980139767
 20
7.4242052501
 30
0.0
 11
3.4817640111
 21
7.4242052501
 31
0.0
  0
LINE
  5
1E6
330
1F
100
AcDbEntity
  8
0
  6
Continuous
 62
     7
370
    15
100
AcDbLine
 10
3.4980139767
 20
7.4244130744
 30
0.0
 11
3.4980139767
 21
7.4242052501
 31
0.0
  0
LINE
  5
1E7
330
1F
100
AcDbEntity
  8
0
  6
Continuous
 62
     7
370
    15
100
AcDbLine
 10
3.4817640111
 20
7.4244130744
 30
0.0
 11
3.4980139767
 21
7.4244130744
 31
0.0
  0
LINE
  5
1E8
330
1F
100
AcDbEntity
  8
0
  6
Continuous
 62
     7
370
    15
100
AcDbLine
 10
3.4817640111
 20
7.4242052501
 30
0.0
 11
3.4817640111
 21
7.4244130744
 31
0.0
  0
LINE
  5
1E9
330
1F
100
AcDbEntity
  8
0
  6
Continuous
 62
     7
370
    15
100
AcDbLine
 10
3.4786390205
 20
7.4242052501
 30
0.0
 11
3.4623889815
 21
7.4242052501
 31
0.0
  0
LINE
  5
1EA
330
1F
100
AcDbEntity
  8
0
  6
Continuous
 62
     7
370
    15
100
AcDbLine
 10
3.4786390205
 20
7.4244130744
 30
0.0
 11
3.4786390205
 21
7.4242052501
 31
0.0
  0
LINE
  5
1EB
330
1F
100
AcDbEntity
  8
0
  6
Continuous
 62
     7
370
    15
100
AcDbLine
 10
3.4623889815
 20
7.4244130744
 30
0.0
 11
3.4786390205
 21
7.4244130744
 31
0.0
  0
LINE
  5
1EC
330
1F
100
AcDbEntity
  8
0
  6
Continuous
 62
     7
370
    15
100
AcDbLine
 10
3.4623889815
 20
7.4242052501
 30
0.0
 11
3.4623889815
 21
7.4244130744
 31
0.0
  0
LINE
  5
1ED
330
1F
100
AcDbEntity
  8
0
  6
Continuous
 62
     7
370
    15
100
AcDbLine
 10
3.4980139767
 20
7.4230807698
 30
0.0
 11
3.4817640111
 21
7.4230807698
 31
0.0
  0
LINE
  5
1EE
330
1F
100
AcDbEntity
  8
0
  6
Continuous
 62
     7
370
    15
100
AcDbLine
 10
3.4980139767
 20
7.4234478722
 30
0.0
 11
3.4980139767
 21
7.4230807698
 31
0.0
  0
LINE
  5
1EF
330
1F
100
AcDbEntity
  8
0
  6
Continuous
 62
     7
370
    15
100
AcDbLine
 10
3.4817640111
 20
7.4234478722
 30
0.0
 11
3.4980139767
 21
7.4234478722
 31
0.0
  0
LINE
  5
1F0
330
1F
100
AcDbEntity
  8
0
  6
Continuous
 62
     7
370
    15
100
AcDbLine
 10
3.4817640111
 20
7.4230807698
 30
0.0
 11
3.4817640111
 21
7.4234478722
 31
0.0
  0
LINE
  5
1F1
330
1F
100
AcDbEntity
  8
0
  6
Continuous
 62
     7
370
    15
100
AcDbLine
 10
3.4786390205
 20
7.4230807698
 30
0.0
 11
3.4623889815
 21
7.4230807698
 31
0.0
  0
LINE
  5
1F2
330
1F
100
AcDbEntity
  8
0
  6
Continuous
 62
     7
370
    15
100
AcDbLine
 10
3.4786390205
 20
7.4234478722
 30
0.0
 11
3.4786390205
 21
7.4230807698
 31
0.0
  0
LINE
  5
1F3
330
1F
100
AcDbEntity
  8
0
  6
Continuous
 62
     7
370
    15
100
AcDbLine
 10
3.4623889815
 20
7.4234478722
 30
0.0
 11
3.4786390205
 21
7.4234478722
 31
0.0
  0
LINE
  5
1F4
330
1F
100
AcDbEntity
  8
0
  6
Continuous
 62
     7
370
    15
100
AcDbLine
 10
3.4623889815
 20
7.4230807698
 30
0.0
 11
3.4623889815
 21
7.4234478722
 31
0.0
  0
LINE
  5
1F5
330
1F
100
AcDbEntity
  8
0
  6
Continuous
 62
     7
370
    15
100
AcDbLine
 10
3.4980139767
 20
7.4213921793
 30
0.0
 11
3.4817640111
 21
7.4213921793
 31
0.0
  0
LINE
  5
1F6
330
1F
100
AcDbEntity
  8
0
  6
Continuous
 62
     7
370
    15
100
AcDbLine
 10
3.4980139767
 20
7.4219121799
 30
0.0
 11
3.4980139767
 21
7.4213921793
 31
0.0
  0
LINE
  5
1F7
330
1F
100
AcDbEntity
  8
0
  6
Continuous
 62
     7
370
    15
100
AcDbLine
 10
3.4817640111
 20
7.4219121799
 30
0.0
 11
3.4980139767
 21
7.4219121799
 31
0.0
  0
LINE
  5
1F8
330
1F
100
AcDbEntity
  8
0
  6
Continuous
 62
     7
370
    15
100
AcDbLine
 10
3.4817640111
 20
7.4213921793
 30
0.0
 11
3.4817640111
 21
7.4219121799
 31
0.0
  0
LINE
  5
1F9
330
1F
100
AcDbEntity
  8
0
  6
Continuous
 62
     7
370
    15
100
AcDbLine
 10
3.4786390205
 20
7.4213921793
 30
0.0
 11
3.4623889815
 21
7.4213921793
 31
0.0
  0
LINE
  5
1FA
330
1F
100
AcDbEntity
  8
0
  6
Continuous
 62
     7
370
    15
100
AcDbLine
 10
3.4786390205
 20
7.4219121799
 30
0.0
 11
3.4786390205
 21
7.4213921793
 31
0.0
  0
LINE
  5
1FB
330
1F
100
AcDbEntity
  8
0
  6
Continuous
 62
     7
370
    15
100
AcDbLine
 10
3.4623889815
 20
7.4219121799
 30
0.0
 11
3.4786390205
 21
7.4219121799
 31
0.0
  0
LINE
  5
1FC
330
1F
100
AcDbEntity
  8
0
  6
Continuous
 62
     7
370
    15
100
AcDbLine
 10
3.4623889815
 20
7.4213921793
 30
0.0
 11
3.4623889815
 21
7.4219121799
 31
0.0
  0
LINE
  5
1FD
330
1F
100
AcDbEntity
  8
0
  6
Continuous
 62
     7
370
    15
100
AcDbLine
 10
3.4980139767
 20
7.419168335
 30
0.0
 11
3.4817640111
 21
7.419168335
 31
0.0
  0
LINE
  5
1FE
330
1F
100
AcDbEntity
  8
0
  6
Continuous
 62
     7
370
    15
100
AcDbLine
 10
3.4980139767
 20
7.4198323973
 30
0.0
 11
3.4980139767
 21
7.419168335
 31
0.0
  0
LINE
  5
1FF
330
1F
100
AcDbEntity
  8
0
  6
Continuous
 62
     7
370
    15
100
AcDbLine
 10
3.4817640111
 20
7.4198323973
 30
0.0
 11
3.4980139767
 21
7.4198323973
 31
0.0
  0
LINE
  5
200
330
1F
100
AcDbEntity
  8
0
  6
Continuous
 62
     7
370
    15
100
AcDbLine
 10
3.4817640111
 20
7.419168335
 30
0.0
 11
3.4817640111
 21
7.4198323973
 31
0.0
  0
LINE
  5
201
330
1F
100
AcDbEntity
  8
0
  6
Continuous
 62
     7
370
    15
100
AcDbLine
 10
3.4786390205
 20
7.419168335
 30
0.0
 11
3.4623889815
 21
7.419168335
 31
0.0
  0
LINE
  5
202
330
1F
100
AcDbEntity
  8
0
  6
Continuous
 62
     7
370
    15
100
AcDbLine
 10
3.4786390205
 20
7.4198323973
 30
0.0
 11
3.4786390205
 21
7.419168335
 31
0.0
  0
LINE
  5
203
330
1F
100
AcDbEntity
  8
0
  6
Continuous
 62
     7
370
    15
100
AcDbLine
 10
3.4623889815
 20
7.4198323973
 30
0.0
 11
3.4786390205
 21
7.4198323973
 31
0.0
  0
LINE
  5
204
330
1F
100
AcDbEntity
  8
0
  6
Continuous
 62
     7
370
    15
100
AcDbLine
 10
3.4623889815
 20
7.419168335
 30
0.0
 11
3.4623889815
 21
7.4198323973
 31
0.0
  0
LINE
  5
205
330
1F
100
AcDbEntity
  8
0
  6
Continuous
 62
     7
370
    15
100
AcDbLine
 10
3.4980139767
 20
7.4164472964
 30
0.0
 11
3.4817640111
 21
7.4164472964
 31
0.0
  0
LINE
  5
206
330
1F
100
AcDbEntity
  8
0
  6
Continuous
 62
     7
370
    15
100
AcDbLine
 10
3.4980139767
 20
7.4172440172
 30
0.0
 11
3.4980139767
 21
7.4164472964
 31
0.0
  0
LINE
  5
207
330
1F
100
AcDbEntity
  8
0
  6
Continuous
 62
     7
370
    15
100
AcDbLine
 10
3.4817640111
 20
7.4172440172
 30
0.0
 11
3.4980139767
 21
7.4172440172
 31
0.0
  0
LINE
  5
208
330
1F
100
AcDbEntity
  8
0
  6
Continuous
 62
     7
370
    15
100
AcDbLine
 10
3.4817640111
 20
7.4164472964
 30
0.0
 11
3.4817640111
 21
7.4172440172
 31
0.0
  0
LINE
  5
209
330
1F
100
AcDbEntity
  8
0
  6
Continuous
 62
     7
370
    15
100
AcDbLine
 10
3.4786390205
 20
7.4164472964
 30
0.0
 11
3.4623889815
 21
7.4164472964
 31
0.0
  0
LINE
  5
20A
330
1F
100
AcDbEntity
  8
0
  6
Continuous
 62
     7
370
    15
100
AcDbLine
 10
3.4786390205
 20
7.4172440172
 30
0.0
 11
3.4786390205
 21
7.4164472964
 31
0.0
  0
LINE
  5
20B
330
1F
100
AcDbEntity
  8
0
  6
Continuous
 62
     7
370
    15
100
AcDbLine
 10
3.4623889815
 20
7.4172440172
 30
0.0
 11
3.4786390205
 21
7.4172440172
 31
0.0
  0
LINE
  5
20C
330
1F
100
AcDbEntity
  8
0
  6
Continuous
 62
     7
370
    15
100
AcDbLine
 10
3.4623889815
 20
7.4164472964
 30
0.0
 11
3.4623889815
 21
7.4172440172
 31
0.0
  0
LINE
  5
20D
330
1F
100
AcDbEntity
  8
0
  6
Continuous
 62
     7
370
    15
100
AcDbLine
 10
3.4980139767
 20
7.413275593
 30
0.0
 11
3.4817640111
 21
7.413275593
 31
0.0
  0
LINE
  5
20E
330
1F
100
AcDbEntity
  8
0
  6
Continuous
 62
     7
370
    15
100
AcDbLine
 10
3.4980139767
 20
7.4141913325
 30
0.0
 11
3.4980139767
 21
7.413275593
 31
0.0
  0
LINE
  5
20F
330
1F
100
AcDbEntity
  8
0
  6
Continuous
 62
     7
370
    15
100
AcDbLine
 10
3.4817640111
 20
7.4141913325
 30
0.0
 11
3.4980139767
 21
7.4141913325
 31
0.0
  0
LINE
  5
210
330
1F
100
AcDbEntity
  8
0
  6
Continuous
 62
     7
370
    15
100
AcDbLine
 10
3.4817640111
 20
7.413275593
 30
0.0
 11
3.4817640111
 21
7.4141913325
 31
0.0
  0
LINE
  5
211
330
1F
100
AcDbEntity
  8
0
  6
Continuous
 62
     7
370
    15
100
AcDbLine
 10
3.4786390205
 20
7.413275593
 30
0.0
 11
3.4623889815
 21
7.413275593
 31
0.0
  0
LINE
  5
212
330
1F
100
AcDbEntity
  8
0
  6
Continuous
 62
     7
370
    15
100
AcDbLine
 10
3.4786390205
 20
7.4141913325
 30
0.0
 11
3.4786390205
 21
7.413275593
 31
0.0
  0
LINE
  5
213
330
1F
100
AcDbEntity
  8
0
  6
Continuous
 62
     7
370
    15
100
AcDbLine
 10
3.4623889815
 20
7.4141913325
 30
0.0
 11
3.4786390205
 21
7.4141913325
 31
0.0
  0
LINE
  5
214
330
1F
100
AcDbEntity
  8
0
  6
Continuous
 62
     7
370
    15
100
AcDbLine
 10
3.4623889815
 20
7.413275593
 30
0.0
 11
3.4623889815
 21
7.4141913325
 31
0.0
  0
LINE
  5
215
330
1F
100
AcDbEntity
  8
0
  6
Continuous
 62
     7
370
    15
100
AcDbLine
 10
3.4980139767
 20
7.4097074909
 30
0.0
 11
3.4817640111
 21
7.4097074909
 31
0.0
  0
LINE
  5
216
330
1F
100
AcDbEntity
  8
0
  6
Continuous
 62
     7
370
    15
100
AcDbLine
 10
3.4980139767
 20
7.4107266292
 30
0.0
 11
3.4980139767
 21
7.4097074909
 31
0.0
  0
LINE
  5
217
330
1F
100
AcDbEntity
  8
0
  6
Continuous
 62
     7
370
    15
100
AcDbLine
 10
3.4817640111
 20
7.4107266292
 30
0.0
 11
3.4980139767
 21
7.4107266292
 31
0.0
  0
LINE
  5
218
330
1F
100
AcDbEntity
  8
0
  6
Continuous
 62
     7
370
    15
100
AcDbLine
 10
3.4817640111
 20
7.4097074909
 30
0.0
 11
3.4817640111
 21
7.4107266292
 31
0.0
  0
LINE
  5
219
330
1F
100
AcDbEntity
  8
0
  6
Continuous
 62
     7
370
    15
100
AcDbLine
 10
3.4786390205
 20
7.4097074909
 30
0.0
 11
3.4623889815
 21
7.4097074909
 31
0.0
  0
LINE
  5
21A
330
1F
100
AcDbEntity
  8
0
  6
Continuous
 62
     7
370
    15
100
AcDbLine
 10
3.4786390205
 20
7.4107266292
 30
0.0
 11
3.4786390205
 21
7.4097074909
 31
0.0
  0
LINE
  5
21B
330
1F
100
AcDbEntity
  8
0
  6
Continuous
 62
     7
370
    15
100
AcDbLine
 10
3.4623889815
 20
7.4107266292
 30
0.0
 11
3.4786390205
 21
7.4107266292
 31
0.0
  0
LINE
  5
21C
330
1F
100
AcDbEntity
  8
0
  6
Continuous
 62
     7
370
    15
100
AcDbLine
 10
3.4623889815
 20
7.4097074909
 30
0.0
 11
3.4623889815
 21
7.4107266292
 31
0.0
  0
LINE
  5
21D
330
1F
100
AcDbEntity
  8
0
  6
Continuous
 62
     7
370
    15
100
AcDbLine
 10
3.4980139767
 20
7.4058041127
 30
0.0
 11
3.4817640111
 21
7.4058041127
 31
0.0
  0
LINE
  5
21E
330
1F
100
AcDbEntity
  8
0
  6
Continuous
 62
     7
370
    15
100
AcDbLine
 10
3.4980139767
 20
7.4069091599
 30
0.0
 11
3.4980139767
 21
7.4058041127
 31
0.0
  0
LINE
  5
21F
330
1F
100
AcDbEntity
  8
0
  6
Continuous
 62
     7
370
    15
100
AcDbLine
 10
3.4817640111
 20
7.4069091599
 30
0.0
 11
3.4980139767
 21
7.4069091599
 31
0.0
  0
LINE
  5
220
330
1F
100
AcDbEntity
  8
0
  6
Continuous
 62
     7
370
    15
100
AcDbLine
 10
3.4817640111
 20
7.4058041127
 30
0.0
 11
3.4817640111
 21
7.4069091599
 31
0.0
  0
LINE
  5
221
330
1F
100
AcDbEntity
  8
0
  6
Continuous
 62
     7
370
    15
100
AcDbLine
 10
3.4786390205
 20
7.4058041127
 30
0.0
 11
3.4623889815
 21
7.4058041127
 31
0.0
  0
LINE
  5
222
330
1F
100
AcDbEntity
  8
0
  6
Continuous
 62
     7
370
    15
100
AcDbLine
 10
3.4786390205
 20
7.4069091599
 30
0.0
 11
3.4786390205
 21
7.4058041127
 31
0.0
  0
LINE
  5
223
330
1F
100
AcDbEntity
  8
0
  6
Continuous
 62
     7
370
    15
100
AcDbLine
 10
3.4623889815
 20
7.4069091599
 30
0.0
 11
3.4786390205
 21
7.4069091599
 31
0.0
  0
LINE
  5
224
330
1F
100
AcDbEntity
  8
0
  6
Continuous
 62
     7
370
    15
100
AcDbLine
 10
3.4623889815
 20
7.4058041127
 30
0.0
 11
3.4623889815
 21
7.4069091599
 31
0.0
  0
LINE
  5
225
330
1F
100
AcDbEntity
  8
0
  6
Continuous
 62
     7
370
    15
100
AcDbLine
 10
3.4980139767
 20
7.4016321542
 30
0.0
 11
3.4817640111
 21
7.4016321542
 31
0.0
  0
LINE
  5
226
330
1F
100
AcDbEntity
  8
0
  6
Continuous
 62
     7
370
    15
100
AcDbLine
 10
3.4980139767
 20
7.402804264
 30
0.0
 11
3.4980139767
 21
7.4016321542
 31
0.0
  0
LINE
  5
227
330
1F
100
AcDbEntity
  8
0
  6
Continuous
 62
     7
370
    15
100
AcDbLine
 10
3.4817640111
 20
7.402804264
 30
0.0
 11
3.4980139767
 21
7.402804264
 31
0.0
  0
LINE
  5
228
330
1F
100
AcDbEntity
  8
0
  6
Continuous
 62
     7
370
    15
100
AcDbLine
 10
3.4817640111
 20
7.4016321542
 30
0.0
 11
3.4817640111
 21
7.402804264
 31
0.0
  0
LINE
  5
229
330
1F
100
AcDbEntity
  8
0
  6
Continuous
 62
     7
370
    15
100
AcDbLine
 10
3.4786390205
 20
7.4016321542
 30
0.0
 11
3.4623889815
 21
7.4016321542
 31
0.0
  0
LINE
  5
22A
330
1F
100
AcDbEntity
  8
0
  6
Continuous
 62
     7
370
    15
100
AcDbLine
 10
3.4786390205
 20
7.402804264
 30
0.0
 11
3.4786390205
 21
7.4016321542
 31
0.0
  0
LINE
  5
22B
330
1F
100
AcDbEntity
  8
0
  6
Continuous
 62
     7
370
    15
100
AcDbLine
 10
3.4623889815
 20
7.402804264
 30
0.0
 11
3.4786390205
 21
7.402804264
 31
0.0
  0
LINE
  5
22C
330
1F
100
AcDbEntity
  8
0
  6
Continuous
 62
     7
370
    15
100
AcDbLine
 10
3.4623889815
 20
7.4016321542
 30
0.0
 11
3.4623889815
 21
7.402804264
 31
0.0
  0
LINE
  5
22D
330
1F
100
AcDbEntity
  8
0
  6
Continuous
 62
     7
370
    15
100
AcDbLine
 10
3.4980139767
 20
7.3972630414
 30
0.0
 11
3.4817640111
 21
7.3972630414
 31
0.0
  0
LINE
  5
22E
330
1F
100
AcDbEntity
  8
0
  6
Continuous
 62
     7
370
    15
100
AcDbLine
 10
3.4980139767
 20
7.3984821206
 30
0.0
 11
3.4980139767
 21
7.3972630414
 31
0.0
  0
LINE
  5
22F
330
1F
100
AcDbEntity
  8
0
  6
Continuous
 62
     7
370
    15
100
AcDbLine
 10
3.4817640111
 20
7.3984821206
 30
0.0
 11
3.4980139767
 21
7.3984821206
 31
0.0
  0
LINE
  5
230
330
1F
100
AcDbEntity
  8
0
  6
Continuous
 62
     7
370
    15
100
AcDbLine
 10
3.4817640111
 20
7.3972630414
 30
0.0
 11
3.4817640111
 21
7.3984821206
 31
0.0
  0
LINE
  5
231
330
1F
100
AcDbEntity
  8
0
  6
Continuous
 62
     7
370
    15
100
AcDbLine
 10
3.4786390205
 20
7.3972630414
 30
0.0
 11
3.4623889815
 21
7.3972630414
 31
0.0
  0
LINE
  5
232
330
1F
100
AcDbEntity
  8
0
  6
Continuous
 62
     7
370
    15
100
AcDbLine
 10
3.4786390205
 20
7.3984821206
 30
0.0
 11
3.4786390205
 21
7.3972630414
 31
0.0
  0
LINE
  5
233
330
1F
100
AcDbEntity
  8
0
  6
Continuous
 62
     7
370
    15
100
AcDbLine
 10
3.4623889815
 20
7.3984821206
 30
0.0
 11
3.4786390205
 21
7.3984821206
 31
0.0
  0
LINE
  5
234
330
1F
100
AcDbEntity
  8
0
  6
Continuous
 62
     7
370
    15
100
AcDbLine
 10
3.4623889815
 20
7.3972630414
 30
0.0
 11
3.4623889815
 21
7.3984821206
 31
0.0
  0
LINE
  5
235
330
1F
100
AcDbEntity
  8
0
  6
Continuous
 62
     7
370
    15
100
AcDbLine
 10
3.4980139767
 20
7.3927715366
 30
0.0
 11
3.4817640111
 21
7.3927715366
 31
0.0
  0
LINE
  5
236
330
1F
100
AcDbEntity
  8
0
  6
Continuous
 62
     7
370
    15
100
AcDbLine
 10
3.4980139767
 20
7.3940167589
 30
0.0
 11
3.4980139767
 21
7.3927715366
 31
0.0
  0
LINE
  5
237
330
1F
100
AcDbEntity
  8
0
  6
Continuous
 62
     7
370
    15
100
AcDbLine
 10
3.4817640111
 20
7.3940167589
 30
0.0
 11
3.4980139767
 21
7.3940167589
 31
0.0
  0
LINE
  5
238
330
1F
100
AcDbEntity
  8
0
  6
Continuous
 62
     7
370
    15
100
AcDbLine
 10
3.4817640111
 20
7.3927715366
 30
0.0
 11
3.4817640111
 21
7.3940167589
 31
0.0
  0
LINE
  5
239
330
1F
100
AcDbEntity
  8
0
  6
Continuous
 62
     7
370
    15
100
AcDbLine
 10
3.4786390205
 20
7.3927715366
 30
0.0
 11
3.4623889815
 21
7.3927715366
 31
0.0
  0
LINE
  5
23A
330
1F
100
AcDbEntity
  8
0
  6
Continuous
 62
     7
370
    15
100
AcDbLine
 10
3.4786390205
 20
7.3940167589
 30
0.0
 11
3.4786390205
 21
7.3927715366
 31
0.0
  0
LINE
  5
23B
330
1F
100
AcDbEntity
  8
0
  6
Continuous
 62
     7
370
    15
100
AcDbLine
 10
3.4623889815
 20
7.3940167589
 30
0.0
 11
3.4786390205
 21
7.3940167589
 31
0.0
  0
LINE
  5
23C
330
1F
100
AcDbEntity
  8
0
  6
Continuous
 62
     7
370
    15
100
AcDbLine
 10
3.4623889815
 20
7.3927715366
 30
0.0
 11
3.4623889815
 21
7.3940167589
 31
0.0
  0
LINE
  5
23D
330
1F
100
AcDbEntity
  8
0
  6
Continuous
 62
     7
370
    15
100
AcDbLine
 10
3.4980139767
 20
7.3882344923
 30
0.0
 11
3.4817640111
 21
7.3882344923
 31
0.0
  0
LINE
  5
23E
330
1F
100
AcDbEntity
  8
0
  6
Continuous
 62
     7
370
    15
100
AcDbLine
 10
3.4980139767
 20
7.3894845179
 30
0.0
 11
3.4980139767
 21
7.3882344923
 31
0.0
  0
LINE
  5
23F
330
1F
100
AcDbEntity
  8
0
  6
Continuous
 62
     7
370
    15
100
AcDbLine
 10
3.4817640111
 20
7.3894845179
 30
0.0
 11
3.4980139767
 21
7.3894845179
 31
0.0
  0
LINE
  5
240
330
1F
100
AcDbEntity
  8
0
  6
Continuous
 62
     7
370
    15
100
AcDbLine
 10
3.4817640111
 20
7.3882344923
 30
0.0
 11
3.4817640111
 21
7.3894845179
 31
0.0
  0
LINE
  5
241
330
1F
100
AcDbEntity
  8
0
  6
Continuous
 62
     7
370
    15
100
AcDbLine
 10
3.4786390205
 20
7.3882344923
 30
0.0
 11
3.4623889815
 21
7.3882344923
 31
0.0
  0
LINE
  5
242
330
1F
100
AcDbEntity
  8
0
  6
Continuous
 62
     7
370
    15
100
AcDbLine
 10
3.4786390205
 20
7.3894845179
 30
0.0
 11
3.4786390205
 21
7.3882344923
 31
0.0
  0
LINE
  5
243
330
1F
100
AcDbEntity
  8
0
  6
Continuous
 62
     7
370
    15
100
AcDbLine
 10
3.4623889815
 20
7.3894845179
 30
0.0
 11
3.4786390205
 21
7.3894845179
 31
0.0
  0
LINE
  5
244
330
1F
100
AcDbEntity
  8
0
  6
Continuous
 62
     7
370
    15
100
AcDbLine
 10
3.4623889815
 20
7.3882344923
 30
0.0
 11
3.4623889815
 21
7.3894845179
 31
0.0
  0
LINE
  5
245
330
1F
100
AcDbEntity
  8
0
  6
Continuous
 62
     7
370
    15
100
AcDbLine
 10
3.4980139767
 20
7.383729531
 30
0.0
 11
3.4817640111
 21
7.383729531
 31
0.0
  0
LINE
  5
246
330
1F
100
AcDbEntity
  8
0
  6
Continuous
 62
     7
370
    15
100
AcDbLine
 10
3.4980139767
 20
7.3849629468
 30
0.0
 11
3.4980139767
 21
7.383729531
 31
0.0
  0
LINE
  5
247
330
1F
100
AcDbEntity
  8
0
  6
Continuous
 62
     7
370
    15
100
AcDbLine
 10
3.4817640111
 20
7.3849629468
 30
0.0
 11
3.4980139767
 21
7.3849629468
 31
0.0
  0
LINE
  5
248
330
1F
100
AcDbEntity
  8
0
  6
Continuous
 62
     7
370
    15
100
AcDbLine
 10
3.4817640111
 20
7.383729531
 30
0.0
 11
3.4817640111
 21
7.3849629468
 31
0.0
  0
LINE
  5
249
330
1F
100
AcDbEntity
  8
0
  6
Continuous
 62
     7
370
    15
100
AcDbLine
 10
3.4786390205
 20
7.383729531
 30
0.0
 11
3.4623889815
 21
7.383729531
 31
0.0
  0
LINE
  5
24A
330
1F
100
AcDbEntity
  8
0
  6
Continuous
 62
     7
370
    15
100
AcDbLine
 10
3.4786390205
 20
7.3849629468
 30
0.0
 11
3.4786390205
 21
7.383729531
 31
0.0
  0
LINE
  5
24B
330
1F
100
AcDbEntity
  8
0
  6
Continuous
 62
     7
370
    15
100
AcDbLine
 10
3.4623889815
 20
7.3849629468
 30
0.0
 11
3.4786390205
 21
7.3849629468
 31
0.0
  0
LINE
  5
24C
330
1F
100
AcDbEntity
  8
0
  6
Continuous
 62
     7
370
    15
100
AcDbLine
 10
3.4623889815
 20
7.383729531
 30
0.0
 11
3.4623889815
 21
7.3849629468
 31
0.0
  0
LINE
  5
24D
330
1F
100
AcDbEntity
  8
0
  6
Continuous
 62
     7
370
    15
100
AcDbLine
 10
3.4980139767
 20
7.3793337251
 30
0.0
 11
3.4817640111
 21
7.3793337251
 31
0.0
  0
LINE
  5
24E
330
1F
100
AcDbEntity
  8
0
  6
Continuous
 62
     7
370
    15
100
AcDbLine
 10
3.4980139767
 20
7.3805294847
 30
0.0
 11
3.4980139767
 21
7.3793337251
 31
0.0
  0
LINE
  5
24F
330
1F
100
AcDbEntity
  8
0
  6
Continuous
 62
     7
370
    15
100
AcDbLine
 10
3.4817640111
 20
7.3805294847
 30
0.0
 11
3.4980139767
 21
7.3805294847
 31
0.0
  0
LINE
  5
250
330
1F
100
AcDbEntity
  8
0
  6
Continuous
 62
     7
370
    15
100
AcDbLine
 10
3.4817640111
 20
7.3793337251
 30
0.0
 11
3.4817640111
 21
7.3805294847
 31
0.0
  0
LINE
  5
251
330
1F
100
AcDbEntity
  8
0
  6
Continuous
 62
     7
370
    15
100
AcDbLine
 10
3.4786390205
 20
7.3793337251
 30
0.0
 11
3.4623889815
 21
7.3793337251
 31
0.0
  0
LINE
  5
252
330
1F
100
AcDbEntity
  8
0
  6
Continuous
 62
     7
370
    15
100
AcDbLine
 10
3.4786390205
 20
7.3805294847
 30
0.0
 11
3.4786390205
 21
7.3793337251
 31
0.0
  0
LINE
  5
253
330
1F
100
AcDbEntity
  8
0
  6
Continuous
 62
     7
370
    15
100
AcDbLine
 10
3.4623889815
 20
7.3805294847
 30
0.0
 11
3.4786390205
 21
7.3805294847
 31
0.0
  0
LINE
  5
254
330
1F
100
AcDbEntity
  8
0
  6
Continuous
 62
     7
370
    15
100
AcDbLine
 10
3.4623889815
 20
7.3793337251
 30
0.0
 11
3.4623889815
 21
7.3805294847
 31
0.0
  0
LINE
  5
255
330
1F
100
AcDbEntity
  8
0
  6
Continuous
 62
     7
370
    15
100
AcDbLine
 10
3.4980139767
 20
7.3751223138
 30
0.0
 11
3.4817640111
 21
7.3751223138
 31
0.0
  0
LINE
  5
256
330
1F
100
AcDbEntity
  8
0
  6
Continuous
 62
     7
370
    15
100
AcDbLine
 10
3.4980139767
 20
7.3762599207
 30
0.0
 11
3.4980139767
 21
7.3751223138
 31
0.0
  0
LINE
  5
257
330
1F
100
AcDbEntity
  8
0
  6
Continuous
 62
     7
370
    15
100
AcDbLine
 10
3.4817640111
 20
7.3762599207
 30
0.0
 11
3.4980139767
 21
7.3762599207
 31
0.0
  0
LINE
  5
258
330
1F
100
AcDbEntity
  8
0
  6
Continuous
 62
     7
370
    15
100
AcDbLine
 10
3.4817640111
 20
7.3751223138
 30
0.0
 11
3.4817640111
 21
7.3762599207
 31
0.0
  0
LINE
  5
259
330
1F
100
AcDbEntity
  8
0
  6
Continuous
 62
     7
370
    15
100
AcDbLine
 10
3.4786390205
 20
7.3751223138
 30
0.0
 11
3.4623889815
 21
7.3751223138
 31
0.0
  0
LINE
  5
25A
330
1F
100
AcDbEntity
  8
0
  6
Continuous
 62
     7
370
    15
100
AcDbLine
 10
3.4786390205
 20
7.3762599207
 30
0.0
 11
3.4786390205
 21
7.3751223138
 31
0.0
  0
LINE
  5
25B
330
1F
100
AcDbEntity
  8
0
  6
Continuous
 62
     7
370
    15
100
AcDbLine
 10
3.4623889815
 20
7.3762599207
 30
0.0
 11
3.4786390205
 21
7.3762599207
 31
0.0
  0
LINE
  5
25C
330
1F
100
AcDbEntity
  8
0
  6
Continuous
 62
     7
370
    15
100
AcDbLine
 10
3.4623889815
 20
7.3751223138
 30
0.0
 11
3.4623889815
 21
7.3762599207
 31
0.0
  0
LINE
  5
25D
330
1F
100
AcDbEntity
  8
0
  6
Continuous
 62
     7
370
    15
100
AcDbLine
 10
3.4980139767
 20
7.3711673095
 30
0.0
 11
3.4817640111
 21
7.3711673095
 31
0.0
  0
LINE
  5
25E
330
1F
100
AcDbEntity
  8
0
  6
Continuous
 62
     7
370
    15
100
AcDbLine
 10
3.4980139767
 20
7.3722272939
 30
0.0
 11
3.4980139767
 21
7.3711673095
 31
0.0
  0
LINE
  5
25F
330
1F
100
AcDbEntity
  8
0
  6
Continuous
 62
     7
370
    15
100
AcDbLine
 10
3.4817640111
 20
7.3722272939
 30
0.0
 11
3.4980139767
 21
7.3722272939
 31
0.0
  0
LINE
  5
260
330
1F
100
AcDbEntity
  8
0
  6
Continuous
 62
     7
370
    15
100
AcDbLine
 10
3.4817640111
 20
7.3711673095
 30
0.0
 11
3.4817640111
 21
7.3722272939
 31
0.0
  0
LINE
  5
261
330
1F
100
AcDbEntity
  8
0
  6
Continuous
 62
     7
370
    15
100
AcDbLine
 10
3.4786390205
 20
7.3711673095
 30
0.0
 11
3.4623889815
 21
7.3711673095
 31
0.0
  0
LINE
  5
262
330
1F
100
AcDbEntity
  8
0
  6
Continuous
 62
     7
370
    15
100
AcDbLine
 10
3.4786390205
 20
7.3722272939
 30
0.0
 11
3.4786390205
 21
7.3711673095
 31
0.0
  0
LINE
  5
263
330
1F
100
AcDbEntity
  8
0
  6
Continuous
 62
     7
370
    15
100
AcDbLine
 10
3.4623889815
 20
7.3722272939
 30
0.0
 11
3.4786390205
 21
7.3722272939
 31
0.0
  0
LINE
  5
264
330
1F
100
AcDbEntity
  8
0
  6
Continuous
 62
     7
370
    15
100
AcDbLine
 10
3.4623889815
 20
7.3711673095
 30
0.0
 11
3.4623889815
 21
7.3722272939
 31
0.0
  0
LINE
  5
265
330
1F
100
AcDbEntity
  8
0
  6
Continuous
 62
     7
370
    15
100
AcDbLine
 10
3.4980139767
 20
7.3675364348
 30
0.0
 11
3.4817640111
 21
7.3675364348
 31
0.0
  0
LINE
  5
266
330
1F
100
AcDbEntity
  8
0
  6
Continuous
 62
     7
370
    15
100
AcDbLine
 10
3.4980139767
 20
7.3685006836
 30
0.0
 11
3.4980139767
 21
7.3675364348
 31
0.0
  0
LINE
  5
267
330
1F
100
AcDbEntity
  8
0
  6
Continuous
 62
     7
370
    15
100
AcDbLine
 10
3.4817640111
 20
7.3685006836
 30
0.0
 11
3.4980139767
 21
7.3685006836
 31
0.0
  0
LINE
  5
268
330
1F
100
AcDbEntity
  8
0
  6
Continuous
 62
     7
370
    15
100
AcDbLine
 10
3.4817640111
 20
7.3675364348
 30
0.0
 11
3.4817640111
 21
7.3685006836
 31
0.0
  0
LINE
  5
269
330
1F
100
AcDbEntity
  8
0
  6
Continuous
 62
     7
370
    15
100
AcDbLine
 10
3.4786390205
 20
7.3675364348
 30
0.0
 11
3.4623889815
 21
7.3675364348
 31
0.0
  0
LINE
  5
26A
330
1F
100
AcDbEntity
  8
0
  6
Continuous
 62
     7
370
    15
100
AcDbLine
 10
3.4786390205
 20
7.3685006836
 30
0.0
 11
3.4786390205
 21
7.3675364348
 31
0.0
  0
LINE
  5
26B
330
1F
100
AcDbEntity
  8
0
  6
Continuous
 62
     7
370
    15
100
AcDbLine
 10
3.4623889815
 20
7.3685006836
 30
0.0
 11
3.4786390205
 21
7.3685006836
 31
0.0
  0
LINE
  5
26C
330
1F
100
AcDbEntity
  8
0
  6
Continuous
 62
     7
370
    15
100
AcDbLine
 10
3.4623889815
 20
7.3675364348
 30
0.0
 11
3.4623889815
 21
7.3685006836
 31
0.0
  0
LINE
  5
26D
330
1F
100
AcDbEntity
  8
0
  6
Continuous
 62
     7
370
    15
100
AcDbLine
 10
3.4980139767
 20
7.3642917656
 30
0.0
 11
3.4817640111
 21
7.3642917656
 31
0.0
  0
LINE
  5
26E
330
1F
100
AcDbEntity
  8
0
  6
Continuous
 62
     7
370
    15
100
AcDbLine
 10
3.4980139767
 20
7.3651437791
 30
0.0
 11
3.4980139767
 21
7.3642917656
 31
0.0
  0
LINE
  5
26F
330
1F
100
AcDbEntity
  8
0
  6
Continuous
 62
     7
370
    15
100
AcDbLine
 10
3.4817640111
 20
7.3651437791
 30
0.0
 11
3.4980139767
 21
7.3651437791
 31
0.0
  0
LINE
  5
270
330
1F
100
AcDbEntity
  8
0
  6
Continuous
 62
     7
370
    15
100
AcDbLine
 10
3.4817640111
 20
7.3642917656
 30
0.0
 11
3.4817640111
 21
7.3651437791
 31
0.0
  0
LINE
  5
271
330
1F
100
AcDbEntity
  8
0
  6
Continuous
 62
     7
370
    15
100
AcDbLine
 10
3.4786390205
 20
7.3642917656
 30
0.0
 11
3.4623889815
 21
7.3642917656
 31
0.0
  0
LINE
  5
272
330
1F
100
AcDbEntity
  8
0
  6
Continuous
 62
     7
370
    15
100
AcDbLine
 10
3.4786390205
 20
7.3651437791
 30
0.0
 11
3.4786390205
 21
7.3642917656
 31
0.0
  0
LINE
  5
273
330
1F
100
AcDbEntity
  8
0
  6
Continuous
 62
     7
370
    15
100
AcDbLine
 10
3.4623889815
 20
7.3651437791
 30
0.0
 11
3.4786390205
 21
7.3651437791
 31
0.0
  0
LINE
  5
274
330
1F
100
AcDbEntity
  8
0
  6
Continuous
 62
     7
370
    15
100
AcDbLine
 10
3.4623889815
 20
7.3642917656
 30
0.0
 11
3.4623889815
 21
7.3651437791
 31
0.0
  0
LINE
  5
275
330
1F
100
AcDbEntity
  8
0
  6
Continuous
 62
     7
370
    15
100
AcDbLine
 10
3.4980139767
 20
7.3614888513
 30
0.0
 11
3.4817640111
 21
7.3614888513
 31
0.0
  0
LINE
  5
276
330
1F
100
AcDbEntity
  8
0
  6
Continuous
 62
     7
370
    15
100
AcDbLine
 10
3.4980139767
 20
7.3622140362
 30
0.0
 11
3.4980139767
 21
7.3614888513
 31
0.0
  0
LINE
  5
277
330
1F
100
AcDbEntity
  8
0
  6
Continuous
 62
     7
370
    15
100
AcDbLine
 10
3.4817640111
 20
7.3622140362
 30
0.0
 11
3.4980139767
 21
7.3622140362
 31
0.0
  0
LINE
  5
278
330
1F
100
AcDbEntity
  8
0
  6
Continuous
 62
     7
370
    15
100
AcDbLine
 10
3.4817640111
 20
7.3614888513
 30
0.0
 11
3.4817640111
 21
7.3622140362
 31
0.0
  0
LINE
  5
279
330
1F
100
AcDbEntity
  8
0
  6
Continuous
 62
     7
370
    15
100
AcDbLine
 10
3.4786390205
 20
7.3614888513
 30
0.0
 11
3.4623889815
 21
7.3614888513
 31
0.0
  0
LINE
  5
27A
330
1F
100
AcDbEntity
  8
0
  6
Continuous
 62
     7
370
    15
100
AcDbLine
 10
3.4786390205
 20
7.3622140362
 30
0.0
 11
3.4786390205
 21
7.3614888513
 31
0.0
  0
LINE
  5
27B
330
1F
100
AcDbEntity
  8
0
  6
Continuous
 62
     7
370
    15
100
AcDbLine
 10
3.4623889815
 20
7.3622140362
 30
0.0
 11
3.4786390205
 21
7.3622140362
 31
0.0
  0
LINE
  5
27C
330
1F
100
AcDbEntity
  8
0
  6
Continuous
 62
     7
370
    15
100
AcDbLine
 10
3.4623889815
 20
7.3614888513
 30
0.0
 11
3.4623889815
 21
7.3622140362
 31
0.0
  0
LINE
  5
27D
330
1F
100
AcDbEntity
  8
0
  6
Continuous
 62
     7
370
    15
100
AcDbLine
 10
3.4980139767
 20
7.3591756513
 30
0.0
 11
3.4817640111
 21
7.3591756513
 31
0.0
  0
LINE
  5
27E
330
1F
100
AcDbEntity
  8
0
  6
Continuous
 62
     7
370
    15
100
AcDbLine
 10
3.4980139767
 20
7.3597616146
 30
0.0
 11
3.4980139767
 21
7.3591756513
 31
0.0
  0
LINE
  5
27F
330
1F
100
AcDbEntity
  8
0
  6
Continuous
 62
     7
370
    15
100
AcDbLine
 10
3.4817640111
 20
7.3597616146
 30
0.0
 11
3.4980139767
 21
7.3597616146
 31
0.0
  0
LINE
  5
280
330
1F
100
AcDbEntity
  8
0
  6
Continuous
 62
     7
370
    15
100
AcDbLine
 10
3.4817640111
 20
7.3591756513
 30
0.0
 11
3.4817640111
 21
7.3597616146
 31
0.0
  0
LINE
  5
281
330
1F
100
AcDbEntity
  8
0
  6
Continuous
 62
     7
370
    15
100
AcDbLine
 10
3.4786390205
 20
7.3591756513
 30
0.0
 11
3.4623889815
 21
7.3591756513
 31
0.0
  0
LINE
  5
282
330
1F
100
AcDbEntity
  8
0
  6
Continuous
 62
     7
370
    15
100
AcDbLine
 10
3.4786390205
 20
7.3597616146
 30
0.0
 11
3.4786390205
 21
7.3591756513
 31
0.0
  0
LINE
  5
283
330
1F
100
AcDbEntity
  8
0
  6
Continuous
 62
     7
370
    15
100
AcDbLine
 10
3.4623889815
 20
7.3597616146
 30
0.0
 11
3.4786390205
 21
7.3597616146
 31
0.0
  0
LINE
  5
284
330
1F
100
AcDbEntity
  8
0
  6
Continuous
 62
     7
370
    15
100
AcDbLine
 10
3.4623889815
 20
7.3591756513
 30
0.0
 11
3.4623889815
 21
7.3597616146
 31
0.0
  0
LINE
  5
285
330
1F
100
AcDbEntity
  8
0
  6
Continuous
 62
     7
370
    15
100
AcDbLine
 10
3.4980139767
 20
7.3573917653
 30
0.0
 11
3.4817640111
 21
7.3573917653
 31
0.0
  0
LINE
  5
286
330
1F
100
AcDbEntity
  8
0
  6
Continuous
 62
     7
370
    15
100
AcDbLine
 10
3.4980139767
 20
7.3578284602
 30
0.0
 11
3.4980139767
 21
7.3573917653
 31
0.0
  0
LINE
  5
287
330
1F
100
AcDbEntity
  8
0
  6
Continuous
 62
     7
370
    15
100
AcDbLine
 10
3.4817640111
 20
7.3578284602
 30
0.0
 11
3.4980139767
 21
7.3578284602
 31
0.0
  0
LINE
  5
288
330
1F
100
AcDbEntity
  8
0
  6
Continuous
 62
     7
370
    15
100
AcDbLine
 10
3.4817640111
 20
7.3573917653
 30
0.0
 11
3.4817640111
 21
7.3578284602
 31
0.0
  0
LINE
  5
289
330
1F
100
AcDbEntity
  8
0
  6
Continuous
 62
     7
370
    15
100
AcDbLine
 10
3.4786390205
 20
7.3573917653
 30
0.0
 11
3.4623889815
 21
7.3573917653
 31
0.0
  0
LINE
  5
28A
330
1F
100
AcDbEntity
  8
0
  6
Continuous
 62
     7
370
    15
100
AcDbLine
 10
3.4786390205
 20
7.3578284602
 30
0.0
 11
3.4786390205
 21
7.3573917653
 31
0.0
  0
LINE
  5
28B
330
1F
100
AcDbEntity
  8
0
  6
Continuous
 62
     7
370
    15
100
AcDbLine
 10
3.4623889815
 20
7.3578284602
 30
0.0
 11
3.4786390205
 21
7.3578284602
 31
0.0
  0
LINE
  5
28C
330
1F
100
AcDbEntity
  8
0
  6
Continuous
 62
     7
370
    15
100
AcDbLine
 10
3.4623889815
 20
7.3573917653
 30
0.0
 11
3.4623889815
 21
7.3578284602
 31
0.0
  0
LINE
  5
28D
330
1F
100
AcDbEntity
  8
0
  6
Continuous
 62
     7
370
    15
100
AcDbLine
 10
3.4980139767
 20
7.3561676628
 30
0.0
 11
3.4817640111
 21
7.3561676628
 31
0.0
  0
LINE
  5
28E
330
1F
100
AcDbEntity
  8
0
  6
Continuous
 62
     7
370
    15
100
AcDbLine
 10
3.4980139767
 20
7.3564476462
 30
0.0
 11
3.4980139767
 21
7.3561676628
 31
0.0
  0
LINE
  5
28F
330
1F
100
AcDbEntity
  8
0
  6
Continuous
 62
     7
370
    15
100
AcDbLine
 10
3.4817640111
 20
7.3564476462
 30
0.0
 11
3.4980139767
 21
7.3564476462
 31
0.0
  0
LINE
  5
290
330
1F
100
AcDbEntity
  8
0
  6
Continuous
 62
     7
370
    15
100
AcDbLine
 10
3.4817640111
 20
7.3561676628
 30
0.0
 11
3.4817640111
 21
7.3564476462
 31
0.0
  0
LINE
  5
291
330
1F
100
AcDbEntity
  8
0
  6
Continuous
 62
     7
370
    15
100
AcDbLine
 10
3.4786390205
 20
7.3561676628
 30
0.0
 11
3.4623889815
 21
7.3561676628
 31
0.0
  0
LINE
  5
292
330
1F
100
AcDbEntity
  8
0
  6
Continuous
 62
     7
370
    15
100
AcDbLine
 10
3.4786390205
 20
7.3564476462
 30
0.0
 11
3.4786390205
 21
7.3561676628
 31
0.0
  0
LINE
  5
293
330
1F
100
AcDbEntity
  8
0
  6
Continuous
 62
     7
370
    15
100
AcDbLine
 10
3.4623889815
 20
7.3564476462
 30
0.0
 11
3.4786390205
 21
7.3564476462
 31
0.0
  0
LINE
  5
294
330
1F
100
AcDbEntity
  8
0
  6
Continuous
 62
     7
370
    15
100
AcDbLine
 10
3.4623889815
 20
7.3561676628
 30
0.0
 11
3.4623889815
 21
7.3564476462
 31
0.0
  0
LINE
  5
295
330
1F
100
AcDbEntity
  8
0
  6
Continuous
 62
     7
370
    15
100
AcDbLine
 10
3.4980139767
 20
7.3555243169
 30
0.0
 11
3.4817640111
 21
7.3555243169
 31
0.0
  0
LINE
  5
296
330
1F
100
AcDbEntity
  8
0
  6
Continuous
 62
     7
370
    15
100
AcDbLine
 10
3.4980139767
 20
7.3556427488
 30
0.0
 11
3.4980139767
 21
7.3555243169
 31
0.0
  0
LINE
  5
297
330
1F
100
AcDbEntity
  8
0
  6
Continuous
 62
     7
370
    15
100
AcDbLine
 10
3.4817640111
 20
7.3556427488
 30
0.0
 11
3.4980139767
 21
7.3556427488
 31
0.0
  0
LINE
  5
298
330
1F
100
AcDbEntity
  8
0
  6
Continuous
 62
     7
370
    15
100
AcDbLine
 10
3.4817640111
 20
7.3555243169
 30
0.0
 11
3.4817640111
 21
7.3556427488
 31
0.0
  0
LINE
  5
299
330
1F
100
AcDbEntity
  8
0
  6
Continuous
 62
     7
370
    15
100
AcDbLine
 10
3.4786390205
 20
7.3555243169
 30
0.0
 11
3.4623889815
 21
7.3555243169
 31
0.0
  0
LINE
  5
29A
330
1F
100
AcDbEntity
  8
0
  6
Continuous
 62
     7
370
    15
100
AcDbLine
 10
3.4786390205
 20
7.3556427488
 30
0.0
 11
3.4786390205
 21
7.3555243169
 31
0.0
  0
LINE
  5
29B
330
1F
100
AcDbEntity
  8
0
  6
Continuous
 62
     7
370
    15
100
AcDbLine
 10
3.4623889815
 20
7.3556427488
 30
0.0
 11
3.4786390205
 21
7.3556427488
 31
0.0
  0
LINE
  5
29C
330
1F
100
AcDbEntity
  8
0
  6
Continuous
 62
     7
370
    15
100
AcDbLine
 10
3.4623889815
 20
7.3555243169
 30
0.0
 11
3.4623889815
 21
7.3556427488
 31
0.0
  0
LINE
  5
29D
330
1F
100
AcDbEntity
  8
0
  6
Continuous
 62
     7
370
    15
100
AcDbLine
 10
3.4817640111
 20
7.3938135179
 30
0.0
 11
3.4980139767
 21
7.3938135179
 31
0.0
  0
LINE
  5
29E
330
1F
100
AcDbEntity
  8
0
  6
Continuous
 62
     7
370
    15
100
AcDbLine
 10
3.4623889815
 20
7.3938135179
 30
0.0
 11
3.4786390205
 21
7.3938135179
 31
0.0
  0
LINE
  5
29F
330
1F
100
AcDbEntity
  8
0
  6
Continuous
 62
     7
370
    15
100
AcDbLine
 10
3.4980139767
 20
7.3839268688
 30
0.0
 11
3.4817640111
 21
7.3839268688
 31
0.0
  0
LINE
  5
2A0
330
1F
100
AcDbEntity
  8
0
  6
Continuous
 62
     7
370
    15
100
AcDbLine
 10
3.4786390205
 20
7.3839268688
 30
0.0
 11
3.4623889815
 21
7.3839268688
 31
0.0
  0
LINE
  5
2A1
330
1F
100
AcDbEntity
  8
0
  6
Continuous
 62
     7
370
    15
100
AcDbLine
 10
3.4623889815
 20
7.3980791953
 30
0.0
 11
3.4786390205
 21
7.3980791953
 31
0.0
  0
LINE
  5
2A2
330
1F
100
AcDbEntity
  8
0
  6
Continuous
 62
     7
370
    15
100
AcDbLine
 10
3.4817640111
 20
7.3980791953
 30
0.0
 11
3.4980139767
 21
7.3980791953
 31
0.0
  0
LINE
  5
2A3
330
1F
100
AcDbEntity
  8
0
  6
Continuous
 62
     7
370
    15
100
AcDbLine
 10
3.4980139767
 20
7.3797250273
 30
0.0
 11
3.4817640111
 21
7.3797250273
 31
0.0
  0
LINE
  5
2A4
330
1F
100
AcDbEntity
  8
0
  6
Continuous
 62
     7
370
    15
100
AcDbLine
 10
3.4786390205
 20
7.3797250273
 30
0.0
 11
3.4623889815
 21
7.3797250273
 31
0.0
  0
LINE
  5
2A5
330
1F
100
AcDbEntity
  8
0
  6
Continuous
 62
     7
370
    15
100
AcDbLine
 10
3.4623889815
 20
7.4022084742
 30
0.0
 11
3.4786390205
 21
7.4022084742
 31
0.0
  0
LINE
  5
2A6
330
1F
100
AcDbEntity
  8
0
  6
Continuous
 62
     7
370
    15
100
AcDbLine
 10
3.4817640111
 20
7.4022084742
 30
0.0
 11
3.4980139767
 21
7.4022084742
 31
0.0
  0
LINE
  5
2A7
330
1F
100
AcDbEntity
  8
0
  6
Continuous
 62
     7
370
    15
100
AcDbLine
 10
3.4786390205
 20
7.3757008338
 30
0.0
 11
3.4623889815
 21
7.3757008338
 31
0.0
  0
LINE
  5
2A8
330
1F
100
AcDbEntity
  8
0
  6
Continuous
 62
     7
370
    15
100
AcDbLine
 10
3.4980139767
 20
7.3757008338
 30
0.0
 11
3.4817640111
 21
7.3757008338
 31
0.0
  0
LINE
  5
2A9
330
1F
100
AcDbEntity
  8
0
  6
Continuous
 62
     7
370
    15
100
AcDbLine
 10
3.4623889815
 20
7.4061307356
 30
0.0
 11
3.4786390205
 21
7.4061307356
 31
0.0
  0
LINE
  5
2AA
330
1F
100
AcDbEntity
  8
0
  6
Continuous
 62
     7
370
    15
100
AcDbLine
 10
3.4817640111
 20
7.4061307356
 30
0.0
 11
3.4980139767
 21
7.4061307356
 31
0.0
  0
LINE
  5
2AB
330
1F
100
AcDbEntity
  8
0
  6
Continuous
 62
     7
370
    15
100
AcDbLine
 10
3.4786390205
 20
7.3719232208
 30
0.0
 11
3.4623889815
 21
7.3719232208
 31
0.0
  0
LINE
  5
2AC
330
1F
100
AcDbEntity
  8
0
  6
Continuous
 62
     7
370
    15
100
AcDbLine
 10
3.4980139767
 20
7.3719232208
 30
0.0
 11
3.4817640111
 21
7.3719232208
 31
0.0
  0
LINE
  5
2AD
330
1F
100
AcDbEntity
  8
0
  6
Continuous
 62
     7
370
    15
100
AcDbLine
 10
3.4817640111
 20
7.4097788801
 30
0.0
 11
3.4980139767
 21
7.4097788801
 31
0.0
  0
LINE
  5
2AE
330
1F
100
AcDbEntity
  8
0
  6
Continuous
 62
     7
370
    15
100
AcDbLine
 10
3.4623889815
 20
7.4097788801
 30
0.0
 11
3.4786390205
 21
7.4097788801
 31
0.0
  0
LINE
  5
2AF
330
1F
100
AcDbEntity
  8
0
  6
Continuous
 62
     7
370
    15
100
AcDbLine
 10
3.4786390205
 20
7.3684567575
 30
0.0
 11
3.4623889815
 21
7.3684567575
 31
0.0
  0
LINE
  5
2B0
330
1F
100
AcDbEntity
  8
0
  6
Continuous
 62
     7
370
    15
100
AcDbLine
 10
3.4980139767
 20
7.3684567575
 30
0.0
 11
3.4817640111
 21
7.3684567575
 31
0.0
  0
LINE
  5
2B1
330
1F
100
AcDbEntity
  8
0
  6
Continuous
 62
     7
370
    15
100
AcDbLine
 10
2.9630412434
 20
7.386671997
 30
0.0
 11
2.9630412434
 21
7.393546991
 31
0.0
  0
ARC
  5
2B2
330
1F
100
AcDbEntity
  8
0
  6
Continuous
 62
     7
370
    15
100
AcDbCircle
 10
4.5295821538
 20
7.3074457357
 30
0.0
 40
0.0249999999999994
100
AcDbArc
 50
319.9748186344
 51
139.9748186343
  0
LINE
  5
2B3
330
1F
100
AcDbEntity
  8
0
  6
Continuous
 62
     7
370
    15
100
AcDbLine
 10
4.4593816225
 20
7.1849858803
 30
0.0
 11
4.5487262021
 21
7.2913676313
 31
0.0
  0
ARC
  5
2B4
330
1F
100
AcDbEntity
  8
0
  6
Continuous
 62
     7
370
    15
100
AcDbCircle
 10
4.3946050365
 20
7.2393884358
 30
0.0
 40
0.0845910310529065
100
AcDbArc
 50
294.071526989
 51
319.9748186344
  0
ARC
  5
2B5
330
1F
100
AcDbEntity
  8
0
  6
Continuous
 62
     7
370
    15
100
AcDbCircle
 10
4.4176840142
 20
7.2398074373
 30
0.0
 40
0.0234375000000006
100
AcDbArc
 50
299.1706795883
 51
2.8082467004
  0
LINE
  5
2B6
330
1F
100
AcDbEntity
  8
0
  6
Continuous
 62
     7
370
    15
100
AcDbLine
 10
4.5104381011
 20
7.3235238532
 30
0.0
 11
4.4410933621
 21
7.240955727
 31
0.0
  0
CIRCLE
  5
2B7
330
1F
100
AcDbEntity
  8
0
  6
Continuous
 62
     7
370
    15
100
AcDbCircle
 10
4.5295821538
 20
7.3074457357
 30
0.0
 40
0.0120625000000005
  0
LINE
  5
2B8
330
1F
100
AcDbEntity
  8
0
  6
Continuous
 62
     8
370
    15
100
AcDbLine
 10
3.498825694
 20
7.7919031954
 30
0.0
 11
3.498825694
 21
7.675804844
 31
0.0
  0
LINE
  5
2B9
330
1F
100
AcDbEntity
  8
0
  6
Continuous
 62
     8
370
    15
100
AcDbLine
 10
3.4974998426
 20
7.7913540175
 30
0.0
 11
3.4974998426
 21
7.6763540219
 31
0.0
  0
LINE
  5
2BA
330
1F
100
AcDbEntity
  8
0
  6
Continuous
 62
     8
370
    15
100
AcDbLine
 10
3.4361656511
 20
7.7913540175
 30
0.0
 11
3.4361656511
 21
7.6763540219
 31
0.0
  0
LINE
  5
2BB
330
1F
100
AcDbEntity
  8
0
  6
Continuous
 62
     8
370
    15
100
AcDbLine
 10
3.4348397998
 20
7.7908048443
 30
0.0
 11
3.4348397998
 21
7.6769031951
 31
0.0
  0
LINE
  5
2BC
330
1F
100
AcDbEntity
  8
0
  6
Continuous
 62
     8
370
    15
100
AcDbLine
 10
3.4253131765
 20
7.7812781935
 30
0.0
 11
3.4253131765
 21
7.6864298459
 31
0.0
  0
LINE
  5
2BD
330
1F
100
AcDbEntity
  8
0
  6
Continuous
 62
     8
370
    15
100
AcDbLine
 10
3.4239873252
 20
7.7807290203
 30
0.0
 11
3.4239873252
 21
7.6869790191
 31
0.0
  0
LINE
  5
2BE
330
1F
100
AcDbEntity
  8
0
  6
Continuous
 62
     8
370
    15
100
AcDbLine
 10
3.3580039274
 20
7.4114356076
 30
0.0
 11
3.3580039274
 21
7.3687833804
 31
0.0
  0
LINE
  5
2BF
330
1F
100
AcDbEntity
  8
0
  6
Continuous
 62
     8
370
    15
100
AcDbLine
 10
3.3295611893
 20
7.3659112402
 30
0.0
 11
3.3295611893
 21
7.4143077845
 31
0.0
  0
LINE
  5
2C0
330
1F
100
AcDbEntity
  8
0
  6
Continuous
 62
     8
370
    15
100
AcDbLine
 10
3.3368482385
 20
7.4119640049
 30
0.0
 11
3.3368482385
 21
7.3682549831
 31
0.0
  0
LINE
  5
2C1
330
1F
100
AcDbEntity
  8
0
  6
Continuous
 62
     8
370
    15
100
AcDbLine
 10
3.3018528027
 20
7.4143077845
 30
0.0
 11
3.3018528027
 21
7.3659112402
 31
0.0
  0
LINE
  5
2C2
330
1F
100
AcDbEntity
  8
0
  6
Continuous
 62
     8
370
    15
100
AcDbLine
 10
3.2974334205
 20
7.3677418391
 30
0.0
 11
3.2974334205
 21
7.4124771856
 31
0.0
  0
LINE
  5
2C3
330
1F
100
AcDbEntity
  8
0
  6
Continuous
 62
     8
370
    15
100
AcDbLine
 10
3.3450317039
 20
7.3686206556
 30
0.0
 11
3.3450317039
 21
7.4115983324
 31
0.0
  0
ENDSEC
  0
SECTION
  2
OBJECTS
  0
DICTIONARY
  5
C
330
0
100
AcDbDictionary
281
     1
  3
ACAD_GROUP
350
D
  3
ACAD_LAYOUT
350
1A
  3
ACAD_MLINESTYLE
350
17
  3
ACAD_PLOTSETTINGS
350
19
  3
ACAD_PLOTSTYLENAME
350
E
  0
DICTIONARY
  5
D
102
{ACAD_REACTORS
330
C
102
}
330
C
100
AcDbDictionary
281
     1
  0
DICTIONARY
  5
1A
102
{ACAD_REACTORS
330
C
102
}
330
C
100
AcDbDictionary
281
     1
  3
Layout1
350
1E
  3
Layout2
350
26
  3
Model
350
22
  0
DICTIONARY
  5
17
102
{ACAD_REACTORS
330
C
102
}
330
C
100
AcDbDictionary
281
     1
  3
Standard
350
18
  0
DICTIONARY
  5
19
102
{ACAD_REACTORS
330
C
102
}
330
C
100
AcDbDictionary
281
     1
  0
ACDBDICTIONARYWDFLT
  5
E
102
{ACAD_REACTORS
330
C
102
}
330
C
100
AcDbDictionary
281
     1
  3
Normal
350
F
100
AcDbDictionaryWithDefault
340
F
  0
LAYOUT
  5
1E
102
{ACAD_REACTORS
330
1A
102
}
330
1A
100
AcDbPlotSettings
  1

  2
none_device
  4

  6

 40
0.0
 41
0.0
 42
0.0
 43
0.0
 44
0.0
 45
0.0
 46
0.0
 47
0.0
 48
0.0
 49
0.0
140
0.0
141
0.0
142
1.0
143
1.0
 70
   688
 72
     0
 73
     0
 74
     5
  7

 75
    16
147
1.0
148
0.0
149
0.0
100
AcDbLayout
  1
Layout1
 70
     1
 71
     1
 10
0.0
 20
0.0
 11
12.0
 21
9.0
 12
0.0
 22
0.0
 32
0.0
 14
1.0000000000E+20
 24
1.0000000000E+20
 34
1.0000000000E+20
 15
-1.0000000000E+20
 25
-1.0000000000E+20
 35
-1.0000000000E+20
146
0.0
 13
0.0
 23
0.0
 33
0.0
 16
1.0
 26
0.0
 36
0.0
 17
0.0
 27
1.0
 37
0.0
 76
     0
330
1B
  0
LAYOUT
  5
26
102
{ACAD_REACTORS
330
1A
102
}
330
1A
100
AcDbPlotSettings
  1

  2
none_device
  4

  6

 40
0.0
 41
0.0
 42
0.0
 43
0.0
 44
0.0
 45
0.0
 46
0.0
 47
0.0
 48
0.0
 49
0.0
140
0.0
141
0.0
142
1.0
143
1.0
 70
   688
 72
     0
 73
     0
 74
     5
  7

 75
    16
147
1.0
148
0.0
149
0.0
100
AcDbLayout
  1
Layout2
 70
     1
 71
     2
 10
0.0
 20
0.0
 11
0.0
 21
0.0
 12
0.0
 22
0.0
 32
0.0
 14
0.0
 24
0.0
 34
0.0
 15
0.0
 25
0.0
 35
0.0
146
0.0
 13
0.0
 23
0.0
 33
0.0
 16
1.0
 26
0.0
 36
0.0
 17
0.0
 27
1.0
 37
0.0
 76
     0
330
23
  0
LAYOUT
  5
22
102
{ACAD_REACTORS
330
1A
102
}
330
1A
100
AcDbPlotSettings
  1

  2
none_device
  4

  6

 40
0.0
 41
0.0
 42
0.0
 43
0.0
 44
0.0
 45
0.0
 46
0.0
 47
0.0
 48
0.0
 49
0.0
140
0.0
141
0.0
142
1.0
143
1.0
 70
  1712
 72
     0
 73
     0
 74
     0
  7

 75
     0
147
1.0
148
0.0
149
0.0
100
AcDbLayout
  1
Model
 70
     1
 71
     0
 10
0.0
 20
0.0
 11
8.5
 21
11.0
 12
0.0
 22
0.0
 32
0.0
 14
0.0
 24
0.0
 34
0.0
 15
8.5
 25
11.0
 35
0.0
146
0.0
 13
0.0
 23
0.0
 33
0.0
 16
1.0
 26
0.0
 36
0.0
 17
0.0
 27
1.0
 37
0.0
 76
     0
330
1F
331
29
  0
MLINESTYLE
  5
18
102
{ACAD_REACTORS
330
17
102
}
330
17
100
AcDbMlineStyle
  2
Standard
 70
     0
  3

 62
   256
 51
90.0
 52
90.0
 71
     2
 49
0.5
 62
   256
  6
BYLAYER
 49
-0.5
 62
   256
  6
BYLAYER
  0
ACDBPLACEHOLDER
  5
F
102
{ACAD_REACTORS
330
E
102
}
330
E
  0
ENDSEC
  0
EOF
