  0
SECTION
  2
HEADER
  9
$ACADVER
  1
AC1015
  9
$ACADMAINTVER
 70
     6
  9
$DWGCODEPAGE
  3
ANSI_1252
  9
$INSBASE
 10
0.0
 20
0.0
 30
0.0
  9
$EXTMIN
 10
0.0
 20
0.0
 30
0.0
  9
$EXTMAX
 10
8.5
 20
11.0
 30
0.0
  9
$LIMMIN
 10
0.0
 20
0.0
  9
$LIMMAX
 10
8.5
 20
11.0
  9
$ORTHOMODE
 70
     0
  9
$REGENMODE
 70
     1
  9
$FILLMODE
 70
     1
  9
$QTEXTMODE
 70
     0
  9
$MIRRTEXT
 70
     1
  9
$LTSCALE
 40
1.0
  9
$ATTMODE
 70
     1
  9
$TEXTSIZE
 40
0.125
  9
$TRACEWID
 40
0.05
  9
$TEXTSTYLE
  7
Standard
  9
$CLAYER
  8
0
  9
$CELTYPE
  6
ByLayer
  9
$CECOLOR
 62
   256
  9
$CELTSCALE
 40
1.0
  9
$DISPSILH
 70
     0
  9
$DIMSCALE
 40
1.0
  9
$DIMASZ
 40
0.13
  9
$DIMEXO
 40
0.05
  9
$DIMDLI
 40
0.38
  9
$DIMRND
 40
0.0
  9
$DIMDLE
 40
0.0
  9
$DIMEXE
 40
0.125
  9
$DIMTP
 40
0.0
  9
$DIMTM
 40
0.0
  9
$DIMTXT
 40
0.1527777778
  9
$DIMCEN
 40
0.09
  9
$DIMTSZ
 40
0.0
  9
$DIMTOL
 70
     0
  9
$DIMLIM
 70
     0
  9
$DIMTIH
 70
     1
  9
$DIMTOH
 70
     1
  9
$DIMSE1
 70
     0
  9
$DIMSE2
 70
     0
  9
$DIMTAD
 70
     1
  9
$DIMZIN
 70
     0
  9
$DIMBLK
  1

  9
$DIMASO
 70
     1
  9
$DIMSHO
 70
     1
  9
$DIMPOST
  1

  9
$DIMAPOST
  1

  9
$DIMALT
 70
     0
  9
$DIMALTD
 70
     2
  9
$DIMALTF
 40
25.4
  9
$DIMLFAC
 40
8.0
  9
$DIMTOFL
 70
     0
  9
$DIMTVP
 40
0.0
  9
$DIMTIX
 70
     0
  9
$DIMSOXD
 70
     0
  9
$DIMSAH
 70
     0
  9
$DIMBLK1
  1

  9
$DIMBLK2
  1

  9
$DIMSTYLE
  2
Standard
  9
$DIMCLRD
 70
     0
  9
$DIMCLRE
 70
     0
  9
$DIMCLRT
 70
     0
  9
$DIMTFAC
 40
1.0
  9
$DIMGAP
 40
0.06
  9
$DIMJUST
 70
     0
  9
$DIMSD1
 70
     0
  9
$DIMSD2
 70
     0
  9
$DIMTOLJ
 70
     1
  9
$DIMTZIN
 70
     0
  9
$DIMALTZ
 70
     0
  9
$DIMALTTZ
 70
     0
  9
$DIMUPT
 70
     0
  9
$DIMDEC
 70
     2
  9
$DIMTDEC
 70
     2
  9
$DIMALTU
 70
     2
  9
$DIMALTTD
 70
     2
  9
$DIMTXSTY
  7
Standard
  9
$DIMAUNIT
 70
     0
  9
$DIMADEC
 70
     2
  9
$DIMALTRND
 40
0.0
  9
$DIMAZIN
 70
     0
  9
$DIMDSEP
 70
    46
  9
$DIMATFIT
 70
     3
  9
$DIMFRAC
 70
     0
  9
$DIMLDRBLK
  1

  9
$DIMLUNIT
 70
     2
  9
$DIMLWD
 70
    -2
  9
$DIMLWE
 70
    -2
  9
$DIMTMOVE
 70
     0
  9
$LUNITS
 70
     2
  9
$LUPREC
 70
     3
  9
$SKETCHINC
 40
0.1
  9
$FILLETRAD
 40
0.5
  9
$AUNITS
 70
     0
  9
$AUPREC
 70
     2
  9
$MENU
  1
.
  9
$ELEVATION
 40
0.0
  9
$PELEVATION
 40
0.0
  9
$THICKNESS
 40
0.0
  9
$LIMCHECK
 70
     0
  9
$CHAMFERA
 40
0.5
  9
$CHAMFERB
 40
0.5
  9
$CHAMFERC
 40
1.0
  9
$CHAMFERD
 40
0.0
  9
$SKPOLY
 70
     0
  9
$TDCREATE
 40
2456051.564466169
  9
$TDUCREATE
 40
2456051.814466169
  9
$TDUPDATE
 40
2456051.564466354
  9
$TDUUPDATE
 40
2456051.814466354
  9
$TDINDWG
 40
0.0000000116
  9
$TDUSRTIMER
 40
0.0000000116
  9
$USRTIMER
 70
     1
  9
$ANGBASE
 50
0.0
  9
$ANGDIR
 70
     0
  9
$PDMODE
 70
     0
  9
$PDSIZE
 40
-1.0
  9
$PLINEWID
 40
0.0
  9
$SPLFRAME
 70
     0
  9
$SPLINETYPE
 70
     6
  9
$SPLINESEGS
 70
     8
  9
$HANDSEED
  5
17E
  9
$SURFTAB1
 70
     6
  9
$SURFTAB2
 70
     6
  9
$SURFTYPE
 70
     6
  9
$SURFU
 70
     6
  9
$SURFV
 70
     6
  9
$UCSBASE
  2

  9
$UCSNAME
  2

  9
$UCSORG
 10
0.0
 20
0.0
 30
0.0
  9
$UCSXDIR
 10
1.0
 20
0.0
 30
0.0
  9
$UCSYDIR
 10
0.0
 20
1.0
 30
0.0
  9
$UCSORTHOREF
  2

  9
$UCSORTHOVIEW
 70
     0
  9
$UCSORGTOP
 10
0.0
 20
0.0
 30
0.0
  9
$UCSORGBOTTOM
 10
0.0
 20
0.0
 30
0.0
  9
$UCSORGLEFT
 10
0.0
 20
0.0
 30
0.0
  9
$UCSORGRIGHT
 10
0.0
 20
0.0
 30
0.0
  9
$UCSORGFRONT
 10
0.0
 20
0.0
 30
0.0
  9
$UCSORGBACK
 10
0.0
 20
0.0
 30
0.0
  9
$PUCSBASE
  2

  9
$PUCSNAME
  2

  9
$PUCSORG
 10
0.0
 20
0.0
 30
0.0
  9
$PUCSXDIR
 10
1.0
 20
0.0
 30
0.0
  9
$PUCSYDIR
 10
0.0
 20
1.0
 30
0.0
  9
$PUCSORTHOREF
  2

  9
$PUCSORTHOVIEW
 70
     0
  9
$PUCSORGTOP
 10
0.0
 20
0.0
 30
0.0
  9
$PUCSORGBOTTOM
 10
0.0
 20
0.0
 30
0.0
  9
$PUCSORGLEFT
 10
0.0
 20
0.0
 30
0.0
  9
$PUCSORGRIGHT
 10
0.0
 20
0.0
 30
0.0
  9
$PUCSORGFRONT
 10
0.0
 20
0.0
 30
0.0
  9
$PUCSORGBACK
 10
0.0
 20
0.0
 30
0.0
  9
$USERI1
 70
     0
  9
$USERI2
 70
     0
  9
$USERI3
 70
     0
  9
$USERI4
 70
     0
  9
$USERI5
 70
     0
  9
$USERR1
 40
0.0
  9
$USERR2
 40
0.0
  9
$USERR3
 40
0.0
  9
$USERR4
 40
0.0
  9
$USERR5
 40
0.0
  9
$WORLDVIEW
 70
     1
  9
$SHADEDGE
 70
     3
  9
$SHADEDIF
 70
    70
  9
$TILEMODE
 70
     1
  9
$MAXACTVP
 70
    64
  9
$PINSBASE
 10
0.0
 20
0.0
 30
0.0
  9
$PLIMCHECK
 70
     0
  9
$PEXTMIN
 10
1.0000000000E+20
 20
1.0000000000E+20
 30
1.0000000000E+20
  9
$PEXTMAX
 10
-1.0000000000E+20
 20
-1.0000000000E+20
 30
-1.0000000000E+20
  9
$PLIMMIN
 10
0.0
 20
0.0
  9
$PLIMMAX
 10
12.0
 20
9.0
  9
$UNITMODE
 70
     0
  9
$VISRETAIN
 70
     1
  9
$PLINEGEN
 70
     0
  9
$PSLTSCALE
 70
     1
  9
$TREEDEPTH
 70
  3020
  9
$CMLSTYLE
  2
Standard
  9
$CMLJUST
 70
     0
  9
$CMLSCALE
 40
1.0
  9
$PROXYGRAPHICS
 70
     1
  9
$MEASUREMENT
 70
     0
  9
$CELWEIGHT
370
    -1
  9
$ENDCAPS
280
     0
  9
$JOINSTYLE
280
     0
  9
$LWDISPLAY
290
     1
  9
$INSUNITS
 70
     1
  9
$HYPERLINKBASE
  1

  9
$STYLESHEET
  1

  9
$XEDIT
290
     1
  9
$CEPSNTYPE
380
     0
  9
$PSTYLEMODE
290
     1
  9
$FINGERPRINTGUID
  2
{F30736EA-50FB-4D52-A606-FFCAD4345848}
  9
$VERSIONGUID
  2
{FAEB1C32-E019-11D5-929B-00C0DF256EC4}
  9
$EXTNAMES
290
     1
  9
$PSVPSCALE
 40
0.0
  9
$OLESTARTUP
290
     0
  0
ENDSEC
  0
SECTION
  2
CLASSES
  0
CLASS
  1
ACDBDICTIONARYWDFLT
  2
AcDbDictionaryWithDefault
  3
ObjectDBX Classes
 90
        0
280
     0
281
     0
  0
CLASS
  1
VISUALSTYLE
  2
AcDbVisualStyle
  3
ObjectDBX Classes
 90
     4095
280
     0
281
     0
  0
CLASS
  1
MATERIAL
  2
AcDbMaterial
  3
ObjectDBX Classes
 90
     1153
280
     0
281
     0
  0
CLASS
  1
ACDBPLACEHOLDER
  2
AcDbPlaceHolder
  3
ObjectDBX Classes
 90
        0
280
     0
281
     0
  0
CLASS
  1
LAYOUT
  2
AcDbLayout
  3
ObjectDBX Classes
 90
        0
280
     0
281
     0
  0
ENDSEC
  0
SECTION
  2
TABLES
  0
TABLE
  2
VPORT
  5
8
330
0
100
AcDbSymbolTable
 70
     1
  0
VPORT
  5
29
330
8
100
AcDbSymbolTableRecord
100
AcDbViewportTableRecord
  2
*Active
 70
     0
 10
0.0
 20
0.0
 11
1.0
 21
1.0
 12
4.25
 22
5.5
 13
0.0
 23
0.0
 14
0.5
 24
0.5
 15
0.5
 25
0.5
 16
0.0
 26
0.0
 36
1.0
 17
0.0
 27
0.0
 37
0.0
 40
11.0
 41
0.7727272727
 42
50.0
 43
0.0
 44
0.0
 50
0.0
 51
0.0
 71
     0
 72
  2000
 73
     1
 74
     3
 75
     0
 76
     0
 77
     0
 78
     0
281
     0
 65
     1
110
0.0
120
0.0
130
0.0
111
1.0
121
0.0
131
0.0
112
0.0
122
1.0
132
0.0
 79
     0
146
0.0
  0
ENDTAB
  0
TABLE
  2
LTYPE
  5
5
330
0
100
AcDbSymbolTable
 70
     6
  0
LTYPE
  5
14
330
5
100
AcDbSymbolTableRecord
100
AcDbLinetypeTableRecord
  2
ByBlock
 70
     0
  3

 72
    65
 73
     0
 40
0.0
  0
LTYPE
  5
15
330
5
100
AcDbSymbolTableRecord
100
AcDbLinetypeTableRecord
  2
ByLayer
 70
     0
  3

 72
    65
 73
     0
 40
0.0
  0
LTYPE
  5
16
330
5
100
AcDbSymbolTableRecord
100
AcDbLinetypeTableRecord
  2
Continuous
 70
     0
  3
Solid line
 72
    65
 73
     0
 40
0.0
  0
LTYPE
  5
3F
330
5
100
AcDbSymbolTableRecord
100
AcDbLinetypeTableRecord
  2
HIDDEN
 70
     0
  3
Hidden __ __ __ __ __ __ __ __ __ __ __ __ __ __
 72
    65
 73
     2
 40
0.075
 49
0.05
 74
     0
 49
-0.025
 74
     0
  0
LTYPE
  5
40
330
5
100
AcDbSymbolTableRecord
100
AcDbLinetypeTableRecord
  2
PHANTOM
 70
     0
  3
Phantom ______  __  __  ______  __  __  ______
 72
    65
 73
     6
 40
0.5
 49
0.25
 74
     0
 49
-0.05
 74
     0
 49
0.05
 74
     0
 49
-0.05
 74
     0
 49
0.05
 74
     0
 49
-0.05
 74
     0
  0
LTYPE
  5
41
330
5
100
AcDbSymbolTableRecord
100
AcDbLinetypeTableRecord
  2
CENTER
 70
     0
  3
Center ____ _ ____ _ ____ _ ____ _ ____ _ ____
 72
    65
 73
     4
 40
0.4
 49
0.25
 74
     0
 49
-0.05
 74
     0
 49
0.05
 74
     0
 49
-0.05
 74
     0
  0
LTYPE
  5
42
330
5
100
AcDbSymbolTableRecord
100
AcDbLinetypeTableRecord
  2
CENTERX2
 70
     0
  3
Center (2x) ________  __  ________  __  _____
 72
    65
 73
     4
 40
0.8
 49
0.5
 74
     0
 49
-0.1
 74
     0
 49
0.1
 74
     0
 49
-0.1
 74
     0
  0
LTYPE
  5
43
330
5
100
AcDbSymbolTableRecord
100
AcDbLinetypeTableRecord
  2
DOT2
 70
     0
  3
Dot (.5x) ........................................
 72
    65
 73
     2
 40
0.025
 49
0.0
 74
     0
 49
-0.025
 74
     0
  0
ENDTAB
  0
TABLE
  2
LAYER
  5
2
330
0
100
AcDbSymbolTable
 70
     1
  0
LAYER
  5
10
330
2
100
AcDbSymbolTableRecord
100
AcDbLayerTableRecord
  2
0
 70
     0
 62
     7
  6
Continuous
370
    -3
390
F
  0
ENDTAB
  0
TABLE
  2
STYLE
  5
3
330
0
100
AcDbSymbolTable
 70
     1
  0
STYLE
  5
11
330
3
100
AcDbSymbolTableRecord
100
AcDbTextStyleTableRecord
  2
Standard
 70
     0
 40
0.0
 41
1.0
 50
0.0
 71
     0
 42
0.125
  3
txt
  4

  0
ENDTAB
  0
TABLE
  2
VIEW
  5
6
330
0
100
AcDbSymbolTable
 70
     0
  0
ENDTAB
  0
TABLE
  2
UCS
  5
7
330
0
100
AcDbSymbolTable
 70
     0
  0
ENDTAB
  0
TABLE
  2
APPID
  5
9
330
0
100
AcDbSymbolTable
 70
     1
  0
APPID
  5
12
330
9
100
AcDbSymbolTableRecord
100
AcDbRegAppTableRecord
  2
ACAD
 70
     0
  0
ENDTAB
  0
TABLE
  2
DIMSTYLE
  5
A
330
0
100
AcDbSymbolTable
 70
     1
100
AcDbDimStyleTable
  0
DIMSTYLE
105
27
330
A
100
AcDbSymbolTableRecord
100
AcDbDimStyleTableRecord
  2
Standard
 70
     0
178
     0
340
11
  0
ENDTAB
  0
TABLE
  2
BLOCK_RECORD
  5
1
330
0
100
AcDbSymbolTable
 70
     1
  0
BLOCK_RECORD
  5
1F
330
1
100
AcDbSymbolTableRecord
100
AcDbBlockTableRecord
  2
*Model_Space
340
22
  0
BLOCK_RECORD
  5
1B
330
1
100
AcDbSymbolTableRecord
100
AcDbBlockTableRecord
  2
*Paper_Space
340
1E
  0
BLOCK_RECORD
  5
23
330
1
100
AcDbSymbolTableRecord
100
AcDbBlockTableRecord
  2
*Paper_Space0
340
26
  0
ENDTAB
  0
ENDSEC
  0
SECTION
  2
BLOCKS
  0
BLOCK
  5
20
330
1F
100
AcDbEntity
  8
0
100
AcDbBlockBegin
  2
*Model_Space
 70
     0
 10
0.0
 20
0.0
 30
0.0
  3
*Model_Space
  1

  0
ENDBLK
  5
21
330
1F
100
AcDbEntity
  8
0
100
AcDbBlockEnd
  0
BLOCK
  5
1C
330
1B
100
AcDbEntity
 67
     1
  8
0
100
AcDbBlockBegin
  2
*Paper_Space
 70
     0
 10
0.0
 20
0.0
 30
0.0
  3
*Paper_Space
  1

  0
ENDBLK
  5
1D
330
1B
100
AcDbEntity
 67
     1
  8
0
100
AcDbBlockEnd
  0
BLOCK
  5
24
330
23
100
AcDbEntity
  8
0
100
AcDbBlockBegin
  2
*Paper_Space0
 70
     0
 10
0.0
 20
0.0
 30
0.0
  3
*Paper_Space0
  1

  0
ENDBLK
  5
25
330
23
100
AcDbEntity
  8
0
100
AcDbBlockEnd
  0
ENDSEC
  0
SECTION
  2
ENTITIES
  0
LINE
  5
44
330
1F
100
AcDbEntity
  8
0
  6
Continuous
 62
     7
370
    15
100
AcDbLine
 10
3.9739419309
 20
8.0696076024
 30
0.0
 11
3.9676919315
 21
8.0696076024
 31
0.0
  0
LINE
  5
45
330
1F
100
AcDbEntity
  8
0
  6
Continuous
 62
     7
370
    15
100
AcDbLine
 10
3.9872596421
 20
8.0677326007
 30
0.0
 11
3.9833553105
 21
8.0609700988
 31
0.0
  0
LINE
  5
46
330
1F
100
AcDbEntity
  8
0
  6
Continuous
 62
     7
370
    15
100
AcDbLine
 10
3.9903866309
 20
8.0623165199
 30
0.0
 11
3.9872596421
 21
8.0677326007
 31
0.0
  0
LINE
  5
47
330
1F
100
AcDbEntity
  8
0
  6
Continuous
 62
     7
370
    15
100
AcDbLine
 10
3.9833553105
 20
8.0609700988
 30
0.0
 11
3.9794509789
 21
8.0677326007
 31
0.0
  0
LINE
  5
48
330
1F
100
AcDbEntity
  8
0
  6
Continuous
 62
     7
370
    15
100
AcDbLine
 10
3.9794509789
 20
8.0677326007
 30
0.0
 11
3.9755466474
 21
8.0609700988
 31
0.0
  0
LINE
  5
49
330
1F
100
AcDbEntity
  8
0
  6
Continuous
 62
     7
370
    15
100
AcDbLine
 10
3.9755466474
 20
8.0609700988
 30
0.0
 11
3.9739419309
 21
8.0637495467
 31
0.0
  0
LINE
  5
4A
330
1F
100
AcDbEntity
  8
0
  6
Continuous
 62
     7
370
    15
100
AcDbLine
 10
4.4408169442
 20
7.4068576135
 30
0.0
 11
4.4436294467
 21
7.4068576135
 31
0.0
  0
LINE
  5
4B
330
1F
100
AcDbEntity
  8
0
  6
Continuous
 62
     7
370
    15
100
AcDbLine
 10
4.570916328
 20
7.3504826231
 30
0.0
 11
4.5912197101
 21
7.3504826231
 31
0.0
  0
LINE
  5
4C
330
1F
100
AcDbEntity
  8
0
  6
Continuous
 62
     7
370
    15
100
AcDbLine
 10
4.6052041419
 20
7.3504826231
 30
0.0
 11
4.6557544246
 21
7.3504826231
 31
0.0
  0
LINE
  5
4D
330
1F
100
AcDbEntity
  8
0
  6
Continuous
 62
     7
370
    15
100
AcDbLine
 10
4.6557544246
 20
8.037982601
 30
0.0
 11
4.4592544362
 21
8.037982601
 31
0.0
  0
LINE
  5
4E
330
1F
100
AcDbEntity
  8
0
  6
Continuous
 62
     7
370
    15
100
AcDbLine
 10
4.4436294467
 20
7.3661076126
 30
0.0
 11
4.4437783117
 21
7.3639557808
 31
0.0
  0
ARC
  5
4F
330
1F
100
AcDbEntity
  8
0
  6
Continuous
 62
     7
370
    15
100
AcDbCircle
 10
4.4592544376
 20
8.0223576121
 30
0.0
 40
0.015625
100
AcDbArc
 50
90.0
 51
180.0
  0
LINE
  5
50
330
1F
100
AcDbEntity
  8
0
  6
Continuous
 62
     7
370
    15
100
AcDbLine
 10
4.6557544246
 20
7.3504826231
 30
0.0
 11
4.6870044402
 21
7.3817326021
 31
0.0
  0
LINE
  5
51
330
1F
100
AcDbEntity
  8
0
  6
Continuous
 62
     7
370
    15
100
AcDbLine
 10
4.6870044402
 20
8.006732622
 30
0.0
 11
4.6557544246
 21
8.037982601
 31
0.0
  0
LINE
  5
52
330
1F
100
AcDbEntity
  8
0
  6
Continuous
 62
     7
370
    15
100
AcDbLine
 10
3.7590044506
 20
8.037982601
 30
0.0
 11
3.7277544349
 21
8.006732622
 31
0.0
  0
LINE
  5
53
330
1F
100
AcDbEntity
  8
0
  6
Continuous
 62
     7
370
    15
100
AcDbLine
 10
3.7277544349
 20
7.3817326021
 30
0.0
 11
3.7590044506
 21
7.3504826231
 31
0.0
  0
LINE
  5
54
330
1F
100
AcDbEntity
  8
0
  6
Continuous
 62
     7
370
    15
100
AcDbLine
 10
3.9555044389
 20
8.037982601
 30
0.0
 11
3.7590044506
 21
8.037982601
 31
0.0
  0
LINE
  5
55
330
1F
100
AcDbEntity
  8
0
  6
Continuous
 62
     7
370
    15
100
AcDbLine
 10
3.7590044506
 20
7.3504826231
 30
0.0
 11
3.9555044389
 21
7.3504826231
 31
0.0
  0
ARC
  5
56
330
1F
100
AcDbEntity
  8
0
  6
Continuous
 62
     7
370
    15
100
AcDbCircle
 10
3.9555044376
 20
8.0223576121
 30
0.0
 40
0.015625
100
AcDbArc
 50
0.0
 51
90.0
  0
ARC
  5
57
330
1F
100
AcDbEntity
  8
0
  6
Continuous
 62
     7
370
    15
100
AcDbCircle
 10
3.9555044376
 20
7.3661076121
 30
0.0
 40
0.015625
100
AcDbArc
 50
270.0
 51
0.0
  0
SPLINE
  5
58
330
1F
100
AcDbEntity
  8
0
  6
Continuous
 62
     7
370
    15
100
AcDbSpline
210
0.0
220
0.0
230
1.0
 70
     8
 71
     3
 72
    11
 73
     7
 74
     0
 42
0.00000001
 43
0.00000001
 12
1.0
 22
0.0
 32
0.0
 13
1.0
 23
0.0
 33
0.0
 40
0.0
 40
0.0
 40
0.0
 40
0.0
 40
0.0614767821104945
 40
0.46168185228826
 40
0.8707284244271519
 40
0.9999999999999999
 40
0.9999999999999999
 40
0.9999999999999999
 40
0.9999999999999999
 10
3.706452814310015
 20
7.647279750725062
 30
0.0
 10
3.706809817243717
 20
7.647387331620082
 30
0.0
 10
3.709490858281413
 20
7.648195248774799
 30
0.0
 10
3.715539186032036
 20
7.649668079069129
 30
0.0
 10
3.722300463836976
 20
7.651221378279429
 30
0.0
 10
3.726698332014292
 20
7.652034237164588
 30
0.0
 10
3.727754434898543
 20
7.652229436879198
 30
0.0
  0
LINE
  5
59
330
1F
100
AcDbEntity
  8
0
  6
Continuous
 62
     7
370
    15
100
AcDbLine
 10
3.6529341792
 20
7.672947693
 30
0.0
 11
3.651397937
 21
7.6713711958
 31
0.0
  0
LINE
  5
5A
330
1F
100
AcDbEntity
  8
0
  6
Continuous
 62
     7
370
    15
100
AcDbLine
 10
4.6870044402
 20
7.7687787692
 30
0.0
 11
4.6882544291
 21
7.7688149084
 31
0.0
  0
LINE
  5
5B
330
1F
100
AcDbEntity
  8
0
  6
Continuous
 62
     7
370
    15
100
AcDbLine
 10
4.7251294498
 20
7.5627394253
 30
0.0
 11
4.7251294498
 21
7.5334144332
 31
0.0
  0
LINE
  5
5C
330
1F
100
AcDbEntity
  8
0
  6
Continuous
 62
     7
370
    15
100
AcDbLine
 10
4.7563794288
 20
7.5334144332
 30
0.0
 11
4.7563794288
 21
7.5627394253
 31
0.0
  0
SPLINE
  5
5D
330
1F
100
AcDbEntity
  8
0
  6
Continuous
 62
     7
370
    15
100
AcDbSpline
210
0.0
220
0.0
230
1.0
 70
     8
 71
     3
 72
    17
 73
    13
 74
     0
 42
0.00000001
 43
0.00000001
 12
1.0
 22
0.0
 32
0.0
 13
1.0
 23
0.0
 33
0.0
 40
0.0
 40
0.0
 40
0.0
 40
0.0
 40
0.0578680208065064
 40
0.1832438301296768
 40
0.2956863472698152
 40
0.4021238857882352
 40
0.5151229034211513
 40
0.6249788152363956
 40
0.7338642372277447
 40
0.8427367261661812
 40
0.952049971159503
 40
1.0
 40
1.0
 40
1.0
 40
1.0
 10
4.725129449803928
 20
7.53341443319026
 30
0.0
 10
4.725111993092566
 20
7.532849948932282
 30
0.0
 10
4.72505671498547
 20
7.531062463270284
 30
0.0
 10
4.724413579888584
 20
7.528071709832029
 30
0.0
 10
4.722798592901855
 20
7.5241985016665
 30
0.0
 10
4.720249198959593
 20
7.52009811554836
 30
0.0
 10
4.716630006789954
 20
7.515744145318812
 30
0.0
 10
4.711813921109758
 20
7.511194330271046
 30
0.0
 10
4.70595413471653
 20
7.506655566059145
 30
0.0
 10
4.698982138519045
 20
7.502194276311211
 30
0.0
 10
4.692649404342007
 20
7.498635048650931
 30
0.0
 10
4.688323439476253
 20
7.496665521015649
 30
0.0
 10
4.687004440227293
 20
7.496065006320693
 30
0.0
  0
SPLINE
  5
5E
330
1F
100
AcDbEntity
  8
0
  6
Continuous
 62
     7
370
    15
100
AcDbSpline
210
0.0
220
0.0
230
1.0
 70
     8
 71
     3
 72
    19
 73
    15
 74
     0
 42
0.00000001
 43
0.00000001
 12
1.0
 22
0.0
 32
0.0
 13
1.0
 23
0.0
 33
0.0
 40
0.0
 40
0.0
 40
0.0
 40
0.0
 40
0.0137291052856775
 40
0.1103088570532816
 40
0.207422383842209
 40
0.3050929657350361
 40
0.4032426615426736
 40
0.5014891468562147
 40
0.5989485389164417
 40
0.6944284666289606
 40
0.7867529241803121
 40
0.8754065692455152
 40
0.9608207382912172
 40
0.9999999999999999
 40
0.9999999999999999
 40
0.9999999999999999
 40
0.9999999999999999
 10
4.687004440227293
 20
7.46207495897662
 30
0.0
 10
4.687582371435131
 20
7.462284955820139
 30
0.0
 10
4.69222585909624
 20
7.463972211567063
 30
0.0
 10
4.700197039068809
 20
7.467564350715294
 30
0.0
 10
4.710806213648271
 20
7.47288032429839
 30
0.0
 10
4.72046551574624
 20
7.478697894961344
 30
0.0
 10
4.729197735685252
 20
7.484965902335085
 30
0.0
 10
4.736883112014695
 20
7.491690830504326
 30
0.0
 10
4.74341963692021
 20
7.498835086445788
 30
0.0
 10
4.748695054283427
 20
7.506328012067381
 30
0.0
 10
4.752637545069405
 20
7.514060873188967
 30
0.0
 10
4.755199192261515
 20
7.521903344453036
 30
0.0
 10
4.756264459304451
 20
7.528392844499222
 30
0.0
 10
4.75635192470454
 20
7.532213120965609
 30
0.0
 10
4.756379428801504
 20
7.53341443319026
 30
0.0
  0
LINE
  5
5F
330
1F
100
AcDbEntity
  8
0
  6
Continuous
 62
     7
370
    15
100
AcDbLine
 10
3.6908794509
 20
7.8431177346
 30
0.0
 11
3.6908794509
 21
7.9195228795
 31
0.0
  0
LINE
  5
60
330
1F
100
AcDbEntity
  8
0
  6
Continuous
 62
     7
370
    15
100
AcDbLine
 10
3.6596294352
 20
7.9195228795
 30
0.0
 11
3.6596294352
 21
7.8431177346
 31
0.0
  0
SPLINE
  5
61
330
1F
100
AcDbEntity
  8
0
  6
Continuous
 62
     7
370
    15
100
AcDbSpline
210
0.0
220
0.0
230
1.0
 70
     8
 71
     3
 72
    16
 73
    12
 74
     0
 42
0.00000001
 43
0.00000001
 12
1.0
 22
0.0
 32
0.0
 13
1.0
 23
0.0
 33
0.0
 40
0.0
 40
0.0
 40
0.0
 40
0.0
 40
0.0599714196702373
 40
0.1946187556869705
 40
0.3263620187159064
 40
0.4527481639399268
 40
0.5746477255139756
 40
0.6936783152247242
 40
0.8111228622759732
 40
0.9278218963931135
 40
1.0
 40
1.0
 40
1.0
 40
1.0
 10
3.690879450881505
 20
7.919522879499207
 30
0.0
 10
3.690903691304142
 20
7.920541193303661
 30
0.0
 10
3.690982356123432
 20
7.923845816849536
 30
0.0
 10
3.6919377199479
 20
7.929419138051064
 30
0.0
 10
3.694257899097124
 20
7.936253462409379
 30
0.0
 10
3.697747509628268
 20
7.942988632701235
 30
0.0
 10
3.702322551192516
 20
7.949556049830408
 30
0.0
 10
3.707934429657042
 20
7.955941989162724
 30
0.0
 10
3.71461524265234
 20
7.962112017669939
 30
0.0
 10
3.721198367730858
 20
7.96733891139197
 30
0.0
 10
3.725941774509614
 20
7.970368798251044
 30
0.0
 10
3.727754434898543
 20
7.971526648747226
 30
0.0
  0
SPLINE
  5
62
330
1F
100
AcDbEntity
  8
0
  6
Continuous
 62
     7
370
    15
100
AcDbSpline
210
0.0
220
0.0
230
1.0
 70
     8
 71
     3
 72
    19
 73
    15
 74
     0
 42
0.00000001
 43
0.00000001
 12
1.0
 22
0.0
 32
0.0
 13
1.0
 23
0.0
 33
0.0
 40
0.0
 40
0.0
 40
0.0
 40
0.0
 40
0.0217686733827762
 40
0.1166370529998463
 40
0.2116927216463128
 40
0.3068371542893523
 40
0.4018411457963362
 40
0.4964089676268205
 40
0.5901593236615769
 40
0.6826929161586565
 40
0.7737108079721622
 40
0.8631336515683785
 40
0.9511580311268931
 40
1.0
 40
1.0
 40
1.0
 40
1.0
 10
3.729202128174667
 20
8.008180315320942
 30
0.0
 10
3.728266549410516
 20
8.00774244825807
 30
0.0
 10
3.723253696859467
 20
8.005396346457502
 30
0.0
 10
3.714939276549241
 20
8.000587831853666
 30
0.0
 10
3.704375283090863
 20
7.993753765704726
 30
0.0
 10
3.694808925564947
 20
7.98635541983859
 30
0.0
 10
3.686236657846024
 20
7.978487779792431
 30
0.0
 10
3.678758970948232
 20
7.970183223069434
 30
0.0
 10
3.672441071145237
 20
7.961508560905926
 30
0.0
 10
3.667344368178573
 20
7.952540281686391
 30
0.0
 10
3.663499357543971
 20
7.943366713532662
 30
0.0
 10
3.660941514089915
 20
7.934077752980882
 30
0.0
 10
3.659775341975731
 20
7.926101251151478
 30
0.0
 10
3.65966780923043
 20
7.92125301538186
 30
0.0
 10
3.659629435217686
 20
7.919522879499207
 30
0.0
  0
LINE
  5
63
330
1F
100
AcDbEntity
  8
0
  6
Continuous
 62
     7
370
    15
100
AcDbLine
 10
3.6265044545
 20
7.8042645976
 30
0.0
 11
3.6265044545
 21
7.7367081081
 31
0.0
  0
LINE
  5
64
330
1F
100
AcDbEntity
  8
0
  6
Continuous
 62
     7
370
    15
100
AcDbLine
 10
3.7240044316
 20
7.7645839402
 30
0.0
 11
3.7240044316
 21
7.8042645976
 31
0.0
  0
LINE
  5
65
330
1F
100
AcDbEntity
  8
0
  6
Continuous
 62
     7
370
    15
100
AcDbLine
 10
4.7895044461
 20
7.6047539349
 30
0.0
 11
4.7895044461
 21
7.6566251442
 31
0.0
  0
LINE
  5
66
330
1F
100
AcDbEntity
  8
0
  6
Continuous
 62
     7
370
    15
100
AcDbLine
 10
4.6920044325
 20
7.6244052812
 30
0.0
 11
4.6920044325
 21
7.6047539349
 31
0.0
  0
LINE
  5
67
330
1F
100
AcDbEntity
  8
0
  6
Continuous
 62
     7
370
    15
100
AcDbLine
 10
4.8107544407
 20
7.800772248
 30
0.0
 11
4.8107544407
 21
7.8048541725
 31
0.0
  0
LINE
  5
68
330
1F
100
AcDbEntity
  8
0
  6
Continuous
 62
     7
370
    15
100
AcDbLine
 10
3.6052544234
 20
7.6189227291
 30
0.0
 11
3.6052544234
 21
7.5931214501
 31
0.0
  0
ARC
  5
69
330
1F
100
AcDbEntity
  8
0
  6
Continuous
 62
     7
370
    15
100
AcDbCircle
 10
3.6387544376
 20
7.5553959235
 30
0.0
 40
0.0235000000000003
100
AcDbArc
 50
180.0
 51
270.0
  0
LINE
  5
6A
330
1F
100
AcDbEntity
  8
0
  6
Continuous
 62
     7
370
    15
100
AcDbLine
 10
3.6387544264
 20
7.5318959191
 30
0.0
 11
3.7277544349
 21
7.5318959191
 31
0.0
  0
ARC
  5
6B
330
1F
100
AcDbEntity
  8
0
  6
Continuous
 62
     7
370
    15
100
AcDbCircle
 10
4.7772544376
 20
7.8316225218
 30
0.0
 40
0.0235000000000003
100
AcDbArc
 50
0.0
 51
90.0
  0
LINE
  5
6C
330
1F
100
AcDbEntity
  8
0
  6
Continuous
 62
     7
370
    15
100
AcDbLine
 10
4.7772544377
 20
7.8551225285
 30
0.0
 11
4.6882544291
 21
7.8551225285
 31
0.0
  0
LINE
  5
6D
330
1F
100
AcDbEntity
  8
0
  6
Continuous
 62
     7
370
    15
100
AcDbLine
 10
4.6882544291
 20
7.8363714026
 30
0.0
 11
4.6870044402
 21
7.8342063342
 31
0.0
  0
LINE
  5
6E
330
1F
100
AcDbEntity
  8
0
  6
Continuous
 62
     7
370
    15
100
AcDbLine
 10
4.6870044402
 20
7.7789006231
 30
0.0
 11
4.6882544291
 21
7.7767355548
 31
0.0
  0
ARC
  5
6F
330
1F
100
AcDbEntity
  8
0
  6
Continuous
 62
     7
370
    15
100
AcDbCircle
 10
3.6518794376
 20
7.6964476927
 30
0.0
 40
0.0235000000000003
100
AcDbArc
 50
180.0
 51
270.0
  0
LINE
  5
70
330
1F
100
AcDbEntity
  8
0
  6
Continuous
 62
     7
370
    15
100
AcDbLine
 10
3.6518794381
 20
7.672947693
 30
0.0
 11
3.7277544349
 21
7.672947693
 31
0.0
  0
LINE
  5
71
330
1F
100
AcDbEntity
  8
0
  6
Continuous
 62
     7
370
    15
100
AcDbLine
 10
4.6870044402
 20
7.6504857599
 30
0.0
 11
4.6882544291
 21
7.6526508237
 31
0.0
  0
LINE
  5
72
330
1F
100
AcDbEntity
  8
0
  6
Continuous
 62
     7
370
    15
100
AcDbLine
 10
4.6882544291
 20
7.6933820713
 30
0.0
 11
4.6870044402
 21
7.6955471348
 31
0.0
  0
ARC
  5
73
330
1F
100
AcDbEntity
  8
0
  6
Continuous
 62
     7
370
    15
100
AcDbCircle
 10
4.7641294376
 20
7.6921545799
 30
0.0
 40
0.0235000000000003
100
AcDbArc
 50
0.0
 51
90.0
  0
LINE
  5
74
330
1F
100
AcDbEntity
  8
0
  6
Continuous
 62
     7
370
    15
100
AcDbLine
 10
4.7641294259
 20
7.7156545804
 30
0.0
 11
4.6882544291
 21
7.7156545804
 31
0.0
  0
LINE
  5
75
330
1F
100
AcDbEntity
  8
0
  6
Continuous
 62
     7
370
    15
100
AcDbLine
 10
4.1683794385
 20
7.891691441
 30
0.0
 11
4.1683794385
 21
7.887273782
 31
0.0
  0
LINE
  5
76
330
1F
100
AcDbEntity
  8
0
  6
Continuous
 62
     7
370
    15
100
AcDbLine
 10
4.2463794366
 20
7.887273782
 30
0.0
 11
4.2463794366
 21
7.891691441
 31
0.0
  0
LINE
  5
77
330
1F
100
AcDbEntity
  8
0
  6
Continuous
 62
     7
370
    15
100
AcDbLine
 10
3.9821294297
 20
7.9934221708
 30
0.0
 11
3.9750557047
 21
7.981170109
 31
0.0
  0
LINE
  5
78
330
1F
100
AcDbEntity
  8
0
  6
Continuous
 62
     7
370
    15
100
AcDbLine
 10
3.9750557047
 20
7.4072951151
 30
0.0
 11
3.9821294297
 21
7.3950430533
 31
0.0
  0
LINE
  5
79
330
1F
100
AcDbEntity
  8
0
  6
Continuous
 62
     7
370
    15
100
AcDbLine
 10
4.4326294455
 20
7.3950430533
 30
0.0
 11
4.4397031704
 21
7.4072951151
 31
0.0
  0
LINE
  5
7A
330
1F
100
AcDbEntity
  8
0
  6
Continuous
 62
     7
370
    15
100
AcDbLine
 10
4.4397031704
 20
7.981170109
 30
0.0
 11
4.4326294455
 21
7.9934221708
 31
0.0
  0
LINE
  5
7B
330
1F
100
AcDbEntity
  8
0
  6
Continuous
 62
     7
370
    15
100
AcDbLine
 10
4.4436294467
 20
7.981170109
 30
0.0
 11
4.4397031704
 21
7.981170109
 31
0.0
  0
LINE
  5
7C
330
1F
100
AcDbEntity
  8
0
  6
Continuous
 62
     7
370
    15
100
AcDbLine
 10
4.4397031704
 20
7.4072951151
 30
0.0
 11
4.4436294467
 21
7.4072951151
 31
0.0
  0
LINE
  5
7D
330
1F
100
AcDbEntity
  8
0
  6
Continuous
 62
     7
370
    15
100
AcDbLine
 10
3.9750557047
 20
7.981170109
 30
0.0
 11
3.9711294284
 21
7.981170109
 31
0.0
  0
LINE
  5
7E
330
1F
100
AcDbEntity
  8
0
  6
Continuous
 62
     7
370
    15
100
AcDbLine
 10
3.9711294284
 20
7.4072951151
 30
0.0
 11
3.9750557047
 21
7.4072951151
 31
0.0
  0
LINE
  5
7F
330
1F
100
AcDbEntity
  8
0
  6
Continuous
 62
     7
370
    15
100
AcDbLine
 10
3.9739419309
 20
7.981170109
 30
0.0
 11
3.9739419309
 21
8.0696076024
 31
0.0
  0
LINE
  5
80
330
1F
100
AcDbEntity
  8
0
  6
Continuous
 62
     7
370
    15
100
AcDbLine
 10
3.9676919315
 20
8.03836074
 30
0.0
 11
3.8426919238
 21
8.03836074
 31
0.0
  0
LINE
  5
81
330
1F
100
AcDbEntity
  8
0
  6
Continuous
 62
     7
370
    15
100
AcDbLine
 10
3.9676919315
 20
8.03836074
 30
0.0
 11
3.9676919315
 21
8.0515097681
 31
0.0
  0
LINE
  5
82
330
1F
100
AcDbEntity
  8
0
  6
Continuous
 62
     7
370
    15
100
AcDbLine
 10
3.8426919238
 20
8.0515097681
 30
0.0
 11
3.9676919315
 21
8.0515097681
 31
0.0
  0
LINE
  5
83
330
1F
100
AcDbEntity
  8
0
  6
Continuous
 62
     7
370
    15
100
AcDbLine
 10
3.8426919238
 20
8.0515097681
 30
0.0
 11
3.8426919238
 21
8.0690128759
 31
0.0
  0
LINE
  5
84
330
1F
100
AcDbEntity
  8
0
  6
Continuous
 62
     7
370
    15
100
AcDbLine
 10
3.9676919315
 20
8.0690128759
 30
0.0
 11
3.8426919238
 21
8.0690128759
 31
0.0
  0
LINE
  5
85
330
1F
100
AcDbEntity
  8
0
  6
Continuous
 62
     7
370
    15
100
AcDbLine
 10
3.9676919315
 20
8.0690128759
 30
0.0
 11
3.9676919315
 21
8.0696076024
 31
0.0
  0
LINE
  5
86
330
1F
100
AcDbEntity
  8
0
  6
Continuous
 62
     7
370
    15
100
AcDbLine
 10
3.9872596421
 20
8.0189825939
 30
0.0
 11
3.9872596421
 21
8.0677326007
 31
0.0
  0
LINE
  5
87
330
1F
100
AcDbEntity
  8
0
  6
Continuous
 62
     7
370
    15
100
AcDbLine
 10
3.9833553105
 20
8.0189825939
 30
0.0
 11
3.9833553105
 21
8.0609700988
 31
0.0
  0
LINE
  5
88
330
1F
100
AcDbEntity
  8
0
  6
Continuous
 62
     7
370
    15
100
AcDbLine
 10
3.9794509789
 20
7.9887829561
 30
0.0
 11
3.9794509789
 21
8.0677326007
 31
0.0
  0
LINE
  5
89
330
1F
100
AcDbEntity
  8
0
  6
Continuous
 62
     7
370
    15
100
AcDbLine
 10
3.9755466474
 20
7.9820204542
 30
0.0
 11
3.9755466474
 21
8.0609700988
 31
0.0
  0
LINE
  5
8A
330
1F
100
AcDbEntity
  8
0
  6
Continuous
 62
     7
370
    15
100
AcDbLine
 10
3.8426919238
 20
8.0515097681
 30
0.0
 11
3.8426919238
 21
8.03836074
 31
0.0
  0
LINE
  5
8B
330
1F
100
AcDbEntity
  8
0
  6
Continuous
 62
     7
370
    15
100
AcDbLine
 10
4.4408169442
 20
7.4072951151
 30
0.0
 11
4.4408169442
 21
7.4068576135
 31
0.0
  0
LINE
  5
8C
330
1F
100
AcDbEntity
  8
0
  6
Continuous
 62
     7
370
    15
100
AcDbLine
 10
4.3933169446
 20
8.0442326188
 30
0.0
 11
4.4245669419
 21
8.0598576083
 31
0.0
  0
LINE
  5
8D
330
1F
100
AcDbEntity
  8
0
  6
Continuous
 62
     7
370
    15
100
AcDbLine
 10
4.4245669419
 20
8.0598576083
 30
0.0
 11
4.4245669419
 21
8.0189825939
 31
0.0
  0
LINE
  5
8E
330
1F
100
AcDbEntity
  8
0
  6
Continuous
 62
     7
370
    15
100
AcDbLine
 10
4.3933169446
 20
8.0442326188
 30
0.0
 11
4.2620669375
 21
8.0442326188
 31
0.0
  0
LINE
  5
8F
330
1F
100
AcDbEntity
  8
0
  6
Continuous
 62
     7
370
    15
100
AcDbLine
 10
4.2620669375
 20
8.0189825939
 30
0.0
 11
4.2620669375
 21
8.0442326188
 31
0.0
  0
LINE
  5
90
330
1F
100
AcDbEntity
  8
0
  6
Continuous
 62
     7
370
    15
100
AcDbLine
 10
3.9901919332
 20
8.0189825939
 30
0.0
 11
3.9901919332
 21
8.0598576083
 31
0.0
  0
LINE
  5
91
330
1F
100
AcDbEntity
  8
0
  6
Continuous
 62
     7
370
    15
100
AcDbLine
 10
3.9901919332
 20
8.0598576083
 30
0.0
 11
4.0214419305
 21
8.0442326188
 31
0.0
  0
LINE
  5
92
330
1F
100
AcDbEntity
  8
0
  6
Continuous
 62
     7
370
    15
100
AcDbLine
 10
4.1526919377
 20
8.0442326188
 30
0.0
 11
4.0214419305
 21
8.0442326188
 31
0.0
  0
LINE
  5
93
330
1F
100
AcDbEntity
  8
0
  6
Continuous
 62
     7
370
    15
100
AcDbLine
 10
4.1526919377
 20
8.0442326188
 30
0.0
 11
4.1526919377
 21
8.0189825939
 31
0.0
  0
LINE
  5
94
330
1F
100
AcDbEntity
  8
0
  6
Continuous
 62
     7
370
    15
100
AcDbLine
 10
4.2151919375
 20
8.0442326188
 30
0.0
 11
4.1995669377
 21
8.0442326188
 31
0.0
  0
LINE
  5
95
330
1F
100
AcDbEntity
  8
0
  6
Continuous
 62
     7
370
    15
100
AcDbLine
 10
4.2151919375
 20
8.0442326188
 30
0.0
 11
4.2151919375
 21
8.0189825939
 31
0.0
  0
LINE
  5
96
330
1F
100
AcDbEntity
  8
0
  6
Continuous
 62
     7
370
    15
100
AcDbLine
 10
4.1995669377
 20
8.0189825939
 30
0.0
 11
4.1995669377
 21
8.0442326188
 31
0.0
  0
LWPOLYLINE
  5
97
330
1F
100
AcDbEntity
  8
0
  6
Continuous
 62
     7
370
    15
100
AcDbPolyline
 90
        9
 70
   128
 43
0.0
 10
4.005816941
 20
8.0754825978
 10
4.0061171642
 20
8.0748821514
 10
4.0070063206
 20
8.0731038387
 10
4.0084502189
 20
8.070216042
 10
4.0103934015
 20
8.0663297136
 10
4.0127611608
 20
8.0615941949
 10
4.0154625096
 20
8.0561914607
 10
4.0183936457
 20
8.0503291884
 10
4.0214419305
 20
8.0442326188
  0
LINE
  5
98
330
1F
100
AcDbEntity
  8
0
  6
Continuous
 62
     7
370
    15
100
AcDbLine
 10
4.005816941
 20
8.0754825978
 30
0.0
 11
4.4089419341
 21
8.0754825978
 31
0.0
  0
LWPOLYLINE
  5
99
330
1F
100
AcDbEntity
  8
0
  6
Continuous
 62
     7
370
    15
100
AcDbPolyline
 90
        9
 70
   128
 43
0.0
 10
4.3933169446
 20
8.0442326188
 10
4.3963652294
 20
8.0503291884
 10
4.3992963655
 20
8.0561914607
 10
4.4019977143
 20
8.0615941949
 10
4.4043654736
 20
8.0663297136
 10
4.4063086562
 20
8.070216042
 10
4.4077525545
 20
8.0731038387
 10
4.4086417109
 20
8.0748821514
 10
4.4089419341
 20
8.0754825978
  0
LINE
  5
9A
330
1F
100
AcDbEntity
  8
0
  6
Continuous
 62
     7
370
    15
100
AcDbLine
 10
4.2151919375
 20
8.0728737213
 30
0.0
 11
4.2620669375
 21
8.0728737213
 31
0.0
  0
LINE
  5
9B
330
1F
100
AcDbEntity
  8
0
  6
Continuous
 62
     7
370
    15
100
AcDbLine
 10
4.1526919377
 20
8.0728737213
 30
0.0
 11
4.1995669377
 21
8.0728737213
 31
0.0
  0
LINE
  5
9C
330
1F
100
AcDbEntity
  8
0
  6
Continuous
 62
     7
370
    15
100
AcDbLine
 10
4.2151919375
 20
8.0728737213
 30
0.0
 11
4.2151919375
 21
8.0442326188
 31
0.0
  0
LINE
  5
9D
330
1F
100
AcDbEntity
  8
0
  6
Continuous
 62
     7
370
    15
100
AcDbLine
 10
4.1995669377
 20
8.0442326188
 30
0.0
 11
4.1995669377
 21
8.0728737213
 31
0.0
  0
LINE
  5
9E
330
1F
100
AcDbEntity
  8
0
  6
Continuous
 62
     7
370
    15
100
AcDbLine
 10
4.1526919377
 20
8.0728737213
 30
0.0
 11
4.1526919377
 21
8.0442326188
 31
0.0
  0
LINE
  5
9F
330
1F
100
AcDbEntity
  8
0
  6
Continuous
 62
     7
370
    15
100
AcDbLine
 10
4.2620669375
 20
8.0442326188
 30
0.0
 11
4.2620669375
 21
8.0728737213
 31
0.0
  0
ARC
  5
A0
330
1F
100
AcDbEntity
  8
0
  6
Continuous
 62
     7
370
    15
100
AcDbCircle
 10
4.0058169376
 20
8.0598576121
 30
0.0
 40
0.0156250000000004
100
AcDbArc
 50
90.0
 51
180.0
  0
ARC
  5
A1
330
1F
100
AcDbEntity
  8
0
  6
Continuous
 62
     7
370
    15
100
AcDbCircle
 10
4.4089419376
 20
8.0598576121
 30
0.0
 40
0.015625
100
AcDbArc
 50
0.0
 51
90.0
  0
LINE
  5
A2
330
1F
100
AcDbEntity
  8
0
  6
Continuous
 62
     7
370
    15
100
AcDbLine
 10
4.6557544246
 20
7.6748418115
 30
0.0
 11
4.6557544246
 21
8.037982601
 31
0.0
  0
LINE
  5
A3
330
1F
100
AcDbEntity
  8
0
  6
Continuous
 62
     7
370
    15
100
AcDbLine
 10
4.6557544246
 20
7.3504826231
 30
0.0
 11
4.6557544246
 21
7.6748418115
 31
0.0
  0
LINE
  5
A4
330
1F
100
AcDbEntity
  8
0
  6
Continuous
 62
     7
370
    15
100
AcDbLine
 10
4.4436294467
 20
7.6757232107
 30
0.0
 11
4.4436294467
 21
8.0223576115
 31
0.0
  0
LINE
  5
A5
330
1F
100
AcDbEntity
  8
0
  6
Continuous
 62
     7
370
    15
100
AcDbLine
 10
4.4436294467
 20
7.3661076126
 30
0.0
 11
4.4436294467
 21
7.6757232107
 31
0.0
  0
LINE
  5
A6
330
1F
100
AcDbEntity
  8
0
  6
Continuous
 62
     7
370
    15
100
AcDbLine
 10
4.6870044402
 20
7.676604611
 30
0.0
 11
4.6870044402
 21
8.006732622
 31
0.0
  0
LINE
  5
A7
330
1F
100
AcDbEntity
  8
0
  6
Continuous
 62
     7
370
    15
100
AcDbLine
 10
4.6870044402
 20
7.3817326021
 30
0.0
 11
4.6870044402
 21
7.676604611
 31
0.0
  0
LINE
  5
A8
330
1F
100
AcDbEntity
  8
0
  6
Continuous
 62
     7
370
    15
100
AcDbLine
 10
3.7590044506
 20
7.7310680034
 30
0.0
 11
3.7590044506
 21
7.3504826231
 31
0.0
  0
LINE
  5
A9
330
1F
100
AcDbEntity
  8
0
  6
Continuous
 62
     7
370
    15
100
AcDbLine
 10
3.7590044506
 20
8.037982601
 30
0.0
 11
3.7590044506
 21
7.7310680034
 31
0.0
  0
LINE
  5
AA
330
1F
100
AcDbEntity
  8
0
  6
Continuous
 62
     7
370
    15
100
AcDbLine
 10
3.7277544349
 20
7.7277193304
 30
0.0
 11
3.7277544349
 21
7.3817326021
 31
0.0
  0
LINE
  5
AB
330
1F
100
AcDbEntity
  8
0
  6
Continuous
 62
     7
370
    15
100
AcDbLine
 10
3.7277544349
 20
8.006732622
 30
0.0
 11
3.7277544349
 21
7.7277193304
 31
0.0
  0
LINE
  5
AC
330
1F
100
AcDbEntity
  8
0
  6
Continuous
 62
     7
370
    15
100
AcDbLine
 10
3.9711294284
 20
7.7293936669
 30
0.0
 11
3.9711294284
 21
7.3661076126
 31
0.0
  0
LINE
  5
AD
330
1F
100
AcDbEntity
  8
0
  6
Continuous
 62
     7
370
    15
100
AcDbLine
 10
3.9711294284
 20
8.0223576115
 30
0.0
 11
3.9711294284
 21
7.7293936669
 31
0.0
  0
CIRCLE
  5
AE
330
1F
100
AcDbEntity
  8
0
  6
Continuous
 62
     7
370
    15
100
AcDbCircle
 10
4.2073794376
 20
7.4989826121
 30
0.0
 40
0.0468750000000004
  0
CIRCLE
  5
AF
330
1F
100
AcDbEntity
  8
0
  6
Continuous
 62
     7
370
    15
100
AcDbCircle
 10
4.2073794376
 20
7.4989826121
 30
0.0
 40
0.0738125000000007
  0
CIRCLE
  5
B0
330
1F
100
AcDbEntity
  8
0
  6
Continuous
 62
     7
370
    15
100
AcDbCircle
 10
4.2073794376
 20
7.4989826121
 30
0.0
 40
0.08125
  0
CIRCLE
  5
B1
330
1F
100
AcDbEntity
  8
0
  6
Continuous
 62
     7
370
    15
100
AcDbCircle
 10
4.2073794376
 20
7.4989826121
 30
0.0
 40
0.085375
  0
CIRCLE
  5
B2
330
1F
100
AcDbEntity
  8
0
  6
Continuous
 62
     7
370
    15
100
AcDbCircle
 10
4.2073794376
 20
7.4989826121
 30
0.0
 40
0.0911500000000001
  0
CIRCLE
  5
B3
330
1F
100
AcDbEntity
  8
0
  6
Continuous
 62
     7
370
    15
100
AcDbCircle
 10
4.2073794376
 20
7.4989826121
 30
0.0
 40
0.1015625
  0
CIRCLE
  5
B4
330
1F
100
AcDbEntity
  8
0
  6
Continuous
 62
     7
370
    15
100
AcDbCircle
 10
4.2073794376
 20
7.4989826121
 30
0.0
 40
0.0744374999999999
  0
CIRCLE
  5
B5
330
1F
100
AcDbEntity
  8
0
  6
Continuous
 62
     7
370
    15
100
AcDbCircle
 10
4.2073794376
 20
7.4989826121
 30
0.0
 40
0.1023125000000002
  0
CIRCLE
  5
B6
330
1F
100
AcDbEntity
  8
0
  6
Continuous
 62
     7
370
    15
100
AcDbCircle
 10
4.2073794376
 20
7.4989826121
 30
0.0
 40
0.1062500000000003
  0
CIRCLE
  5
B7
330
1F
100
AcDbEntity
  8
0
  6
Continuous
 62
     7
370
    15
100
AcDbCircle
 10
4.2073794376
 20
7.8894826121
 30
0.0
 40
0.0584312500000005
  0
CIRCLE
  5
B8
330
1F
100
AcDbEntity
  8
0
  6
Continuous
 62
     7
370
    15
100
AcDbCircle
 10
4.2073794376
 20
7.8894826121
 30
0.0
 40
0.0937500000000003
  0
CIRCLE
  5
B9
330
1F
100
AcDbEntity
  8
0
  6
Continuous
 62
     7
370
    15
100
AcDbCircle
 10
4.2073794376
 20
7.8894826121
 30
0.0
 40
0.0507019732712232
  0
CIRCLE
  5
BA
330
1F
100
AcDbEntity
  8
0
  6
Continuous
 62
     7
370
    15
100
AcDbCircle
 10
4.2073794376
 20
7.8894826121
 30
0.0
 40
0.0390625
  0
LINE
  5
BB
330
1F
100
AcDbEntity
  8
0
  6
Continuous
 62
     7
370
    15
100
AcDbLine
 10
4.3011294387
 20
7.3694826303
 30
0.0
 11
4.3011294387
 21
7.3944826098
 31
0.0
  0
LINE
  5
BC
330
1F
100
AcDbEntity
  8
0
  6
Continuous
 62
     7
370
    15
100
AcDbLine
 10
4.4317544422
 20
7.3944826098
 30
0.0
 11
4.4317544422
 21
7.3163576073
 31
0.0
  0
LINE
  5
BD
330
1F
100
AcDbEntity
  8
0
  6
Continuous
 62
     7
370
    15
100
AcDbLine
 10
3.9830044329
 20
7.3944826098
 30
0.0
 11
3.9830044329
 21
7.3163576073
 31
0.0
  0
LINE
  5
BE
330
1F
100
AcDbEntity
  8
0
  6
Continuous
 62
     7
370
    15
100
AcDbLine
 10
4.1136294364
 20
7.3694826303
 30
0.0
 11
4.1136294364
 21
7.3944826098
 31
0.0
  0
LINE
  5
BF
330
1F
100
AcDbEntity
  8
0
  6
Continuous
 62
     7
370
    15
100
AcDbLine
 10
4.1136294364
 20
7.3694826303
 30
0.0
 11
4.3011294387
 21
7.3694826303
 31
0.0
  0
CIRCLE
  5
C0
330
1F
100
AcDbEntity
  8
0
  6
Continuous
 62
     7
370
    15
100
AcDbCircle
 10
4.4082544376
 20
7.3554826121
 30
0.0
 40
0.0120624999999999
  0
LINE
  5
C1
330
1F
100
AcDbEntity
  8
0
  6
Continuous
 62
     7
370
    15
100
AcDbLine
 10
4.3011294387
 20
7.3944826098
 30
0.0
 11
4.4317544422
 21
7.3944826098
 31
0.0
  0
LINE
  5
C2
330
1F
100
AcDbEntity
  8
0
  6
Continuous
 62
     7
370
    15
100
AcDbLine
 10
3.9830044329
 20
7.3944826098
 30
0.0
 11
4.1136294364
 21
7.3944826098
 31
0.0
  0
LINE
  5
C3
330
1F
100
AcDbEntity
  8
0
  6
Continuous
 62
     7
370
    15
100
AcDbLine
 10
3.9830044329
 20
7.3163576073
 30
0.0
 11
4.4317544422
 21
7.3163576073
 31
0.0
  0
LINE
  5
C4
330
1F
100
AcDbEntity
  8
0
  6
Continuous
 62
     7
370
    15
100
AcDbLine
 10
4.2698794368
 20
7.3694826303
 30
0.0
 11
4.2698794368
 21
7.3944826098
 31
0.0
  0
LINE
  5
C5
330
1F
100
AcDbEntity
  8
0
  6
Continuous
 62
     7
370
    15
100
AcDbLine
 10
4.3011294387
 20
7.3944826098
 30
0.0
 11
4.2976913093
 21
7.3944826098
 31
0.0
  0
LINE
  5
C6
330
1F
100
AcDbEntity
  8
0
  6
Continuous
 62
     7
370
    15
100
AcDbLine
 10
4.1448794383
 20
7.3694826303
 30
0.0
 11
4.1448794383
 21
7.3944826098
 31
0.0
  0
LINE
  5
C7
330
1F
100
AcDbEntity
  8
0
  6
Continuous
 62
     7
370
    15
100
AcDbLine
 10
4.1170675659
 20
7.3944826098
 30
0.0
 11
4.1136294364
 21
7.3944826098
 31
0.0
  0
LWPOLYLINE
  5
C8
330
1F
100
AcDbEntity
  8
0
  6
Continuous
 62
     7
370
    15
100
AcDbPolyline
 90
        3
 70
   128
 43
0.0
 10
3.6991957215
 20
7.772438097
 10
3.7060281825
 20
7.7685198643
 10
3.7110158549
 20
7.7645839402
  0
ARC
  5
C9
330
1F
100
AcDbEntity
  8
0
  6
Continuous
 62
     7
370
    15
100
AcDbCircle
 10
3.6614747473
 20
7.7367201781
 30
0.0
 40
0.034964256450044
100
AcDbArc
 50
155.8738737818
 51
198.8180924471
  0
ARC
  5
CA
330
1F
100
AcDbEntity
  8
0
  6
Continuous
 62
     7
370
    15
100
AcDbCircle
 10
3.6753703399
 20
7.7254229379
 30
0.0
 40
0.0527074377013967
100
AcDbArc
 50
63.1259515945
 51
147.635169634
  0
ARC
  5
CB
330
1F
100
AcDbEntity
  8
0
  6
Continuous
 62
     7
370
    15
100
AcDbCircle
 10
3.6617997865
 20
7.8041926157
 30
0.0
 40
0.0352954053349936
100
AcDbArc
 50
155.9113664535
 51
179.8831501155
  0
LINE
  5
CC
330
1F
100
AcDbEntity
  8
0
  6
Continuous
 62
     7
370
    15
100
AcDbLine
 10
3.6295780757
 20
7.8185984129
 30
0.0
 11
3.6295780757
 21
7.7679310411
 31
0.0
  0
ARC
  5
CD
330
1F
100
AcDbEntity
  8
0
  6
Continuous
 62
     7
370
    15
100
AcDbCircle
 10
3.6659242901
 20
7.7516391001
 30
0.0
 40
0.0398305742493633
100
AcDbArc
 50
136.4950951613
 51
155.856019459
  0
LINE
  5
CE
330
1F
100
AcDbEntity
  8
0
  6
Continuous
 62
     7
370
    15
100
AcDbLine
 10
3.6370345596
 20
7.7790591313
 30
0.0
 11
3.6370345596
 21
7.8297264985
 31
0.0
  0
ARC
  5
CF
330
1F
100
AcDbEntity
  8
0
  6
Continuous
 62
     7
370
    15
100
AcDbCircle
 10
3.6736004876
 20
7.7939926466
 30
0.0
 40
0.051127050275857
100
AcDbArc
 50
97.2254998137
 51
135.6593705455
  0
LINE
  5
D0
330
1F
100
AcDbEntity
  8
0
  6
Continuous
 62
     7
370
    15
100
AcDbLine
 10
3.6671699948
 20
7.8447136879
 30
0.0
 11
3.6671699948
 21
7.7940463207
 31
0.0
  0
ARC
  5
D1
330
1F
100
AcDbEntity
  8
0
  6
Continuous
 62
     7
370
    15
100
AcDbCircle
 10
3.6752551381
 20
7.7367966514
 30
0.0
 40
0.0578177669567674
100
AcDbArc
 50
82.9490434628
 51
98.0384945262
  0
LINE
  5
D2
330
1F
100
AcDbEntity
  8
0
  6
Continuous
 62
     7
370
    15
100
AcDbLine
 10
3.6823523861
 20
7.7941771642
 30
0.0
 11
3.6823523861
 21
7.8448445314
 31
0.0
  0
ARC
  5
D3
330
1F
100
AcDbEntity
  8
0
  6
Continuous
 62
     7
370
    15
100
AcDbCircle
 10
3.6767282712
 20
7.7936122996
 30
0.0
 40
0.0515400062143468
100
AcDbArc
 50
45.5105330769
 51
83.7353325342
  0
LINE
  5
D4
330
1F
100
AcDbEntity
  8
0
  6
Continuous
 62
     7
370
    15
100
AcDbLine
 10
3.7128463805
 20
7.8303798726
 30
0.0
 11
3.7128463805
 21
7.7797125054
 31
0.0
  0
ARC
  5
D5
330
1F
100
AcDbEntity
  8
0
  6
Continuous
 62
     7
370
    15
100
AcDbCircle
 10
3.6842577459
 20
7.75141574
 30
0.0
 40
0.0402245815379662
100
AcDbArc
 50
25.4722268627
 51
44.7060279302
  0
LINE
  5
D6
330
1F
100
AcDbEntity
  8
0
  6
Continuous
 62
     7
370
    15
100
AcDbLine
 10
3.7205722512
 20
7.7687152679
 30
0.0
 11
3.7205722512
 21
7.8193826397
 31
0.0
  0
ARC
  5
D7
330
1F
100
AcDbEntity
  8
0
  6
Continuous
 62
     7
370
    15
100
AcDbCircle
 10
3.6887146527
 20
7.8042015367
 30
0.0
 40
0.035289835165848
100
AcDbArc
 50
0.1023842937
 51
25.4792026707
  0
LINE
  5
D8
330
1F
100
AcDbEntity
  8
0
  6
Continuous
 62
     7
370
    15
100
AcDbLine
 10
3.6944381664
 20
7.7653379036
 30
0.0
 11
3.695947349
 21
7.7645839402
 31
0.0
  0
ARC
  5
D9
330
1F
100
AcDbEntity
  8
0
  6
Continuous
 62
     7
370
    15
100
AcDbCircle
 10
3.6752658957
 20
7.7244453572
 30
0.0
 40
0.0451638828100088
100
AcDbArc
 50
64.8806972084
 51
117.2856730842
  0
ARC
  5
DA
330
1F
100
AcDbEntity
  8
0
  6
Continuous
 62
     7
370
    15
100
AcDbCircle
 10
3.6747350371
 20
7.8478138046
 30
0.0
 40
0.0081756093940134
100
AcDbArc
 50
202.283574586
 51
338.703963403
  0
ARC
  5
DB
330
1F
100
AcDbEntity
  8
0
  6
Continuous
 62
     7
370
    15
100
AcDbCircle
 10
3.7182783094
 20
7.8278466336
 30
0.0
 40
0.008769342202997
100
AcDbArc
 50
231.7260160994
 51
285.1642218405
  0
ARC
  5
DC
330
1F
100
AcDbEntity
  8
0
  6
Continuous
 62
     7
370
    15
100
AcDbCircle
 10
3.6317243502
 20
7.8270983102
 30
0.0
 40
0.0087666840391924
100
AcDbArc
 50
255.8287030214
 51
307.2811099512
  0
ARC
  5
DD
330
1F
100
AcDbEntity
  8
0
  6
Continuous
 62
     7
370
    15
100
AcDbCircle
 10
4.7394261389
 20
7.6619602551
 30
0.0
 40
0.0494532681236065
100
AcDbArc
 50
229.4116203189
 51
251.2595285117
  0
ARC
  5
DE
330
1F
100
AcDbEntity
  8
0
  6
Continuous
 62
     7
370
    15
100
AcDbCircle
 10
4.7488819228
 20
7.6566250171
 30
0.0
 40
0.040617675091714
100
AcDbArc
 50
342.2624937235
 51
17.4541742781
  0
ARC
  5
DF
330
1F
100
AcDbEntity
  8
0
  6
Continuous
 62
     7
370
    15
100
AcDbCircle
 10
4.7407624248
 20
7.6637383214
 30
0.0
 40
0.0515710645836048
100
AcDbArc
 50
250.4882666928
 51
318.3028620684
  0
ARC
  5
E0
330
1F
100
AcDbEntity
  8
0
  6
Continuous
 62
     7
370
    15
100
AcDbCircle
 10
4.7490139216
 20
7.6047593473
 30
0.0
 40
0.0404905249436581
100
AcDbArc
 50
347.1330892141
 51
359.9923412034
  0
LINE
  5
E1
330
1F
100
AcDbEntity
  8
0
  6
Continuous
 62
     7
370
    15
100
AcDbLine
 10
4.7884877279
 20
7.5957426282
 30
0.0
 11
4.7884877279
 21
7.6346460392
 31
0.0
  0
ARC
  5
E2
330
1F
100
AcDbEntity
  8
0
  6
Continuous
 62
     7
370
    15
100
AcDbCircle
 10
4.74757529
 20
7.6440461365
 30
0.0
 40
0.0419784397632782
100
AcDbArc
 50
327.872878446
 51
347.0602223233
  0
LINE
  5
E3
330
1F
100
AcDbEntity
  8
0
  6
Continuous
 62
     7
370
    15
100
AcDbLine
 10
4.7831255832
 20
7.6217220226
 30
0.0
 11
4.7831255832
 21
7.5828186116
 31
0.0
  0
ARC
  5
E4
330
1F
100
AcDbEntity
  8
0
  6
Continuous
 62
     7
370
    15
100
AcDbCircle
 10
4.7427185691
 20
7.6087803083
 30
0.0
 40
0.0480284965152578
100
AcDbArc
 50
286.1075755241
 51
327.2790643466
  0
LINE
  5
E5
330
1F
100
AcDbEntity
  8
0
  6
Continuous
 62
     7
370
    15
100
AcDbLine
 10
4.756043676
 20
7.5626372914
 30
0.0
 11
4.756043676
 21
7.6015406979
 31
0.0
  0
ARC
  5
E6
330
1F
100
AcDbEntity
  8
0
  6
Continuous
 62
     7
370
    15
100
AcDbCircle
 10
4.7407831526
 20
7.6524589564
 30
0.0
 40
0.0531559275047764
100
AcDbArc
 50
270.2993754872
 51
286.6838051889
  0
LINE
  5
E7
330
1F
100
AcDbEntity
  8
0
  6
Continuous
 62
     7
370
    15
100
AcDbLine
 10
4.7410608958
 20
7.5993037545
 30
0.0
 11
4.7410608958
 21
7.5604003389
 31
0.0
  0
ARC
  5
E8
330
1F
100
AcDbEntity
  8
0
  6
Continuous
 62
     7
370
    15
100
AcDbCircle
 10
4.7404710929
 20
7.6119854962
 30
0.0
 40
0.0515885289534263
100
AcDbArc
 50
231.4345605749
 51
270.6550671852
  0
LINE
  5
E9
330
1F
100
AcDbEntity
  8
0
  6
Continuous
 62
     7
370
    15
100
AcDbLine
 10
4.7083103874
 20
7.5716485982
 30
0.0
 11
4.7083103874
 21
7.6105520046
 31
0.0
  0
ARC
  5
EA
330
1F
100
AcDbEntity
  8
0
  6
Continuous
 62
     7
370
    15
100
AcDbCircle
 10
4.7369091808
 20
7.6459708576
 30
0.0
 40
0.0455234678828986
100
AcDbArc
 50
212.9069021961
 51
231.0810156063
  0
LINE
  5
EB
330
1F
100
AcDbEntity
  8
0
  6
Continuous
 62
     7
370
    15
100
AcDbLine
 10
4.6986897519
 20
7.6212390686
 30
0.0
 11
4.6986897519
 21
7.5823356622
 31
0.0
  0
ARC
  5
EC
330
1F
100
AcDbEntity
  8
0
  6
Continuous
 62
     7
370
    15
100
AcDbCircle
 10
4.7333680815
 20
7.6048829807
 30
0.0
 40
0.0413638503537282
100
AcDbArc
 50
180.1787500793
 51
213.031305325
  0
LINE
  5
ED
330
1F
100
AcDbEntity
  8
0
  6
Continuous
 62
     7
370
    15
100
AcDbLine
 10
4.7269589487
 20
7.6233748819
 30
0.0
 11
4.7242678298
 21
7.6244052812
 31
0.0
  0
ARC
  5
EE
330
1F
100
AcDbEntity
  8
0
  6
Continuous
 62
     7
370
    15
100
AcDbCircle
 10
4.7407489828
 20
7.6635946878
 30
0.0
 40
0.0425182058440508
100
AcDbArc
 50
251.0748630292
 51
292.8228035396
  0
ARC
  5
EF
330
1F
100
AcDbEntity
  8
0
  6
Continuous
 62
     7
370
    15
100
AcDbCircle
 10
4.7489137846
 20
7.5590975495
 30
0.0
 40
0.0079602213682791
100
AcDbArc
 50
26.4027926831
 51
170.5804565722
  0
ARC
  5
F0
330
1F
100
AcDbEntity
  8
0
  6
Continuous
 62
     7
370
    15
100
AcDbCircle
 10
4.7020831162
 20
7.5748631378
 30
0.0
 40
0.0082069203741553
100
AcDbArc
 50
40.6429777998
 51
114.423377294
  0
ARC
  5
F1
330
1F
100
AcDbEntity
  8
0
  6
Continuous
 62
     7
370
    15
100
AcDbCircle
 10
4.7875116932
 20
7.5874378211
 30
0.0
 40
0.0083619653666336
100
AcDbArc
 50
83.296978239
 51
121.6366758481
  0
ARC
  5
F2
330
1F
100
AcDbEntity
  8
0
  6
Continuous
 62
     7
370
    15
100
AcDbCircle
 10
4.7520096479
 20
7.8048094247
 30
0.0
 40
0.0587626545651534
100
AcDbArc
 50
57.12413558
 51
75.5711059322
  0
ARC
  5
F3
330
1F
100
AcDbEntity
  8
0
  6
Continuous
 62
     7
370
    15
100
AcDbCircle
 10
4.7520072261
 20
7.8048582721
 30
0.0
 40
0.0587343430090902
100
AcDbArc
 50
234.1856678561
 51
36.2828023654
  0
ARC
  5
F4
330
1F
100
AcDbEntity
  8
0
  6
Continuous
 62
     7
370
    15
100
AcDbCircle
 10
4.7520044184
 20
7.8047970169
 30
0.0
 40
0.0587759741823276
100
AcDbArc
 50
75.5691828707
 51
121.1045676499
  0
ARC
  5
F5
330
1F
100
AcDbEntity
  8
0
  6
Continuous
 62
     7
370
    15
100
AcDbCircle
 10
4.7520039909
 20
7.800826656
 30
0.0
 40
0.0587732129236787
100
AcDbArc
 50
233.2212455692
 51
277.9189207151
  0
LINE
  5
F6
330
1F
100
AcDbEntity
  8
0
  6
Continuous
 62
     7
370
    15
100
AcDbLine
 10
4.7168149025
 20
7.7537520491
 30
0.0
 11
4.7168149025
 21
7.7568134925
 31
0.0
  0
LINE
  5
F7
330
1F
100
AcDbEntity
  8
0
  6
Continuous
 62
     7
370
    15
100
AcDbLine
 10
4.7162651289
 20
7.7572295672
 30
0.0
 11
4.7168149025
 21
7.7568134925
 31
0.0
  0
LWPOLYLINE
  5
F8
330
1F
100
AcDbEntity
  8
0
  6
Continuous
 62
     7
370
    15
100
AcDbPolyline
 90
        3
 70
   128
 43
0.0
 10
4.8107544407
 20
7.800772248
 10
4.8107414241
 20
7.7995358898
 10
4.8103416154
 20
7.7938235733
  0
LINE
  5
F9
330
1F
100
AcDbEntity
  8
0
  6
Continuous
 62
     7
370
    15
100
AcDbLine
 10
4.8103416154
 20
7.7938235733
 30
0.0
 11
4.8103416154
 21
7.7968850212
 31
0.0
  0
ARC
  5
FA
330
1F
100
AcDbEntity
  8
0
  6
Continuous
 62
     7
370
    15
100
AcDbCircle
 10
4.7520610537
 20
7.803834545
 30
0.0
 40
0.0586934387404554
100
AcDbArc
 50
337.9107321651
 51
353.2000120284
  0
LINE
  5
FB
330
1F
100
AcDbEntity
  8
0
  6
Continuous
 62
     7
370
    15
100
AcDbLine
 10
4.8064463404
 20
7.7817628359
 30
0.0
 11
4.8064463404
 21
7.7787013879
 31
0.0
  0
ARC
  5
FC
330
1F
100
AcDbEntity
  8
0
  6
Continuous
 62
     7
370
    15
100
AcDbCircle
 10
4.7520254519
 20
7.8007922266
 30
0.0
 40
0.0587336212248559
100
AcDbArc
 50
293.1883453484
 51
337.906501077
  0
LINE
  5
FD
330
1F
100
AcDbEntity
  8
0
  6
Continuous
 62
     7
370
    15
100
AcDbLine
 10
4.7751521053
 20
7.7468033744
 30
0.0
 11
4.7751521053
 21
7.7498648177
 31
0.0
  0
ARC
  5
FE
330
1F
100
AcDbEntity
  8
0
  6
Continuous
 62
     7
370
    15
100
AcDbCircle
 10
4.7520053427
 20
7.8038903558
 30
0.0
 40
0.0587752616603309
100
AcDbArc
 50
277.9173125056
 51
293.1922831066
  0
LINE
  5
FF
330
1F
100
AcDbEntity
  8
0
  6
Continuous
 62
     7
370
    15
100
AcDbLine
 10
4.7601012725
 20
7.7456753466
 30
0.0
 11
4.7601012725
 21
7.7426139032
 31
0.0
  0
LINE
  5
100
330
1F
100
AcDbEntity
  8
0
  6
Continuous
 62
     7
370
    15
100
AcDbLine
 10
4.7739443559
 20
7.7493632006
 30
0.0
 11
4.7751521053
 21
7.7468033744
 31
0.0
  0
LINE
  5
101
330
1F
100
AcDbEntity
  8
0
  6
Continuous
 62
     7
370
    15
100
AcDbLine
 10
4.8099122904
 20
7.7939271921
 30
0.0
 11
4.8103416154
 21
7.7938235733
 31
0.0
  0
LWPOLYLINE
  5
102
330
1F
100
AcDbEntity
  8
0
  6
Continuous
 62
     7
370
    15
100
AcDbPolyline
 90
       21
 70
   128
 43
0.0
 10
3.6152544445
 20
7.5610403116
 10
3.6136319266
 20
7.5635372919
 10
3.6096068531
 20
7.5714077468
 10
3.6068568482
 20
7.5797871567
 10
3.6054463345
 20
7.5884791187
 10
3.6054083483
 20
7.5972798787
 10
3.6067438428
 20
7.6059831799
 10
3.6094214319
 20
7.614385002
 10
3.6133784528
 20
7.6222884336
 10
3.6185220668
 20
7.6295082139
 10
3.6247317517
 20
7.6358751191
 10
3.6318619427
 20
7.641239913
 10
3.6397455516
 20
7.6454768532
 10
3.6481977806
 20
7.6484866247
 10
3.6570204854
 20
7.6501986862
 10
3.6660068682
 20
7.6505729018
 10
3.6749463549
 20
7.6496005085
 10
3.6836293613
 20
7.6473042896
 10
3.691852353
 20
7.6437380758
 10
3.6994226122
 20
7.6389854478
 10
3.7017047558
 20
7.6372094175
  0
ARC
  5
103
330
1F
100
AcDbEntity
  8
0
  6
Continuous
 62
     7
370
    15
100
AcDbCircle
 10
3.6643981552
 20
7.6174531157
 30
0.0
 40
0.0588810369695248
100
AcDbArc
 50
44.4197917031
 51
70.4733989947
  0
LINE
  5
104
330
1F
100
AcDbEntity
  8
0
  6
Continuous
 62
     7
370
    15
100
AcDbLine
 10
3.7064528143
 20
7.6586645482
 30
0.0
 11
3.7064528143
 21
7.6393135923
 31
0.0
  0
LWPOLYLINE
  5
105
330
1F
100
AcDbEntity
  8
0
  6
Continuous
 62
     7
370
    15
100
AcDbPolyline
 90
        3
 70
   128
 43
0.0
 10
3.708410865
 20
7.6372094175
 10
3.7077831389
 20
7.6379069882
 10
3.7064528143
 20
7.6393135923
  0
LINE
  5
106
330
1F
100
AcDbEntity
  8
0
  6
Continuous
 62
     7
370
    15
100
AcDbLine
 10
3.7156572146
 20
7.6372094175
 30
0.0
 11
3.7156572146
 21
7.6463119498
 31
0.0
  0
LWPOLYLINE
  5
107
330
1F
100
AcDbEntity
  8
0
  6
Continuous
 62
     7
370
    15
100
AcDbPolyline
 90
        3
 70
   128
 43
0.0
 10
3.7156572146
 20
7.6463119498
 10
3.7181381627
 20
7.6412588419
 10
3.7197025279
 20
7.6372094175
  0
ARC
  5
108
330
1F
100
AcDbEntity
  8
0
  6
Continuous
 62
     7
370
    15
100
AcDbCircle
 10
3.6615891843
 20
7.6189171654
 30
0.0
 40
0.0563347611706342
100
AcDbArc
 50
163.389173929
 51
179.994341352
  0
LINE
  5
109
330
1F
100
AcDbEntity
  8
0
  6
Continuous
 62
     7
370
    15
100
AcDbLine
 10
3.6076053529
 20
7.6350215519
 30
0.0
 11
3.6076053529
 21
7.6156705938
 31
0.0
  0
ARC
  5
10A
330
1F
100
AcDbEntity
  8
0
  6
Continuous
 62
     7
370
    15
100
AcDbCircle
 10
3.6621021745
 20
7.5994060665
 30
0.0
 40
0.0568721233265289
100
AcDbArc
 50
147.8778172818
 51
163.3823135849
  0
LINE
  5
10B
330
1F
100
AcDbEntity
  8
0
  6
Continuous
 62
     7
370
    15
100
AcDbLine
 10
3.6139362564
 20
7.6296464823
 30
0.0
 11
3.6139362564
 21
7.6489974405
 31
0.0
  0
ARC
  5
10C
330
1F
100
AcDbEntity
  8
0
  6
Continuous
 62
     7
370
    15
100
AcDbCircle
 10
3.6634880004
 20
7.6177084477
 30
0.0
 40
0.0586035527757902
100
AcDbArc
 50
107.2663008594
 51
147.7300143403
  0
LINE
  5
10D
330
1F
100
AcDbEntity
  8
0
  6
Continuous
 62
     7
370
    15
100
AcDbLine
 10
3.6500537158
 20
7.6730187201
 30
0.0
 11
3.6500537158
 21
7.6554124151
 31
0.0
  0
ARC
  5
10E
330
1F
100
AcDbEntity
  8
0
  6
Continuous
 62
     7
370
    15
100
AcDbCircle
 10
3.664002412
 20
7.5970699652
 30
0.0
 40
0.0599867283994969
100
AcDbArc
 50
88.4843893042
 51
103.4460518595
  0
LINE
  5
10F
330
1F
100
AcDbEntity
  8
0
  6
Continuous
 62
     7
370
    15
100
AcDbLine
 10
3.6655890197
 20
7.6570357076
 30
0.0
 11
3.6655890197
 21
7.672947693
 31
0.0
  0
ARC
  5
110
330
1F
100
AcDbEntity
  8
0
  6
Continuous
 62
     7
370
    15
100
AcDbCircle
 10
3.664004433
 20
7.5911295693
 30
0.0
 40
0.0478578157368416
100
AcDbArc
 50
74.3333224668
 51
105.6666775332
  0
ARC
  5
111
330
1F
100
AcDbEntity
  8
0
  6
Continuous
 62
     7
370
    15
100
AcDbCircle
 10
3.6578325815
 20
7.6756607259
 30
0.0
 40
0.0078564358453354
100
AcDbArc
 50
199.8608230754
 51
339.7982917224
  0
ARC
  5
112
330
1F
100
AcDbEntity
  8
0
  6
Continuous
 62
     7
370
    15
100
AcDbCircle
 10
3.7109712328
 20
7.6527259752
 30
0.0
 40
0.0079434342190654
100
AcDbArc
 50
235.3317178357
 51
306.1512519345
  0
ARC
  5
113
330
1F
100
AcDbEntity
  8
0
  6
Continuous
 62
     7
370
    15
100
AcDbCircle
 10
3.6108653897
 20
7.6422889013
 30
0.0
 40
0.0079650616933966
100
AcDbArc
 50
245.8396262692
 51
292.6773989941
  0
LWPOLYLINE
  5
114
330
1F
100
AcDbEntity
  8
0
  6
Continuous
 62
     7
370
    15
100
AcDbPolyline
 90
        9
 70
   128
 43
0.0
 10
3.6387544264
 20
7.5987347128
 10
3.634169826
 20
7.5988279184
 10
3.6297613703
 20
7.5991039418
 10
3.6256985305
 20
7.5995521958
 10
3.6221374317
 20
7.6001554289
 10
3.6192149121
 20
7.600890477
 10
3.6170432805
 20
7.601729089
 10
3.6157059893
 20
7.6026390352
 10
3.6152544445
 20
7.6035853542
  0
ARC
  5
115
330
1F
100
AcDbEntity
  8
0
  6
Continuous
 62
     7
370
    15
100
AcDbCircle
 10
3.6385041364
 20
7.6033295395
 30
0.0
 40
0.0232510992040776
100
AcDbArc
 50
89.3832190166
 51
179.3696039829
  0
LINE
  5
116
330
1F
100
AcDbEntity
  8
0
  6
Continuous
 62
     7
370
    15
100
AcDbLine
 10
3.6387544264
 20
7.6265792915
 30
0.0
 11
3.6387544264
 21
7.5987347128
 31
0.0
  0
LINE
  5
117
330
1F
100
AcDbEntity
  8
0
  6
Continuous
 62
     7
370
    15
100
AcDbLine
 10
3.7277544349
 20
7.5987347128
 30
0.0
 11
3.6387544264
 21
7.5987347128
 31
0.0
  0
LINE
  5
118
330
1F
100
AcDbEntity
  8
0
  6
Continuous
 62
     7
370
    15
100
AcDbLine
 10
3.7277544349
 20
7.6265792915
 30
0.0
 11
3.6387544264
 21
7.6265792915
 31
0.0
  0
LINE
  5
119
330
1F
100
AcDbEntity
  8
0
  6
Continuous
 62
     7
370
    15
100
AcDbLine
 10
3.6152544445
 20
7.5553959193
 30
0.0
 11
3.6152544445
 21
7.6035853542
 31
0.0
  0
LINE
  5
11A
330
1F
100
AcDbEntity
  8
0
  6
Continuous
 62
     7
370
    15
100
AcDbLine
 10
3.6387544264
 20
7.5987347128
 30
0.0
 11
3.6387544264
 21
7.550545287
 31
0.0
  0
LWPOLYLINE
  5
11B
330
1F
100
AcDbEntity
  8
0
  6
Continuous
 62
     7
370
    15
100
AcDbPolyline
 90
        9
 70
   128
 43
0.0
 10
3.6387544264
 20
7.550545287
 10
3.634169826
 20
7.5506384834
 10
3.6297613703
 20
7.550914516
 10
3.6256985305
 20
7.5513627608
 10
3.6221374317
 20
7.551966003
 10
3.6192149121
 20
7.5527010512
 10
3.6170432805
 20
7.5535396632
 10
3.6157059893
 20
7.5544496094
 10
3.6152544445
 20
7.5553959193
  0
LINE
  5
11C
330
1F
100
AcDbEntity
  8
0
  6
Continuous
 62
     7
370
    15
100
AcDbLine
 10
3.7277544349
 20
7.550545287
 30
0.0
 11
3.6387544264
 21
7.550545287
 31
0.0
  0
LINE
  5
11D
330
1F
100
AcDbEntity
  8
0
  6
Continuous
 62
     7
370
    15
100
AcDbLine
 10
3.6152544445
 20
7.6035853542
 30
0.0
 11
3.6152544445
 21
7.6142154756
 31
0.0
  0
ARC
  5
11E
330
1F
100
AcDbEntity
  8
0
  6
Continuous
 62
     7
370
    15
100
AcDbCircle
 10
3.6385041345
 20
7.6139596675
 30
0.0
 40
0.023251097207143
100
AcDbArc
 50
89.3832142211
 51
179.3696201962
  0
LINE
  5
11F
330
1F
100
AcDbEntity
  8
0
  6
Continuous
 62
     7
370
    15
100
AcDbLine
 10
3.6387544264
 20
7.6372094175
 30
0.0
 11
3.6387544264
 21
7.6265792915
 31
0.0
  0
LINE
  5
120
330
1F
100
AcDbEntity
  8
0
  6
Continuous
 62
     7
370
    15
100
AcDbLine
 10
3.7277544349
 20
7.6372094175
 30
0.0
 11
3.6387544264
 21
7.6372094175
 31
0.0
  0
LINE
  5
121
330
1F
100
AcDbEntity
  8
0
  6
Continuous
 62
     7
370
    15
100
AcDbLine
 10
3.6659903684
 20
7.6372094175
 30
0.0
 11
3.6620185343
 21
7.6372094175
 31
0.0
  0
LWPOLYLINE
  5
122
330
1F
100
AcDbEntity
  8
0
  6
Continuous
 62
     7
370
    15
100
AcDbPolyline
 90
        3
 70
   128
 43
0.0
 10
3.6565379209
 20
7.6372094175
 10
3.6640044513
 20
7.6377950049
 10
3.6714709451
 20
7.6372094175
  0
ARC
  5
123
330
1F
100
AcDbEntity
  8
0
  6
Continuous
 62
     7
370
    15
100
AcDbCircle
 10
4.7831231874
 20
7.6026835103
 30
0.0
 40
0.1805780719958278
100
AcDbArc
 50
84.3968436954
 51
91.8624288809
  0
ARC
  5
124
330
1F
100
AcDbEntity
  8
0
  6
Continuous
 62
     7
370
    15
100
AcDbCircle
 10
4.7772607221
 20
7.7824050169
 30
0.0
 40
0.0234936982840665
100
AcDbArc
 50
269.9846737742
 51
359.9848002963
  0
LINE
  5
125
330
1F
100
AcDbEntity
  8
0
  6
Continuous
 62
     7
370
    15
100
AcDbLine
 10
4.7772544377
 20
7.7589113195
 30
0.0
 11
4.7772544377
 21
7.7831661905
 31
0.0
  0
LINE
  5
126
330
1F
100
AcDbEntity
  8
0
  6
Continuous
 62
     7
370
    15
100
AcDbLine
 10
4.6882544291
 20
7.7589113195
 30
0.0
 11
4.6882544291
 21
7.7831661905
 31
0.0
  0
LINE
  5
127
330
1F
100
AcDbEntity
  8
0
  6
Continuous
 62
     7
370
    15
100
AcDbLine
 10
4.6882544291
 20
7.7831661905
 30
0.0
 11
4.7772544377
 21
7.7831661905
 31
0.0
  0
LINE
  5
128
330
1F
100
AcDbEntity
  8
0
  6
Continuous
 62
     7
370
    15
100
AcDbLine
 10
4.6882544291
 20
7.7589113195
 30
0.0
 11
4.7772544377
 21
7.7589113195
 31
0.0
  0
LINE
  5
129
330
1F
100
AcDbEntity
  8
0
  6
Continuous
 62
     7
370
    15
100
AcDbLine
 10
4.8007544195
 20
7.8316225191
 30
0.0
 11
4.8007544195
 21
7.7823987844
 31
0.0
  0
LINE
  5
12A
330
1F
100
AcDbEntity
  8
0
  6
Continuous
 62
     7
370
    15
100
AcDbLine
 10
4.7772544377
 20
7.7831661905
 30
0.0
 11
4.7772544377
 21
7.8323899252
 31
0.0
  0
ARC
  5
12B
330
1F
100
AcDbEntity
  8
0
  6
Continuous
 62
     7
370
    15
100
AcDbCircle
 10
4.7831231874
 20
7.651907245
 30
0.0
 40
0.1805780719964476
100
AcDbArc
 50
84.3968436954
 51
91.8624288809
  0
LINE
  5
12C
330
1F
100
AcDbEntity
  8
0
  6
Continuous
 62
     7
370
    15
100
AcDbLine
 10
4.6882544291
 20
7.8323899252
 30
0.0
 11
4.7772544377
 21
7.8323899252
 31
0.0
  0
LINE
  5
12D
330
1F
100
AcDbEntity
  8
0
  6
Continuous
 62
     7
370
    15
100
AcDbLine
 10
4.6882544291
 20
7.7831661905
 30
0.0
 11
4.6882544291
 21
7.8323899252
 31
0.0
  0
LINE
  5
12E
330
1F
100
AcDbEntity
  8
0
  6
Continuous
 62
     7
370
    15
100
AcDbLine
 10
4.7772544377
 20
7.8551225285
 30
0.0
 11
4.7772544377
 21
7.8551099886
 31
0.0
  0
LINE
  5
12F
330
1F
100
AcDbEntity
  8
0
  6
Continuous
 62
     7
370
    15
100
AcDbLine
 10
4.6882544291
 20
7.8323899252
 30
0.0
 11
4.6882544291
 21
7.8551225285
 31
0.0
  0
LINE
  5
130
330
1F
100
AcDbEntity
  8
0
  6
Continuous
 62
     7
370
    15
100
AcDbLine
 10
4.8007544195
 20
7.7823987844
 30
0.0
 11
4.8007544195
 21
7.7807170322
 31
0.0
  0
ARC
  5
131
330
1F
100
AcDbEntity
  8
0
  6
Continuous
 62
     7
370
    15
100
AcDbCircle
 10
4.7772607221
 20
7.7807232647
 30
0.0
 40
0.0234936982840665
100
AcDbArc
 50
269.9846737742
 51
359.9848002963
  0
LINE
  5
132
330
1F
100
AcDbEntity
  8
0
  6
Continuous
 62
     7
370
    15
100
AcDbLine
 10
4.7772544377
 20
7.7572295672
 30
0.0
 11
4.7772544377
 21
7.7589113195
 31
0.0
  0
LINE
  5
133
330
1F
100
AcDbEntity
  8
0
  6
Continuous
 62
     7
370
    15
100
AcDbLine
 10
4.6882544291
 20
7.7572295672
 30
0.0
 11
4.7772544377
 21
7.7572295672
 31
0.0
  0
LINE
  5
134
330
1F
100
AcDbEntity
  8
0
  6
Continuous
 62
     7
370
    15
100
AcDbLine
 10
4.6882544291
 20
7.7572295672
 30
0.0
 11
4.6882544291
 21
7.7589113195
 31
0.0
  0
LWPOLYLINE
  5
135
330
1F
100
AcDbEntity
  8
0
  6
Continuous
 62
     7
370
    15
100
AcDbPolyline
 90
        9
 70
   128
 43
0.0
 10
3.6518794381
 20
7.7131951933
 10
3.647294801
 20
7.7134392324
 10
3.642886382
 20
7.714161971
 10
3.6388235422
 20
7.7153356345
 10
3.6352624434
 20
7.71691512
 10
3.6323398871
 20
7.7188397266
 10
3.6301682556
 20
7.721035496
 10
3.628831001
 20
7.7234180455
 10
3.6283794196
 20
7.725895815
  0
ARC
  5
136
330
1F
100
AcDbEntity
  8
0
  6
Continuous
 62
     7
370
    15
100
AcDbCircle
 10
3.6501634326
 20
7.7238562359
 30
0.0
 40
0.0218792848921165
100
AcDbArc
 50
85.5016376229
 51
174.6511418021
  0
LINE
  5
137
330
1F
100
AcDbEntity
  8
0
  6
Continuous
 62
     7
370
    15
100
AcDbLine
 10
3.6518794381
 20
7.7456681233
 30
0.0
 11
3.6518794381
 21
7.7131951933
 31
0.0
  0
LINE
  5
138
330
1F
100
AcDbEntity
  8
0
  6
Continuous
 62
     7
370
    15
100
AcDbLine
 10
3.7277544349
 20
7.7131951933
 30
0.0
 11
3.6518794381
 21
7.7131951933
 31
0.0
  0
LINE
  5
139
330
1F
100
AcDbEntity
  8
0
  6
Continuous
 62
     7
370
    15
100
AcDbLine
 10
3.7277544349
 20
7.7456681233
 30
0.0
 11
3.6518794381
 21
7.7456681233
 31
0.0
  0
LINE
  5
13A
330
1F
100
AcDbEntity
  8
0
  6
Continuous
 62
     7
370
    15
100
AcDbLine
 10
3.6283794196
 20
7.6964476927
 30
0.0
 11
3.6283794196
 21
7.725895815
 31
0.0
  0
LINE
  5
13B
330
1F
100
AcDbEntity
  8
0
  6
Continuous
 62
     7
370
    15
100
AcDbLine
 10
3.6518794381
 20
7.7131951933
 30
0.0
 11
3.6518794381
 21
7.6837470726
 31
0.0
  0
LWPOLYLINE
  5
13C
330
1F
100
AcDbEntity
  8
0
  6
Continuous
 62
     7
370
    15
100
AcDbPolyline
 90
        9
 70
   128
 43
0.0
 10
3.6518794381
 20
7.6837470726
 10
3.647294801
 20
7.6839911116
 10
3.642886382
 20
7.6847138497
 10
3.6388235422
 20
7.6858875126
 10
3.6352624434
 20
7.6874669981
 10
3.6323398871
 20
7.6893916058
 10
3.6301682556
 20
7.6915873758
 10
3.628831001
 20
7.6939699246
 10
3.6283794196
 20
7.6964476927
  0
LINE
  5
13D
330
1F
100
AcDbEntity
  8
0
  6
Continuous
 62
     7
370
    15
100
AcDbLine
 10
3.7277544349
 20
7.6837470726
 30
0.0
 11
3.6518794381
 21
7.6837470726
 31
0.0
  0
LINE
  5
13E
330
1F
100
AcDbEntity
  8
0
  6
Continuous
 62
     7
370
    15
100
AcDbLine
 10
3.6283794196
 20
7.725895815
 30
0.0
 11
3.6283794196
 21
7.7448116319
 31
0.0
  0
ARC
  5
13F
330
1F
100
AcDbEntity
  8
0
  6
Continuous
 62
     7
370
    15
100
AcDbCircle
 10
3.6501634326
 20
7.7427720528
 30
0.0
 40
0.0218792848921184
100
AcDbArc
 50
85.5016376229
 51
174.6511418021
  0
LINE
  5
140
330
1F
100
AcDbEntity
  8
0
  6
Continuous
 62
     7
370
    15
100
AcDbLine
 10
3.6518794381
 20
7.7645839402
 30
0.0
 11
3.6518794381
 21
7.7456681233
 31
0.0
  0
LINE
  5
141
330
1F
100
AcDbEntity
  8
0
  6
Continuous
 62
     7
370
    15
100
AcDbLine
 10
3.7277544349
 20
7.7645839402
 30
0.0
 11
3.6518794381
 21
7.7645839402
 31
0.0
  0
ARC
  5
142
330
1F
100
AcDbEntity
  8
0
  6
Continuous
 62
     7
370
    15
100
AcDbCircle
 10
3.675254443
 20
7.7202729728
 30
0.0
 40
0.0459943352444411
100
AcDbArc
 50
74.4507827828
 51
105.5492172172
  0
ARC
  5
143
330
1F
100
AcDbEntity
  8
0
  6
Continuous
 62
     7
370
    15
100
AcDbCircle
 10
3.675254443
 20
7.7217802979
 30
0.0
 40
0.0456609876903493
100
AcDbArc
 50
69.6231268602
 51
110.3768731398
  0
LWPOLYLINE
  5
144
330
1F
100
AcDbEntity
  8
0
  6
Continuous
 62
     7
370
    15
100
AcDbPolyline
 90
        9
 70
   128
 43
0.0
 10
4.7641294259
 20
7.6700621352
 10
4.768714063
 20
7.669874757
 10
4.7731224821
 20
7.6693198249
 10
4.7771853218
 20
7.6684186626
 10
4.7807464573
 20
7.6672059014
 10
4.7836689769
 20
7.6657281509
 10
4.7858406085
 20
7.6640421935
 10
4.7871778997
 20
7.6622128253
 10
4.7876294445
 20
7.6603103469
  0
ARC
  5
145
330
1F
100
AcDbEntity
  8
0
  6
Continuous
 62
     7
370
    15
100
AcDbCircle
 10
4.7651411063
 20
7.6614222919
 30
0.0
 40
0.0225158116604974
100
AcDbArc
 50
267.4247192092
 51
357.1692922906
  0
LINE
  5
146
330
1F
100
AcDbEntity
  8
0
  6
Continuous
 62
     7
370
    15
100
AcDbLine
 10
4.7641294259
 20
7.6389292201
 30
0.0
 11
4.7641294259
 21
7.6700621352
 31
0.0
  0
LINE
  5
147
330
1F
100
AcDbEntity
  8
0
  6
Continuous
 62
     7
370
    15
100
AcDbLine
 10
4.6882544291
 20
7.6389292201
 30
0.0
 11
4.6882544291
 21
7.6700621352
 31
0.0
  0
LINE
  5
148
330
1F
100
AcDbEntity
  8
0
  6
Continuous
 62
     7
370
    15
100
AcDbLine
 10
4.6882544291
 20
7.6700621352
 30
0.0
 11
4.7641294259
 21
7.6700621352
 31
0.0
  0
LINE
  5
149
330
1F
100
AcDbEntity
  8
0
  6
Continuous
 62
     7
370
    15
100
AcDbLine
 10
4.6882544291
 20
7.6389292201
 30
0.0
 11
4.7641294259
 21
7.6389292201
 31
0.0
  0
LINE
  5
14A
330
1F
100
AcDbEntity
  8
0
  6
Continuous
 62
     7
370
    15
100
AcDbLine
 10
4.7876294445
 20
7.69215458
 30
0.0
 11
4.7876294445
 21
7.6603103469
 31
0.0
  0
LINE
  5
14B
330
1F
100
AcDbEntity
  8
0
  6
Continuous
 62
     7
370
    15
100
AcDbLine
 10
4.7641294259
 20
7.6700621352
 30
0.0
 11
4.7641294259
 21
7.7019063681
 31
0.0
  0
LWPOLYLINE
  5
14C
330
1F
100
AcDbEntity
  8
0
  6
Continuous
 62
     7
370
    15
100
AcDbPolyline
 90
        9
 70
   128
 43
0.0
 10
4.7641294259
 20
7.7019063681
 10
4.768714063
 20
7.7017189898
 10
4.7731224821
 20
7.7011640571
 10
4.7771853218
 20
7.7002628954
 10
4.7807464573
 20
7.6990501353
 10
4.7836689769
 20
7.6975723829
 10
4.7858406085
 20
7.6958864276
 10
4.7871778997
 20
7.6940570594
 10
4.7876294445
 20
7.69215458
  0
LINE
  5
14D
330
1F
100
AcDbEntity
  8
0
  6
Continuous
 62
     7
370
    15
100
AcDbLine
 10
4.6882544291
 20
7.7019063681
 30
0.0
 11
4.7641294259
 21
7.7019063681
 31
0.0
  0
LINE
  5
14E
330
1F
100
AcDbEntity
  8
0
  6
Continuous
 62
     7
370
    15
100
AcDbLine
 10
4.6882544291
 20
7.6700621352
 30
0.0
 11
4.6882544291
 21
7.7019063681
 31
0.0
  0
LINE
  5
14F
330
1F
100
AcDbEntity
  8
0
  6
Continuous
 62
     7
370
    15
100
AcDbLine
 10
4.7641294259
 20
7.6244052812
 30
0.0
 11
4.7641294259
 21
7.6389292201
 31
0.0
  0
LINE
  5
150
330
1F
100
AcDbEntity
  8
0
  6
Continuous
 62
     7
370
    15
100
AcDbLine
 10
4.6882544291
 20
7.6244052812
 30
0.0
 11
4.7641294259
 21
7.6244052812
 31
0.0
  0
LINE
  5
151
330
1F
100
AcDbEntity
  8
0
  6
Continuous
 62
     7
370
    15
100
AcDbLine
 10
4.6882544291
 20
7.6244052812
 30
0.0
 11
4.6882544291
 21
7.6389292201
 31
0.0
  0
LINE
  5
152
330
1F
100
AcDbEntity
  8
0
  6
Continuous
 62
     7
370
    15
100
AcDbLine
 10
4.7876294445
 20
7.6603103469
 30
0.0
 11
4.7876294445
 21
7.645786408
 31
0.0
  0
ARC
  5
153
330
1F
100
AcDbEntity
  8
0
  6
Continuous
 62
     7
370
    15
100
AcDbCircle
 10
4.7651411089
 20
7.6468983502
 30
0.0
 40
0.0225158089779273
100
AcDbArc
 50
267.4247124132
 51
357.1692990866
  0
LINE
  5
154
330
1F
100
AcDbEntity
  8
0
  6
Continuous
 62
     7
370
    15
100
AcDbLine
 10
4.6882544291
 20
7.7019063681
 30
0.0
 11
4.6882544291
 21
7.7156545804
 31
0.0
  0
ARC
  5
155
330
1F
100
AcDbEntity
  8
0
  6
Continuous
 62
     7
370
    15
100
AcDbCircle
 10
4.7407544393
 20
7.666457858
 30
0.0
 40
0.0428318444618346
100
AcDbArc
 50
259.0539298166
 51
280.9460701834
  0
ARC
  5
156
330
1F
100
AcDbEntity
  8
0
  6
Continuous
 62
     7
370
    15
100
AcDbCircle
 10
4.7407544393
 20
7.6654511036
 30
0.0
 40
0.04272130226946
100
AcDbArc
 50
254.3174368224
 51
285.6825631776
  0
LINE
  5
157
330
1F
100
AcDbEntity
  8
0
  6
Continuous
 62
     7
370
    15
100
AcDbLine
 10
4.1688201805
 20
7.8832326121
 30
0.0
 11
4.2459386946
 21
7.8832326121
 31
0.0
  0
LINE
  5
158
330
1F
100
AcDbEntity
  8
0
  6
Continuous
 62
     7
370
    15
100
AcDbLine
 10
3.9821294297
 20
8.0189825939
 30
0.0
 11
4.4326294455
 21
8.0189825939
 31
0.0
  0
LINE
  5
159
330
1F
100
AcDbEntity
  8
0
  6
Continuous
 62
     7
370
    15
100
AcDbLine
 10
4.4326294455
 20
8.0189825939
 30
0.0
 11
4.4326294455
 21
7.9877326149
 31
0.0
  0
LINE
  5
15A
330
1F
100
AcDbEntity
  8
0
  6
Continuous
 62
     7
370
    15
100
AcDbLine
 10
4.4326294455
 20
7.9877326149
 30
0.0
 11
3.9821294297
 21
7.9877326149
 31
0.0
  0
LINE
  5
15B
330
1F
100
AcDbEntity
  8
0
  6
Continuous
 62
     7
370
    15
100
AcDbLine
 10
3.9821294297
 20
7.9877326149
 30
0.0
 11
3.9821294297
 21
8.0189825939
 31
0.0
  0
LINE
  5
15C
330
1F
100
AcDbEntity
  8
0
  6
Continuous
 62
     7
370
    15
100
AcDbLine
 10
4.4326294455
 20
7.3944826098
 30
0.0
 11
4.4326294455
 21
7.9877326149
 31
0.0
  0
LINE
  5
15D
330
1F
100
AcDbEntity
  8
0
  6
Continuous
 62
     7
370
    15
100
AcDbLine
 10
3.9821294297
 20
7.3944826098
 30
0.0
 11
3.9821294297
 21
7.9877326149
 31
0.0
  0
LINE
  5
15E
330
1F
100
AcDbEntity
  8
0
  6
Continuous
 62
     7
370
    15
100
AcDbLine
 10
3.9821294297
 20
7.3944826098
 30
0.0
 11
3.9830044329
 21
7.3944826098
 31
0.0
  0
LINE
  5
15F
330
1F
100
AcDbEntity
  8
0
  6
Continuous
 62
     7
370
    15
100
AcDbLine
 10
4.1170675659
 20
7.3944826098
 30
0.0
 11
4.1881749462
 21
7.3944826098
 31
0.0
  0
LINE
  5
160
330
1F
100
AcDbEntity
  8
0
  6
Continuous
 62
     7
370
    15
100
AcDbLine
 10
4.2265839289
 20
7.3944826098
 30
0.0
 11
4.2976913093
 21
7.3944826098
 31
0.0
  0
LINE
  5
161
330
1F
100
AcDbEntity
  8
0
  6
Continuous
 62
     7
370
    15
100
AcDbLine
 10
4.4317544422
 20
7.3944826098
 30
0.0
 11
4.4326294455
 21
7.3944826098
 31
0.0
  0
LINE
  5
162
330
1F
100
AcDbEntity
  8
0
  6
Continuous
 62
     7
370
    15
100
AcDbLine
 10
3.9750557047
 20
7.981170109
 30
0.0
 11
3.9750557047
 21
7.4072951151
 31
0.0
  0
LINE
  5
163
330
1F
100
AcDbEntity
  8
0
  6
Continuous
 62
     7
370
    15
100
AcDbLine
 10
4.4397031704
 20
7.981170109
 30
0.0
 11
4.4397031704
 21
7.4072951151
 31
0.0
  0
ARC
  5
164
330
1F
100
AcDbEntity
  8
0
  6
Continuous
 62
     7
370
    15
100
AcDbCircle
 10
4.5810680118
 20
7.3569977509
 30
0.0
 40
0.0249999999999995
100
AcDbArc
 50
276.3141329342
 51
96.3141329342
  0
LINE
  5
165
330
1F
100
AcDbEntity
  8
0
  6
Continuous
 62
     7
370
    15
100
AcDbLine
 10
4.4457374807
 20
7.3168707514
 30
0.0
 11
4.5838174923
 21
7.3321493916
 31
0.0
  0
LWPOLYLINE
  5
166
330
1F
100
AcDbEntity
  8
0
  6
Continuous
 62
     7
370
    15
100
AcDbPolyline
 90
        3
 70
   128
 43
0.0
 10
4.4457374807
 20
7.3168707514
 10
4.4384779679
 20
7.3163823204
 10
4.4317544422
 20
7.3164871492
  0
ARC
  5
167
330
1F
100
AcDbEntity
  8
0
  6
Continuous
 62
     7
370
    15
100
AcDbCircle
 10
4.3838930841
 20
7.3886294363
 30
0.0
 40
0.0306249999999998
100
AcDbArc
 50
88.7890034631
 51
168.9816070325
  0
LINE
  5
168
330
1F
100
AcDbEntity
  8
0
  6
Continuous
 62
     7
370
    15
100
AcDbLine
 10
4.3845403293
 20
7.4192475954
 30
0.0
 11
4.4102425224
 21
7.4044904592
 31
0.0
  0
LINE
  5
169
330
1F
100
AcDbEntity
  8
0
  6
Continuous
 62
     7
370
    15
100
AcDbLine
 10
4.4329315203
 20
7.3736190958
 30
0.0
 11
4.4317544422
 21
7.3752206773
 31
0.0
  0
LINE
  5
16A
330
1F
100
AcDbEntity
  8
0
  6
Continuous
 62
     7
370
    15
100
AcDbLine
 10
4.4175978258
 20
7.3944826098
 30
0.0
 11
4.4102425224
 21
7.4044904592
 31
0.0
  0
ARC
  5
16B
330
1F
100
AcDbEntity
  8
0
  6
Continuous
 62
     7
370
    15
100
AcDbCircle
 10
4.4455218656
 20
7.382872415
 30
0.0
 40
0.0156250000000001
100
AcDbArc
 50
216.3141329342
 51
220.7787281728
  0
ARC
  5
16C
330
1F
100
AcDbEntity
  8
0
  6
Continuous
 62
     7
370
    15
100
AcDbCircle
 10
4.4534197599
 20
7.3853183588
 30
0.0
 40
0.0234374999999997
100
AcDbArc
 50
212.6691137168
 51
319.1475610003
  0
LINE
  5
16D
330
1F
100
AcDbEntity
  8
0
  6
Continuous
 62
     7
370
    15
100
AcDbLine
 10
4.5783185091
 20
7.3818460841
 30
0.0
 11
4.4711478105
 21
7.3699875978
 31
0.0
  0
CIRCLE
  5
16E
330
1F
100
AcDbEntity
  8
0
  6
Continuous
 62
     7
370
    15
100
AcDbCircle
 10
4.5810680118
 20
7.3569977509
 30
0.0
 40
0.0120625000000003
  0
LINE
  5
16F
330
1F
100
AcDbEntity
  8
0
  6
Continuous
 62
     8
370
    15
100
AcDbLine
 10
4.3933169446
 20
8.0189825939
 30
0.0
 11
4.3933169446
 21
8.0442326188
 31
0.0
  0
LINE
  5
170
330
1F
100
AcDbEntity
  8
0
  6
Continuous
 62
     8
370
    15
100
AcDbLine
 10
4.0214419305
 20
8.0442326188
 30
0.0
 11
4.0214419305
 21
8.0189825939
 31
0.0
  0
LINE
  5
171
330
1F
100
AcDbEntity
  8
0
  6
Continuous
 62
     8
370
    15
100
AcDbLine
 10
4.4592544362
 20
7.6748418115
 30
0.0
 11
4.4592544362
 21
7.3626187462
 31
0.0
  0
LINE
  5
172
330
1F
100
AcDbEntity
  8
0
  6
Continuous
 62
     8
370
    15
100
AcDbLine
 10
4.4592544362
 20
8.037982601
 30
0.0
 11
4.4592544362
 21
7.6748418115
 31
0.0
  0
LINE
  5
173
330
1F
100
AcDbEntity
  8
0
  6
Continuous
 62
     8
370
    15
100
AcDbLine
 10
3.9555044389
 20
7.7310680034
 30
0.0
 11
3.9555044389
 21
8.037982601
 31
0.0
  0
LINE
  5
174
330
1F
100
AcDbEntity
  8
0
  6
Continuous
 62
     8
370
    15
100
AcDbLine
 10
3.9555044389
 20
7.3504826231
 30
0.0
 11
3.9555044389
 21
7.7310680034
 31
0.0
  0
LWPOLYLINE
  5
175
330
1F
100
AcDbEntity
  8
0
  6
Continuous
 62
     8
370
    15
100
AcDbPolyline
 90
        3
 70
   128
 43
0.0
 10
3.6551910965
 20
7.6682803392
 10
3.6583954695
 20
7.6692970987
 10
3.6632332136
 20
7.6699510663
  0
ARC
  5
176
330
1F
100
AcDbEntity
  8
0
  6
Continuous
 62
     8
370
    15
100
AcDbCircle
 10
4.7399875316
 20
7.5340501402
 30
0.0
 40
0.0148716750544086
100
AcDbArc
 50
182.4499211801
 51
272.9559596602
  0
ARC
  5
177
330
1F
100
AcDbEntity
  8
0
  6
Continuous
 62
     8
370
    15
100
AcDbCircle
 10
4.741521347
 20
7.5340501402
 30
0.0
 40
0.0148716750544086
100
AcDbArc
 50
267.0440403398
 51
357.5500788199
  0
ARC
  5
178
330
1F
100
AcDbEntity
  8
0
  6
Continuous
 62
     8
370
    15
100
AcDbCircle
 10
3.6765550913
 20
7.9183565745
 30
0.0
 40
0.0143717620182152
100
AcDbArc
 50
4.654817031
 51
95.1924611105
  0
ARC
  5
179
330
1F
100
AcDbEntity
  8
0
  6
Continuous
 62
     8
370
    15
100
AcDbCircle
 10
3.6739537902
 20
7.9183565762
 30
0.0
 40
0.0143717573625806
100
AcDbArc
 50
84.8076658553
 51
175.3451884749
  0
LINE
  5
17A
330
1F
100
AcDbEntity
  8
0
  6
Continuous
 62
     8
370
    15
100
AcDbLine
 10
3.6387544264
 20
7.550545287
 30
0.0
 11
3.6387544264
 21
7.5318959191
 31
0.0
  0
LINE
  5
17B
330
1F
100
AcDbEntity
  8
0
  6
Continuous
 62
     8
370
    15
100
AcDbLine
 10
4.7772544377
 20
7.8323899252
 30
0.0
 11
4.7772544377
 21
7.8551225285
 31
0.0
  0
LINE
  5
17C
330
1F
100
AcDbEntity
  8
0
  6
Continuous
 62
     8
370
    15
100
AcDbLine
 10
3.6518794381
 20
7.6837470726
 30
0.0
 11
3.6518794381
 21
7.672947693
 31
0.0
  0
LINE
  5
17D
330
1F
100
AcDbEntity
  8
0
  6
Continuous
 62
     8
370
    15
100
AcDbLine
 10
4.7641294259
 20
7.7019063681
 30
0.0
 11
4.7641294259
 21
7.7156545804
 31
0.0
  0
ENDSEC
  0
SECTION
  2
OBJECTS
  0
DICTIONARY
  5
C
330
0
100
AcDbDictionary
281
     1
  3
ACAD_GROUP
350
D
  3
ACAD_LAYOUT
350
1A
  3
ACAD_MLINESTYLE
350
17
  3
ACAD_PLOTSETTINGS
350
19
  3
ACAD_PLOTSTYLENAME
350
E
  0
DICTIONARY
  5
D
102
{ACAD_REACTORS
330
C
102
}
330
C
100
AcDbDictionary
281
     1
  0
DICTIONARY
  5
1A
102
{ACAD_REACTORS
330
C
102
}
330
C
100
AcDbDictionary
281
     1
  3
Layout1
350
1E
  3
Layout2
350
26
  3
Model
350
22
  0
DICTIONARY
  5
17
102
{ACAD_REACTORS
330
C
102
}
330
C
100
AcDbDictionary
281
     1
  3
Standard
350
18
  0
DICTIONARY
  5
19
102
{ACAD_REACTORS
330
C
102
}
330
C
100
AcDbDictionary
281
     1
  0
ACDBDICTIONARYWDFLT
  5
E
102
{ACAD_REACTORS
330
C
102
}
330
C
100
AcDbDictionary
281
     1
  3
Normal
350
F
100
AcDbDictionaryWithDefault
340
F
  0
LAYOUT
  5
1E
102
{ACAD_REACTORS
330
1A
102
}
330
1A
100
AcDbPlotSettings
  1

  2
none_device
  4

  6

 40
0.0
 41
0.0
 42
0.0
 43
0.0
 44
0.0
 45
0.0
 46
0.0
 47
0.0
 48
0.0
 49
0.0
140
0.0
141
0.0
142
1.0
143
1.0
 70
   688
 72
     0
 73
     0
 74
     5
  7

 75
    16
147
1.0
148
0.0
149
0.0
100
AcDbLayout
  1
Layout1
 70
     1
 71
     1
 10
0.0
 20
0.0
 11
12.0
 21
9.0
 12
0.0
 22
0.0
 32
0.0
 14
1.0000000000E+20
 24
1.0000000000E+20
 34
1.0000000000E+20
 15
-1.0000000000E+20
 25
-1.0000000000E+20
 35
-1.0000000000E+20
146
0.0
 13
0.0
 23
0.0
 33
0.0
 16
1.0
 26
0.0
 36
0.0
 17
0.0
 27
1.0
 37
0.0
 76
     0
330
1B
  0
LAYOUT
  5
26
102
{ACAD_REACTORS
330
1A
102
}
330
1A
100
AcDbPlotSettings
  1

  2
none_device
  4

  6

 40
0.0
 41
0.0
 42
0.0
 43
0.0
 44
0.0
 45
0.0
 46
0.0
 47
0.0
 48
0.0
 49
0.0
140
0.0
141
0.0
142
1.0
143
1.0
 70
   688
 72
     0
 73
     0
 74
     5
  7

 75
    16
147
1.0
148
0.0
149
0.0
100
AcDbLayout
  1
Layout2
 70
     1
 71
     2
 10
0.0
 20
0.0
 11
0.0
 21
0.0
 12
0.0
 22
0.0
 32
0.0
 14
0.0
 24
0.0
 34
0.0
 15
0.0
 25
0.0
 35
0.0
146
0.0
 13
0.0
 23
0.0
 33
0.0
 16
1.0
 26
0.0
 36
0.0
 17
0.0
 27
1.0
 37
0.0
 76
     0
330
23
  0
LAYOUT
  5
22
102
{ACAD_REACTORS
330
1A
102
}
330
1A
100
AcDbPlotSettings
  1

  2
none_device
  4

  6

 40
0.0
 41
0.0
 42
0.0
 43
0.0
 44
0.0
 45
0.0
 46
0.0
 47
0.0
 48
0.0
 49
0.0
140
0.0
141
0.0
142
1.0
143
1.0
 70
  1712
 72
     0
 73
     0
 74
     0
  7

 75
     0
147
1.0
148
0.0
149
0.0
100
AcDbLayout
  1
Model
 70
     1
 71
     0
 10
0.0
 20
0.0
 11
8.5
 21
11.0
 12
0.0
 22
0.0
 32
0.0
 14
0.0
 24
0.0
 34
0.0
 15
8.5
 25
11.0
 35
0.0
146
0.0
 13
0.0
 23
0.0
 33
0.0
 16
1.0
 26
0.0
 36
0.0
 17
0.0
 27
1.0
 37
0.0
 76
     0
330
1F
331
29
  0
MLINESTYLE
  5
18
102
{ACAD_REACTORS
330
17
102
}
330
17
100
AcDbMlineStyle
  2
Standard
 70
     0
  3

 62
   256
 51
90.0
 52
90.0
 71
     2
 49
0.5
 62
   256
  6
BYLAYER
 49
-0.5
 62
   256
  6
BYLAYER
  0
ACDBPLACEHOLDER
  5
F
102
{ACAD_REACTORS
330
E
102
}
330
E
  0
ENDSEC
  0
EOF
